  0
SECTION
  2
HEADER
  9
$ACADVER
  1
AC1018
  9
$ACADMAINTVER
 70
     0
  9
$DWGCODEPAGE
  3
ANSI_1252
  9
$INSBASE
 10
0.0
 20
0.0
 30
0.0
  9
$EXTMIN
 10
1.000000000000000E+20
 20
1.000000000000000E+20
 30
1.000000000000000E+20
  9
$EXTMAX
 10
-1.000000000000000E+20
 20
-1.000000000000000E+20
 30
-1.000000000000000E+20
  9
$LIMMIN
 10
0.0
 20
0.0
  9
$LIMMAX
 10
12.0
 20
9.0
  9
$ORTHOMODE
 70
     0
  9
$REGENMODE
 70
     1
  9
$FILLMODE
 70
     1
  9
$QTEXTMODE
 70
     0
  9
$MIRRTEXT
 70
     1
  9
$LTSCALE
 40
1.0
  9
$ATTMODE
 70
     1
  9
$TEXTSIZE
 40
0.2
  9
$TRACEWID
 40
0.05
  9
$TEXTSTYLE
  7
Standard
  9
$CLAYER
  8
0
  9
$CELTYPE
  6
ByLayer
  9
$CECOLOR
 62
   256
  9
$CELTSCALE
 40
1.0
  9
$DISPSILH
 70
     0
  9
$DIMSCALE
 40
1.0
  9
$DIMASZ
 40
0.18
  9
$DIMEXO
 40
0.0625
  9
$DIMDLI
 40
0.38
  9
$DIMRND
 40
0.0
  9
$DIMDLE
 40
0.0
  9
$DIMEXE
 40
0.18
  9
$DIMTP
 40
0.0
  9
$DIMTM
 40
0.0
  9
$DIMTXT
 40
0.18
  9
$DIMCEN
 40
0.09
  9
$DIMTSZ
 40
0.0
  9
$DIMTOL
 70
     0
  9
$DIMLIM
 70
     0
  9
$DIMTIH
 70
     1
  9
$DIMTOH
 70
     1
  9
$DIMSE1
 70
     0
  9
$DIMSE2
 70
     0
  9
$DIMTAD
 70
     0
  9
$DIMZIN
 70
     0
  9
$DIMBLK
  1

  9
$DIMASO
 70
     1
  9
$DIMSHO
 70
     1
  9
$DIMPOST
  1

  9
$DIMAPOST
  1

  9
$DIMALT
 70
     0
  9
$DIMALTD
 70
     2
  9
$DIMALTF
 40
25.4
  9
$DIMLFAC
 40
1.0
  9
$DIMTOFL
 70
     0
  9
$DIMTVP
 40
0.0
  9
$DIMTIX
 70
     0
  9
$DIMSOXD
 70
     0
  9
$DIMSAH
 70
     0
  9
$DIMBLK1
  1

  9
$DIMBLK2
  1

  9
$DIMSTYLE
  2
Standard
  9
$DIMCLRD
 70
     0
  9
$DIMCLRE
 70
     0
  9
$DIMCLRT
 70
     0
  9
$DIMTFAC
 40
1.0
  9
$DIMGAP
 40
0.09
  9
$DIMJUST
 70
     0
  9
$DIMSD1
 70
     0
  9
$DIMSD2
 70
     0
  9
$DIMTOLJ
 70
     1
  9
$DIMTZIN
 70
     0
  9
$DIMALTZ
 70
     0
  9
$DIMALTTZ
 70
     0
  9
$DIMUPT
 70
     0
  9
$DIMDEC
 70
     4
  9
$DIMTDEC
 70
     4
  9
$DIMALTU
 70
     2
  9
$DIMALTTD
 70
     2
  9
$DIMTXSTY
  7
Standard
  9
$DIMAUNIT
 70
     0
  9
$DIMADEC
 70
     0
  9
$DIMALTRND
 40
0.0
  9
$DIMAZIN
 70
     0
  9
$DIMDSEP
 70
    46
  9
$DIMATFIT
 70
     3
  9
$DIMFRAC
 70
     0
  9
$DIMLDRBLK
  1

  9
$DIMLUNIT
 70
     2
  9
$DIMLWD
 70
    -2
  9
$DIMLWE
 70
    -2
  9
$DIMTMOVE
 70
     0
  9
$LUNITS
 70
     2
  9
$LUPREC
 70
     4
  9
$SKETCHINC
 40
0.1
  9
$FILLETRAD
 40
0.5
  9
$AUNITS
 70
     0
  9
$AUPREC
 70
     0
  9
$MENU
  1
.
  9
$ELEVATION
 40
0.0
  9
$PELEVATION
 40
0.0
  9
$THICKNESS
 40
0.0
  9
$LIMCHECK
 70
     0
  9
$CHAMFERA
 40
0.5
  9
$CHAMFERB
 40
0.5
  9
$CHAMFERC
 40
1.0
  9
$CHAMFERD
 40
0.0
  9
$SKPOLY
 70
     0
  9
$TDCREATE
 40
2457128.538429491
  9
$TDUCREATE
 40
2457128.830096157
  9
$TDUPDATE
 40
2457128.538429502
  9
$TDUUPDATE
 40
2457128.830096169
  9
$TDINDWG
 40
0.0000000116
  9
$TDUSRTIMER
 40
0.0000000116
  9
$USRTIMER
 70
     1
  9
$ANGBASE
 50
0.0
  9
$ANGDIR
 70
     0
  9
$PDMODE
 70
     0
  9
$PDSIZE
 40
0.0
  9
$PLINEWID
 40
0.0
  9
$SPLFRAME
 70
     0
  9
$SPLINETYPE
 70
     6
  9
$SPLINESEGS
 70
     8
  9
$HANDSEED
  5
578
  9
$SURFTAB1
 70
     6
  9
$SURFTAB2
 70
     6
  9
$SURFTYPE
 70
     6
  9
$SURFU
 70
     6
  9
$SURFV
 70
     6
  9
$UCSBASE
  2

  9
$UCSNAME
  2

  9
$UCSORG
 10
0.0
 20
0.0
 30
0.0
  9
$UCSXDIR
 10
1.0
 20
0.0
 30
0.0
  9
$UCSYDIR
 10
0.0
 20
1.0
 30
0.0
  9
$UCSORTHOREF
  2

  9
$UCSORTHOVIEW
 70
     0
  9
$UCSORGTOP
 10
0.0
 20
0.0
 30
0.0
  9
$UCSORGBOTTOM
 10
0.0
 20
0.0
 30
0.0
  9
$UCSORGLEFT
 10
0.0
 20
0.0
 30
0.0
  9
$UCSORGRIGHT
 10
0.0
 20
0.0
 30
0.0
  9
$UCSORGFRONT
 10
0.0
 20
0.0
 30
0.0
  9
$UCSORGBACK
 10
0.0
 20
0.0
 30
0.0
  9
$PUCSBASE
  2

  9
$PUCSNAME
  2

  9
$PUCSORG
 10
0.0
 20
0.0
 30
0.0
  9
$PUCSXDIR
 10
1.0
 20
0.0
 30
0.0
  9
$PUCSYDIR
 10
0.0
 20
1.0
 30
0.0
  9
$PUCSORTHOREF
  2

  9
$PUCSORTHOVIEW
 70
     0
  9
$PUCSORGTOP
 10
0.0
 20
0.0
 30
0.0
  9
$PUCSORGBOTTOM
 10
0.0
 20
0.0
 30
0.0
  9
$PUCSORGLEFT
 10
0.0
 20
0.0
 30
0.0
  9
$PUCSORGRIGHT
 10
0.0
 20
0.0
 30
0.0
  9
$PUCSORGFRONT
 10
0.0
 20
0.0
 30
0.0
  9
$PUCSORGBACK
 10
0.0
 20
0.0
 30
0.0
  9
$USERI1
 70
     0
  9
$USERI2
 70
     0
  9
$USERI3
 70
     0
  9
$USERI4
 70
     0
  9
$USERI5
 70
     0
  9
$USERR1
 40
0.0
  9
$USERR2
 40
0.0
  9
$USERR3
 40
0.0
  9
$USERR4
 40
0.0
  9
$USERR5
 40
0.0
  9
$WORLDVIEW
 70
     1
  9
$SHADEDGE
 70
     3
  9
$SHADEDIF
 70
    70
  9
$TILEMODE
 70
     1
  9
$MAXACTVP
 70
    64
  9
$PINSBASE
 10
0.0
 20
0.0
 30
0.0
  9
$PLIMCHECK
 70
     0
  9
$PEXTMIN
 10
1.000000000000000E+20
 20
1.000000000000000E+20
 30
1.000000000000000E+20
  9
$PEXTMAX
 10
-1.000000000000000E+20
 20
-1.000000000000000E+20
 30
-1.000000000000000E+20
  9
$PLIMMIN
 10
0.0
 20
0.0
  9
$PLIMMAX
 10
12.0
 20
9.0
  9
$UNITMODE
 70
     0
  9
$VISRETAIN
 70
     1
  9
$PLINEGEN
 70
     0
  9
$PSLTSCALE
 70
     1
  9
$TREEDEPTH
 70
  3020
  9
$CMLSTYLE
  2
Standard
  9
$CMLJUST
 70
     0
  9
$CMLSCALE
 40
1.0
  9
$PROXYGRAPHICS
 70
     1
  9
$MEASUREMENT
 70
     0
  9
$CELWEIGHT
370
    -1
  9
$ENDCAPS
280
     0
  9
$JOINSTYLE
280
     0
  9
$LWDISPLAY
290
     1
  9
$INSUNITS
 70
     1
  9
$HYPERLINKBASE
  1

  9
$STYLESHEET
  1

  9
$XEDIT
290
     1
  9
$CEPSNTYPE
380
     0
  9
$PSTYLEMODE
290
     1
  9
$FINGERPRINTGUID
  2
{70B4C9FB-F0D8-4B1C-9D78-D88D19CFC912}
  9
$VERSIONGUID
  2
{FAEB1C32-E019-11D5-929B-00C0DF256EC4}
  9
$EXTNAMES
290
     1
  9
$PSVPSCALE
 40
0.0
  9
$OLESTARTUP
290
     0
  9
$SORTENTS
280
   127
  9
$INDEXCTL
280
     0
  9
$HIDETEXT
280
     1
  9
$XCLIPFRAME
290
     0
  9
$HALOGAP
280
     0
  9
$OBSCOLOR
 70
   257
  9
$OBSLTYPE
280
     0
  9
$INTERSECTIONDISPLAY
280
     0
  9
$INTERSECTIONCOLOR
 70
   257
  9
$DIMASSOC
280
     2
  9
$PROJECTNAME
  1

  0
ENDSEC
  0
SECTION
  2
CLASSES
  0
CLASS
  1
ACDBDICTIONARYWDFLT
  2
AcDbDictionaryWithDefault
  3
ObjectDBX Classes
 90
        0
 91
        3
280
     0
281
     0
  0
CLASS
  1
VISUALSTYLE
  2
AcDbVisualStyle
  3
ObjectDBX Classes
 90
     4095
 91
        3
280
     0
281
     0
  0
ENDSEC
  0
SECTION
  2
TABLES
  0
TABLE
  2
VPORT
  5
8
330
0
100
AcDbSymbolTable
 70
     1
  0
VPORT
  5
29
330
8
100
AcDbSymbolTableRecord
100
AcDbViewportTableRecord
  2
*Active
 70
     0
 10
0.0
 20
0.0
 11
1.0
 21
1.0
 12
0.0
 22
0.0
 13
0.0
 23
0.0
 14
0.5
 24
0.5
 15
0.5
 25
0.5
 16
0.0
 26
0.0
 36
1.0
 17
34.37502266841773
 27
14.56250960316606
 37
0.0
 40
29.12501920633211
 41
2.360515021459227
 42
50.0
 43
0.0
 44
0.0
 50
0.0
 51
0.0
 71
     0
 72
   100
 73
     1
 74
     3
 75
     0
 76
     0
 77
     0
 78
     0
281
     0
 65
     1
110
0.0
120
0.0
130
0.0
111
1.0
121
0.0
131
0.0
112
0.0
122
1.0
132
0.0
 79
     0
146
0.0
  0
ENDTAB
  0
TABLE
  2
LTYPE
  5
5
330
0
100
AcDbSymbolTable
 70
    13
  0
LTYPE
  5
14
330
5
100
AcDbSymbolTableRecord
100
AcDbLinetypeTableRecord
  2
ByBlock
 70
     0
  3

 72
    65
 73
     0
 40
0.0
  0
LTYPE
  5
15
330
5
100
AcDbSymbolTableRecord
100
AcDbLinetypeTableRecord
  2
ByLayer
 70
     0
  3

 72
    65
 73
     0
 40
0.0
  0
LTYPE
  5
16
330
5
100
AcDbSymbolTableRecord
100
AcDbLinetypeTableRecord
  2
Continuous
 70
     0
  3
Solid line
 72
    65
 73
     0
 40
0.0
  0
LTYPE
  5
4C
330
5
100
AcDbSymbolTableRecord
100
AcDbLinetypeTableRecord
  2
AI-Linetype-1
 70
     0
  3
Adobe Illustrator Linetype No. 1
 72
    65
 73
     2
 40
0.5725003746181867
 49
0.5000003297224397
 74
     0
 49
-0.072500044895747
 74
     0
  0
LTYPE
  5
55
330
5
100
AcDbSymbolTableRecord
100
AcDbLinetypeTableRecord
  2
AI-Linetype-2
 70
     0
  3
Adobe Illustrator Linetype No. 2
 72
    65
 73
     2
 40
0.5725003746181867
 49
0.5000003297224397
 74
     0
 49
-0.072500044895747
 74
     0
  0
LTYPE
  5
7A
330
5
100
AcDbSymbolTableRecord
100
AcDbLinetypeTableRecord
  2
AI-Linetype-3
 70
     0
  3
Adobe Illustrator Linetype No. 3
 72
    65
 73
     2
 40
0.5725003746181867
 49
0.5000003297224397
 74
     0
 49
-0.072500044895747
 74
     0
  0
LTYPE
  5
7F
330
5
100
AcDbSymbolTableRecord
100
AcDbLinetypeTableRecord
  2
AI-Linetype-4
 70
     0
  3
Adobe Illustrator Linetype No. 4
 72
    65
 73
     2
 40
0.5725003746181867
 49
0.5000003297224397
 74
     0
 49
-0.072500044895747
 74
     0
  0
LTYPE
  5
84
330
5
100
AcDbSymbolTableRecord
100
AcDbLinetypeTableRecord
  2
AI-Linetype-5
 70
     0
  3
Adobe Illustrator Linetype No. 5
 72
    65
 73
     2
 40
0.5725003746181867
 49
0.5000003297224397
 74
     0
 49
-0.072500044895747
 74
     0
  0
LTYPE
  5
89
330
5
100
AcDbSymbolTableRecord
100
AcDbLinetypeTableRecord
  2
AI-Linetype-6
 70
     0
  3
Adobe Illustrator Linetype No. 6
 72
    65
 73
     2
 40
0.5725003746181867
 49
0.5000003297224397
 74
     0
 49
-0.072500044895747
 74
     0
  0
LTYPE
  5
8E
330
5
100
AcDbSymbolTableRecord
100
AcDbLinetypeTableRecord
  2
AI-Linetype-7
 70
     0
  3
Adobe Illustrator Linetype No. 7
 72
    65
 73
     2
 40
0.5725003746181867
 49
0.5000003297224397
 74
     0
 49
-0.072500044895747
 74
     0
  0
LTYPE
  5
93
330
5
100
AcDbSymbolTableRecord
100
AcDbLinetypeTableRecord
  2
AI-Linetype-8
 70
     0
  3
Adobe Illustrator Linetype No. 8
 72
    65
 73
     2
 40
0.5725003746181867
 49
0.5000003297224397
 74
     0
 49
-0.072500044895747
 74
     0
  0
LTYPE
  5
A0
330
5
100
AcDbSymbolTableRecord
100
AcDbLinetypeTableRecord
  2
AI-Linetype-9
 70
     0
  3
Adobe Illustrator Linetype No. 9
 72
    65
 73
     2
 40
0.5725003746181867
 49
0.5000003297224397
 74
     0
 49
-0.072500044895747
 74
     0
  0
LTYPE
  5
A5
330
5
100
AcDbSymbolTableRecord
100
AcDbLinetypeTableRecord
  2
AI-Linetype-10
 70
     0
  3
Adobe Illustrator Linetype No. 10
 72
    65
 73
     2
 40
0.5725003746181867
 49
0.5000003297224397
 74
     0
 49
-0.072500044895747
 74
     0
  0
LTYPE
  5
CE
330
5
100
AcDbSymbolTableRecord
100
AcDbLinetypeTableRecord
  2
AI-Linetype-11
 70
     0
  3
Adobe Illustrator Linetype No. 11
 72
    65
 73
     2
 40
0.5725003746181867
 49
0.5000003297224397
 74
     0
 49
-0.072500044895747
 74
     0
  0
LTYPE
  5
D3
330
5
100
AcDbSymbolTableRecord
100
AcDbLinetypeTableRecord
  2
AI-Linetype-12
 70
     0
  3
Adobe Illustrator Linetype No. 12
 72
    65
 73
     2
 40
0.5725003746181867
 49
0.5000003297224397
 74
     0
 49
-0.072500044895747
 74
     0
  0
ENDTAB
  0
TABLE
  2
LAYER
  5
2
330
0
100
AcDbSymbolTable
 70
     2
  0
LAYER
  5
10
330
2
100
AcDbSymbolTableRecord
100
AcDbLayerTableRecord
  2
0
 70
     0
 62
     7
  6
Continuous
370
    -3
390
F
  0
LAYER
  5
3B
330
2
100
AcDbSymbolTableRecord
100
AcDbLayerTableRecord
  2
Layer 1
 70
     0
 62
     7
  6
Continuous
370
    -3
390
F
  0
ENDTAB
  0
TABLE
  2
STYLE
  5
3
330
0
100
AcDbSymbolTable
 70
     1
  0
STYLE
  5
11
330
3
100
AcDbSymbolTableRecord
100
AcDbTextStyleTableRecord
  2
Standard
 70
     0
 40
0.0
 41
1.0
 50
0.0
 71
     0
 42
0.2
  3
txt
  4

  0
ENDTAB
  0
TABLE
  2
VIEW
  5
6
330
0
100
AcDbSymbolTable
 70
     0
  0
ENDTAB
  0
TABLE
  2
UCS
  5
7
330
0
100
AcDbSymbolTable
 70
     0
  0
ENDTAB
  0
TABLE
  2
APPID
  5
9
330
0
100
AcDbSymbolTable
 70
     1
  0
APPID
  5
12
330
9
100
AcDbSymbolTableRecord
100
AcDbRegAppTableRecord
  2
ACAD
 70
     0
  0
ENDTAB
  0
TABLE
  2
DIMSTYLE
  5
A
330
0
100
AcDbSymbolTable
 70
     1
100
AcDbDimStyleTable
  0
DIMSTYLE
105
27
330
A
100
AcDbSymbolTableRecord
100
AcDbDimStyleTableRecord
  2
Standard
 70
     0
340
11
  0
ENDTAB
  0
TABLE
  2
BLOCK_RECORD
  5
1
330
0
100
AcDbSymbolTable
 70
     1
  0
BLOCK_RECORD
  5
1F
330
1
100
AcDbSymbolTableRecord
100
AcDbBlockTableRecord
  2
*Model_Space
340
22
  0
BLOCK_RECORD
  5
1B
330
1
100
AcDbSymbolTableRecord
100
AcDbBlockTableRecord
  2
*Paper_Space
340
1E
  0
BLOCK_RECORD
  5
23
330
1
100
AcDbSymbolTableRecord
100
AcDbBlockTableRecord
  2
*Paper_Space0
340
26
  0
ENDTAB
  0
ENDSEC
  0
SECTION
  2
BLOCKS
  0
BLOCK
  5
20
330
1F
100
AcDbEntity
  8
0
100
AcDbBlockBegin
  2
*Model_Space
 70
     0
 71
     0
 10
0.0
 20
0.0
 30
0.0
  3
*Model_Space
  1

  0
ENDBLK
  5
21
330
1F
100
AcDbEntity
  8
0
100
AcDbBlockEnd
  0
BLOCK
  5
1C
330
1B
100
AcDbEntity
 67
     1
  8
0
100
AcDbBlockBegin
  2
*Paper_Space
 70
     0
 71
     0
 10
0.0
 20
0.0
 30
0.0
  3
*Paper_Space
  1

  0
ENDBLK
  5
1D
330
1B
100
AcDbEntity
 67
     1
  8
0
100
AcDbBlockEnd
  0
BLOCK
  5
24
330
23
100
AcDbEntity
  8
0
100
AcDbBlockBegin
  2
*Paper_Space0
 70
     0
 71
     0
 10
0.0
 20
0.0
 30
0.0
  3
*Paper_Space0
  1

  0
ENDBLK
  5
25
330
23
100
AcDbEntity
  8
0
100
AcDbBlockEnd
  0
ENDSEC
  0
SECTION
  2
ENTITIES
  0
POLYLINE
  5
3C
330
1F
100
AcDbEntity
  8
Layer 1
 62
     7
420
 16777215
370
    25
100
AcDb2dPolyline
 66
     1
 10
0.0
 20
0.0
 30
0.0
  0
VERTEX
  5
3D
330
3C
100
AcDbEntity
  8
Layer 1
 62
     7
420
 16777215
370
    25
100
AcDbVertex
100
AcDb2dVertex
 10
61.80527079186469
 20
20.65862364925626
 30
0.0
  0
VERTEX
  5
3E
330
3C
100
AcDbEntity
  8
Layer 1
 62
     7
420
 16777215
370
    25
100
AcDbVertex
100
AcDb2dVertex
 10
60.18024259351276
 20
20.90861025074048
 30
0.0
  0
SEQEND
  5
3F
330
3C
100
AcDbEntity
  8
Layer 1
370
    25
  0
POLYLINE
  5
40
330
1F
100
AcDbEntity
  8
Layer 1
 62
     7
420
 16777215
370
    25
100
AcDb2dPolyline
 66
     1
 10
0.0
 20
0.0
 30
0.0
  0
VERTEX
  5
41
330
40
100
AcDbEntity
  8
Layer 1
 62
     7
420
 16777215
370
    25
100
AcDbVertex
100
AcDb2dVertex
 10
59.99274246986685
 20
27.03340405749687
 30
0.0
  0
VERTEX
  5
42
330
40
100
AcDbEntity
  8
Layer 1
 62
     7
420
 16777215
370
    25
100
AcDbVertex
100
AcDb2dVertex
 10
44.1798793945927
 20
27.03340405749687
 30
0.0
  0
SEQEND
  5
43
330
40
100
AcDbEntity
  8
Layer 1
370
    25
  0
POLYLINE
  5
44
330
1F
100
AcDbEntity
  8
Layer 1
 62
     7
420
 16777215
370
    25
100
AcDb2dPolyline
 66
     1
 10
0.0
 20
0.0
 30
0.0
  0
VERTEX
  5
45
330
44
100
AcDbEntity
  8
Layer 1
 62
     7
420
 16777215
370
    25
100
AcDbVertex
100
AcDb2dVertex
 10
60.18024259351276
 20
20.90861025074048
 30
0.0
  0
VERTEX
  5
46
330
44
100
AcDbEntity
  8
Layer 1
 62
     7
420
 16777215
370
    25
100
AcDbVertex
100
AcDb2dVertex
 10
59.99274246986685
 20
20.90861025074048
 30
0.0
  0
SEQEND
  5
47
330
44
100
AcDbEntity
  8
Layer 1
370
    25
  0
POLYLINE
  5
48
330
1F
100
AcDbEntity
  8
Layer 1
  6
AI-Linetype-1
 62
     3
420
    65280
370
    25
100
AcDb2dPolyline
 66
     1
 10
0.0
 20
0.0
 30
0.0
  0
VERTEX
  5
49
330
48
100
AcDbEntity
  8
Layer 1
  6
AI-Linetype-1
 62
     3
420
    65280
370
    25
100
AcDbVertex
100
AcDb2dVertex
 10
44.1798793945927
 20
20.90861025074048
 30
0.0
  0
VERTEX
  5
4A
330
48
100
AcDbEntity
  8
Layer 1
  6
AI-Linetype-1
 62
     3
420
    65280
370
    25
100
AcDbVertex
100
AcDb2dVertex
 10
59.99274246986685
 20
20.90861025074048
 30
0.0
  0
SEQEND
  5
4B
330
48
100
AcDbEntity
  8
Layer 1
  6
AI-Linetype-1
370
    25
  0
POLYLINE
  5
4D
330
1F
100
AcDbEntity
  8
Layer 1
 62
     7
420
 16777215
370
    25
100
AcDb2dPolyline
 66
     1
 10
0.0
 20
0.0
 30
0.0
  0
VERTEX
  5
4E
330
4D
100
AcDbEntity
  8
Layer 1
 62
     7
420
 16777215
370
    25
100
AcDbVertex
100
AcDb2dVertex
 10
59.99274246986685
 20
20.90861025074048
 30
0.0
  0
VERTEX
  5
4F
330
4D
100
AcDbEntity
  8
Layer 1
 62
     7
420
 16777215
370
    25
100
AcDbVertex
100
AcDb2dVertex
 10
59.99274246986685
 20
27.03340405749687
 30
0.0
  0
SEQEND
  5
50
330
4D
100
AcDbEntity
  8
Layer 1
370
    25
  0
POLYLINE
  5
51
330
1F
100
AcDbEntity
  8
Layer 1
  6
AI-Linetype-2
 62
     3
420
    65280
370
    25
100
AcDb2dPolyline
 66
     1
 10
0.0
 20
0.0
 30
0.0
  0
VERTEX
  5
52
330
51
100
AcDbEntity
  8
Layer 1
  6
AI-Linetype-2
 62
     3
420
    65280
370
    25
100
AcDbVertex
100
AcDb2dVertex
 10
59.99274246986685
 20
8.596536159389402
 30
0.0
  0
VERTEX
  5
53
330
51
100
AcDbEntity
  8
Layer 1
  6
AI-Linetype-2
 62
     3
420
    65280
370
    25
100
AcDbVertex
100
AcDb2dVertex
 10
44.1798793945927
 20
8.596536159389402
 30
0.0
  0
SEQEND
  5
54
330
51
100
AcDbEntity
  8
Layer 1
  6
AI-Linetype-2
370
    25
  0
POLYLINE
  5
56
330
1F
100
AcDbEntity
  8
Layer 1
 62
     7
420
 16777215
370
    25
100
AcDb2dPolyline
 66
     1
 10
0.0
 20
0.0
 30
0.0
  0
VERTEX
  5
57
330
56
100
AcDbEntity
  8
Layer 1
 62
     7
420
 16777215
370
    25
100
AcDbVertex
100
AcDb2dVertex
 10
44.1798793945927
 20
2.471735570944513
 30
0.0
  0
VERTEX
  5
58
330
56
100
AcDbEntity
  8
Layer 1
 62
     7
420
 16777215
370
    25
100
AcDbVertex
100
AcDb2dVertex
 10
59.99274246986685
 20
2.471735570944513
 30
0.0
  0
SEQEND
  5
59
330
56
100
AcDbEntity
  8
Layer 1
370
    25
  0
POLYLINE
  5
5A
330
1F
100
AcDbEntity
  8
Layer 1
 62
     7
420
 16777215
370
    25
100
AcDb2dPolyline
 66
     1
 10
0.0
 20
0.0
 30
0.0
  0
VERTEX
  5
5B
330
5A
100
AcDbEntity
  8
Layer 1
 62
     7
420
 16777215
370
    25
100
AcDbVertex
100
AcDb2dVertex
 10
59.99274246986685
 20
2.471735570944513
 30
0.0
  0
VERTEX
  5
5C
330
5A
100
AcDbEntity
  8
Layer 1
 62
     7
420
 16777215
370
    25
100
AcDbVertex
100
AcDb2dVertex
 10
59.99274246986685
 20
8.596536159389402
 30
0.0
  0
SEQEND
  5
5D
330
5A
100
AcDbEntity
  8
Layer 1
370
    25
  0
POLYLINE
  5
5E
330
1F
100
AcDbEntity
  8
Layer 1
 62
     7
420
 16777215
370
    25
100
AcDb2dPolyline
 66
     1
 10
0.0
 20
0.0
 30
0.0
  0
VERTEX
  5
5F
330
5E
100
AcDbEntity
  8
Layer 1
 62
     7
420
 16777215
370
    25
100
AcDbVertex
100
AcDb2dVertex
 10
60.18024259351276
 20
8.596536159389402
 30
0.0
  0
VERTEX
  5
60
330
5E
100
AcDbEntity
  8
Layer 1
 62
     7
420
 16777215
370
    25
100
AcDbVertex
100
AcDb2dVertex
 10
61.80527079186469
 20
8.846522760873622
 30
0.0
  0
SEQEND
  5
61
330
5E
100
AcDbEntity
  8
Layer 1
370
    25
  0
POLYLINE
  5
62
330
1F
100
AcDbEntity
  8
Layer 1
 62
     7
420
 16777215
370
    25
100
AcDb2dPolyline
 66
     1
 10
0.0
 20
0.0
 30
0.0
  0
VERTEX
  5
63
330
62
100
AcDbEntity
  8
Layer 1
 62
     7
420
 16777215
370
    25
100
AcDbVertex
100
AcDb2dVertex
 10
44.1798793945927
 20
8.596536159389402
 30
0.0
  0
VERTEX
  5
64
330
62
100
AcDbEntity
  8
Layer 1
 62
     7
420
 16777215
370
    25
100
AcDbVertex
100
AcDb2dVertex
 10
44.1798793945927
 20
2.471735570944513
 30
0.0
  0
SEQEND
  5
65
330
62
100
AcDbEntity
  8
Layer 1
370
    25
  0
POLYLINE
  5
66
330
1F
100
AcDbEntity
  8
Layer 1
 62
     7
420
 16777215
370
    25
100
AcDb2dPolyline
 66
     1
 10
0.0
 20
0.0
 30
0.0
  0
VERTEX
  5
67
330
66
100
AcDbEntity
  8
Layer 1
 62
     7
420
 16777215
370
    25
100
AcDbVertex
100
AcDb2dVertex
 10
43.80487914730087
 20
2.471735570944513
 30
0.0
  0
VERTEX
  5
68
330
66
100
AcDbEntity
  8
Layer 1
 62
     7
420
 16777215
370
    25
100
AcDbVertex
100
AcDb2dVertex
 10
43.80487914730087
 20
8.596536159389402
 30
0.0
  0
SEQEND
  5
69
330
66
100
AcDbEntity
  8
Layer 1
370
    25
  0
POLYLINE
  5
6A
330
1F
100
AcDbEntity
  8
Layer 1
 62
     7
420
 16777215
370
    25
100
AcDb2dPolyline
 66
     1
 10
0.0
 20
0.0
 30
0.0
  0
VERTEX
  5
6B
330
6A
100
AcDbEntity
  8
Layer 1
 62
     7
420
 16777215
370
    25
100
AcDbVertex
100
AcDb2dVertex
 10
43.80487914730087
 20
8.596536159389402
 30
0.0
  0
VERTEX
  5
6C
330
6A
100
AcDbEntity
  8
Layer 1
 62
     7
420
 16777215
370
    25
100
AcDbVertex
100
AcDb2dVertex
 10
44.1798793945927
 20
8.596536159389402
 30
0.0
  0
SEQEND
  5
6D
330
6A
100
AcDbEntity
  8
Layer 1
370
    25
  0
POLYLINE
  5
6E
330
1F
100
AcDbEntity
  8
Layer 1
 62
     7
420
 16777215
370
    25
100
AcDb2dPolyline
 66
     1
 10
0.0
 20
0.0
 30
0.0
  0
VERTEX
  5
6F
330
6E
100
AcDbEntity
  8
Layer 1
 62
     7
420
 16777215
370
    25
100
AcDbVertex
100
AcDb2dVertex
 10
59.99274246986685
 20
8.596536159389402
 30
0.0
  0
VERTEX
  5
70
330
6E
100
AcDbEntity
  8
Layer 1
 62
     7
420
 16777215
370
    25
100
AcDbVertex
100
AcDb2dVertex
 10
60.18024259351276
 20
8.596536159389402
 30
0.0
  0
SEQEND
  5
71
330
6E
100
AcDbEntity
  8
Layer 1
370
    25
  0
POLYLINE
  5
72
330
1F
100
AcDbEntity
  8
Layer 1
 62
     7
420
 16777215
370
    25
100
AcDb2dPolyline
 66
     1
 10
0.0
 20
0.0
 30
0.0
  0
VERTEX
  5
73
330
72
100
AcDbEntity
  8
Layer 1
 62
     7
420
 16777215
370
    25
100
AcDbVertex
100
AcDb2dVertex
 10
15.80425033087925
 20
20.90861025074048
 30
0.0
  0
VERTEX
  5
74
330
72
100
AcDbEntity
  8
Layer 1
 62
     7
420
 16777215
370
    25
100
AcDbVertex
100
AcDb2dVertex
 10
15.42924330189892
 20
20.90861025074048
 30
0.0
  0
SEQEND
  5
75
330
72
100
AcDbEntity
  8
Layer 1
370
    25
  0
POLYLINE
  5
76
330
1F
100
AcDbEntity
  8
Layer 1
  6
AI-Linetype-3
 62
     3
420
    65280
370
    25
100
AcDb2dPolyline
 66
     1
 10
0.0
 20
0.0
 30
0.0
  0
VERTEX
  5
77
330
76
100
AcDbEntity
  8
Layer 1
  6
AI-Linetype-3
 62
     3
420
    65280
370
    25
100
AcDbVertex
100
AcDb2dVertex
 10
3.553977766827978
 20
20.90861025074048
 30
0.0
  0
VERTEX
  5
78
330
76
100
AcDbEntity
  8
Layer 1
  6
AI-Linetype-3
 62
     3
420
    65280
370
    25
100
AcDbVertex
100
AcDb2dVertex
 10
15.42924330189892
 20
20.90861025074048
 30
0.0
  0
SEQEND
  5
79
330
76
100
AcDbEntity
  8
Layer 1
  6
AI-Linetype-3
370
    25
  0
POLYLINE
  5
7B
330
1F
100
AcDbEntity
  8
Layer 1
  6
AI-Linetype-4
 62
     3
420
    65280
370
    25
100
AcDb2dPolyline
 66
     1
 10
0.0
 20
0.0
 30
0.0
  0
VERTEX
  5
7C
330
7B
100
AcDbEntity
  8
Layer 1
  6
AI-Linetype-4
 62
     3
420
    65280
370
    25
100
AcDbVertex
100
AcDb2dVertex
 10
15.80425033087925
 20
20.90861025074048
 30
0.0
  0
VERTEX
  5
7D
330
7B
100
AcDbEntity
  8
Layer 1
  6
AI-Linetype-4
 62
     3
420
    65280
370
    25
100
AcDbVertex
100
AcDb2dVertex
 10
31.6170998427764
 20
20.90861025074048
 30
0.0
  0
SEQEND
  5
7E
330
7B
100
AcDbEntity
  8
Layer 1
  6
AI-Linetype-4
370
    25
  0
POLYLINE
  5
80
330
1F
100
AcDbEntity
  8
Layer 1
  6
AI-Linetype-5
 62
     3
420
    65280
370
    25
100
AcDb2dPolyline
 66
     1
 10
0.0
 20
0.0
 30
0.0
  0
VERTEX
  5
81
330
80
100
AcDbEntity
  8
Layer 1
  6
AI-Linetype-5
 62
     3
420
    65280
370
    25
100
AcDbVertex
100
AcDb2dVertex
 10
31.80460674811081
 20
20.90861025074048
 30
0.0
  0
VERTEX
  5
82
330
80
100
AcDbEntity
  8
Layer 1
  6
AI-Linetype-5
 62
     3
420
    65280
370
    25
100
AcDbVertex
100
AcDb2dVertex
 10
31.80460674811081
 20
8.596536159389402
 30
0.0
  0
SEQEND
  5
83
330
80
100
AcDbEntity
  8
Layer 1
  6
AI-Linetype-5
370
    25
  0
POLYLINE
  5
85
330
1F
100
AcDbEntity
  8
Layer 1
  6
AI-Linetype-6
 62
     3
420
    65280
370
    25
100
AcDb2dPolyline
 66
     1
 10
0.0
 20
0.0
 30
0.0
  0
VERTEX
  5
86
330
85
100
AcDbEntity
  8
Layer 1
  6
AI-Linetype-6
 62
     3
420
    65280
370
    25
100
AcDbVertex
100
AcDb2dVertex
 10
15.61675020723333
 20
8.596536159389402
 30
0.0
  0
VERTEX
  5
87
330
85
100
AcDbEntity
  8
Layer 1
  6
AI-Linetype-6
 62
     3
420
    65280
370
    25
100
AcDbVertex
100
AcDb2dVertex
 10
15.61675020723333
 20
20.90861025074048
 30
0.0
  0
SEQEND
  5
88
330
85
100
AcDbEntity
  8
Layer 1
  6
AI-Linetype-6
370
    25
  0
POLYLINE
  5
8A
330
1F
100
AcDbEntity
  8
Layer 1
  6
AI-Linetype-7
 62
     3
420
    65280
370
    25
100
AcDb2dPolyline
 66
     1
 10
0.0
 20
0.0
 30
0.0
  0
VERTEX
  5
8B
330
8A
100
AcDbEntity
  8
Layer 1
  6
AI-Linetype-7
 62
     3
420
    65280
370
    25
100
AcDbVertex
100
AcDb2dVertex
 10
31.99211365344523
 20
20.90861025074048
 30
0.0
  0
VERTEX
  5
8C
330
8A
100
AcDbEntity
  8
Layer 1
  6
AI-Linetype-7
 62
     3
420
    65280
370
    25
100
AcDbVertex
100
AcDb2dVertex
 10
43.80487914730087
 20
20.90861025074048
 30
0.0
  0
SEQEND
  5
8D
330
8A
100
AcDbEntity
  8
Layer 1
  6
AI-Linetype-7
370
    25
  0
POLYLINE
  5
8F
330
1F
100
AcDbEntity
  8
Layer 1
  6
AI-Linetype-8
 62
     3
420
    65280
370
    25
100
AcDb2dPolyline
 66
     1
 10
0.0
 20
0.0
 30
0.0
  0
VERTEX
  5
90
330
8F
100
AcDbEntity
  8
Layer 1
  6
AI-Linetype-8
 62
     3
420
    65280
370
    25
100
AcDbVertex
100
AcDb2dVertex
 10
43.80487914730087
 20
8.596536159389402
 30
0.0
  0
VERTEX
  5
91
330
8F
100
AcDbEntity
  8
Layer 1
  6
AI-Linetype-8
 62
     3
420
    65280
370
    25
100
AcDbVertex
100
AcDb2dVertex
 10
31.99211365344523
 20
8.596536159389402
 30
0.0
  0
SEQEND
  5
92
330
8F
100
AcDbEntity
  8
Layer 1
  6
AI-Linetype-8
370
    25
  0
POLYLINE
  5
94
330
1F
100
AcDbEntity
  8
Layer 1
 62
     7
420
 16777215
370
    25
100
AcDb2dPolyline
 66
     1
 10
0.0
 20
0.0
 30
0.0
  0
VERTEX
  5
95
330
94
100
AcDbEntity
  8
Layer 1
 62
     7
420
 16777215
370
    25
100
AcDbVertex
100
AcDb2dVertex
 10
31.99211365344523
 20
2.471735570944513
 30
0.0
  0
VERTEX
  5
96
330
94
100
AcDbEntity
  8
Layer 1
 62
     7
420
 16777215
370
    25
100
AcDbVertex
100
AcDb2dVertex
 10
43.80487914730087
 20
2.471735570944513
 30
0.0
  0
SEQEND
  5
97
330
94
100
AcDbEntity
  8
Layer 1
370
    25
  0
POLYLINE
  5
98
330
1F
100
AcDbEntity
  8
Layer 1
 62
     7
420
 16777215
370
    25
100
AcDb2dPolyline
 66
     1
 10
0.0
 20
0.0
 30
0.0
  0
VERTEX
  5
99
330
98
100
AcDbEntity
  8
Layer 1
 62
     7
420
 16777215
370
    25
100
AcDbVertex
100
AcDb2dVertex
 10
61.80527079186469
 20
8.846522760873622
 30
0.0
  0
VERTEX
  5
9A
330
98
100
AcDbEntity
  8
Layer 1
 62
     7
420
 16777215
370
    25
100
AcDbVertex
100
AcDb2dVertex
 10
61.80527079186469
 20
20.65862364925626
 30
0.0
  0
SEQEND
  5
9B
330
98
100
AcDbEntity
  8
Layer 1
370
    25
  0
POLYLINE
  5
9C
330
1F
100
AcDbEntity
  8
Layer 1
  6
AI-Linetype-9
 62
     3
420
    65280
370
    25
100
AcDb2dPolyline
 66
     1
 10
0.0
 20
0.0
 30
0.0
  0
VERTEX
  5
9D
330
9C
100
AcDbEntity
  8
Layer 1
  6
AI-Linetype-9
 62
     3
420
    65280
370
    25
100
AcDbVertex
100
AcDb2dVertex
 10
43.99237927094678
 20
8.596536159389402
 30
0.0
  0
VERTEX
  5
9E
330
9C
100
AcDbEntity
  8
Layer 1
  6
AI-Linetype-9
 62
     3
420
    65280
370
    25
100
AcDbVertex
100
AcDb2dVertex
 10
43.99237927094678
 20
20.90861025074048
 30
0.0
  0
SEQEND
  5
9F
330
9C
100
AcDbEntity
  8
Layer 1
  6
AI-Linetype-9
370
    25
  0
POLYLINE
  5
A1
330
1F
100
AcDbEntity
  8
Layer 1
  6
AI-Linetype-10
 62
     3
420
    65280
370
    25
100
AcDb2dPolyline
 66
     1
 10
0.0
 20
0.0
 30
0.0
  0
VERTEX
  5
A2
330
A1
100
AcDbEntity
  8
Layer 1
  6
AI-Linetype-10
 62
     3
420
    65280
370
    25
100
AcDbVertex
100
AcDb2dVertex
 10
60.18024259351276
 20
20.90861025074048
 30
0.0
  0
VERTEX
  5
A3
330
A1
100
AcDbEntity
  8
Layer 1
  6
AI-Linetype-10
 62
     3
420
    65280
370
    25
100
AcDbVertex
100
AcDb2dVertex
 10
60.18024259351276
 20
8.596536159389402
 30
0.0
  0
SEQEND
  5
A4
330
A1
100
AcDbEntity
  8
Layer 1
  6
AI-Linetype-10
370
    25
  0
POLYLINE
  5
A6
330
1F
100
AcDbEntity
  8
Layer 1
 62
     7
420
 16777215
370
    25
100
AcDb2dPolyline
 66
     1
 10
0.0
 20
0.0
 30
0.0
  0
VERTEX
  5
A7
330
A6
100
AcDbEntity
  8
Layer 1
 62
     7
420
 16777215
370
    25
100
AcDbVertex
100
AcDb2dVertex
 10
3.553977766827978
 20
27.03340405749687
 30
0.0
  0
VERTEX
  5
A8
330
A6
100
AcDbEntity
  8
Layer 1
 62
     7
420
 16777215
370
    25
100
AcDbVertex
100
AcDb2dVertex
 10
3.553977766827978
 20
2.471735570944513
 30
0.0
  0
SEQEND
  5
A9
330
A6
100
AcDbEntity
  8
Layer 1
370
    25
  0
POLYLINE
  5
AA
330
1F
100
AcDbEntity
  8
Layer 1
 62
     7
420
 16777215
370
    25
100
AcDb2dPolyline
 66
     1
 10
0.0
 20
0.0
 30
0.0
  0
VERTEX
  5
AB
330
AA
100
AcDbEntity
  8
Layer 1
 62
     7
420
 16777215
370
    25
100
AcDbVertex
100
AcDb2dVertex
 10
43.80487914730087
 20
27.03340405749687
 30
0.0
  0
VERTEX
  5
AC
330
AA
100
AcDbEntity
  8
Layer 1
 62
     7
420
 16777215
370
    25
100
AcDbVertex
100
AcDb2dVertex
 10
31.99211365344523
 20
27.03340405749687
 30
0.0
  0
SEQEND
  5
AD
330
AA
100
AcDbEntity
  8
Layer 1
370
    25
  0
POLYLINE
  5
AE
330
1F
100
AcDbEntity
  8
Layer 1
 62
     7
420
 16777215
370
    25
100
AcDb2dPolyline
 66
     1
 10
0.0
 20
0.0
 30
0.0
  0
VERTEX
  5
AF
330
AE
100
AcDbEntity
  8
Layer 1
 62
     7
420
 16777215
370
    25
100
AcDbVertex
100
AcDb2dVertex
 10
15.42924330189892
 20
20.90861025074048
 30
0.0
  0
VERTEX
  5
B0
330
AE
100
AcDbEntity
  8
Layer 1
 62
     7
420
 16777215
370
    25
100
AcDbVertex
100
AcDb2dVertex
 10
15.42924330189892
 20
27.03340405749687
 30
0.0
  0
SEQEND
  5
B1
330
AE
100
AcDbEntity
  8
Layer 1
370
    25
  0
POLYLINE
  5
B2
330
1F
100
AcDbEntity
  8
Layer 1
 62
     7
420
 16777215
370
    25
100
AcDb2dPolyline
 66
     1
 10
0.0
 20
0.0
 30
0.0
  0
VERTEX
  5
B3
330
B2
100
AcDbEntity
  8
Layer 1
 62
     7
420
 16777215
370
    25
100
AcDbVertex
100
AcDb2dVertex
 10
31.99211365344523
 20
20.90861025074048
 30
0.0
  0
VERTEX
  5
B4
330
B2
100
AcDbEntity
  8
Layer 1
 62
     7
420
 16777215
370
    25
100
AcDbVertex
100
AcDb2dVertex
 10
31.6170998427764
 20
20.90861025074048
 30
0.0
  0
SEQEND
  5
B5
330
B2
100
AcDbEntity
  8
Layer 1
370
    25
  0
POLYLINE
  5
B6
330
1F
100
AcDbEntity
  8
Layer 1
 62
     7
420
 16777215
370
    25
100
AcDb2dPolyline
 66
     1
 10
0.0
 20
0.0
 30
0.0
  0
VERTEX
  5
B7
330
B6
100
AcDbEntity
  8
Layer 1
 62
     7
420
 16777215
370
    25
100
AcDbVertex
100
AcDb2dVertex
 10
31.99211365344523
 20
27.03340405749687
 30
0.0
  0
VERTEX
  5
B8
330
B6
100
AcDbEntity
  8
Layer 1
 62
     7
420
 16777215
370
    25
100
AcDbVertex
100
AcDb2dVertex
 10
31.99211365344523
 20
20.90861025074048
 30
0.0
  0
SEQEND
  5
B9
330
B6
100
AcDbEntity
  8
Layer 1
370
    25
  0
POLYLINE
  5
BA
330
1F
100
AcDbEntity
  8
Layer 1
 62
     7
420
 16777215
370
    25
100
AcDb2dPolyline
 66
     1
 10
0.0
 20
0.0
 30
0.0
  0
VERTEX
  5
BB
330
BA
100
AcDbEntity
  8
Layer 1
 62
     7
420
 16777215
370
    25
100
AcDbVertex
100
AcDb2dVertex
 10
15.42924330189892
 20
27.03340405749687
 30
0.0
  0
VERTEX
  5
BC
330
BA
100
AcDbEntity
  8
Layer 1
 62
     7
420
 16777215
370
    25
100
AcDbVertex
100
AcDb2dVertex
 10
3.553977766827978
 20
27.03340405749687
 30
0.0
  0
SEQEND
  5
BD
330
BA
100
AcDbEntity
  8
Layer 1
370
    25
  0
POLYLINE
  5
BE
330
1F
100
AcDbEntity
  8
Layer 1
 62
     7
420
 16777215
370
    25
100
AcDb2dPolyline
 66
     1
 10
0.0
 20
0.0
 30
0.0
  0
VERTEX
  5
BF
330
BE
100
AcDbEntity
  8
Layer 1
 62
     7
420
 16777215
370
    25
100
AcDbVertex
100
AcDb2dVertex
 10
31.6170998427764
 20
20.90861025074048
 30
0.0
  0
VERTEX
  5
C0
330
BE
100
AcDbEntity
  8
Layer 1
 62
     7
420
 16777215
370
    25
100
AcDbVertex
100
AcDb2dVertex
 10
31.6170998427764
 20
27.03340405749687
 30
0.0
  0
SEQEND
  5
C1
330
BE
100
AcDbEntity
  8
Layer 1
370
    25
  0
POLYLINE
  5
C2
330
1F
100
AcDbEntity
  8
Layer 1
 62
     7
420
 16777215
370
    25
100
AcDb2dPolyline
 66
     1
 10
0.0
 20
0.0
 30
0.0
  0
VERTEX
  5
C3
330
C2
100
AcDbEntity
  8
Layer 1
 62
     7
420
 16777215
370
    25
100
AcDbVertex
100
AcDb2dVertex
 10
31.6170998427764
 20
27.03340405749687
 30
0.0
  0
VERTEX
  5
C4
330
C2
100
AcDbEntity
  8
Layer 1
 62
     7
420
 16777215
370
    25
100
AcDbVertex
100
AcDb2dVertex
 10
15.80425033087925
 20
27.03340405749687
 30
0.0
  0
SEQEND
  5
C5
330
C2
100
AcDbEntity
  8
Layer 1
370
    25
  0
POLYLINE
  5
C6
330
1F
100
AcDbEntity
  8
Layer 1
 62
     7
420
 16777215
370
    25
100
AcDb2dPolyline
 66
     1
 10
0.0
 20
0.0
 30
0.0
  0
VERTEX
  5
C7
330
C6
100
AcDbEntity
  8
Layer 1
 62
     7
420
 16777215
370
    25
100
AcDbVertex
100
AcDb2dVertex
 10
15.80425033087925
 20
27.03340405749687
 30
0.0
  0
VERTEX
  5
C8
330
C6
100
AcDbEntity
  8
Layer 1
 62
     7
420
 16777215
370
    25
100
AcDbVertex
100
AcDb2dVertex
 10
15.80425033087925
 20
20.90861025074048
 30
0.0
  0
SEQEND
  5
C9
330
C6
100
AcDbEntity
  8
Layer 1
370
    25
  0
POLYLINE
  5
CA
330
1F
100
AcDbEntity
  8
Layer 1
  6
AI-Linetype-11
 62
     3
420
    65280
370
    25
100
AcDb2dPolyline
 66
     1
 10
0.0
 20
0.0
 30
0.0
  0
VERTEX
  5
CB
330
CA
100
AcDbEntity
  8
Layer 1
  6
AI-Linetype-11
 62
     3
420
    65280
370
    25
100
AcDbVertex
100
AcDb2dVertex
 10
31.6170998427764
 20
8.596536159389402
 30
0.0
  0
VERTEX
  5
CC
330
CA
100
AcDbEntity
  8
Layer 1
  6
AI-Linetype-11
 62
     3
420
    65280
370
    25
100
AcDbVertex
100
AcDb2dVertex
 10
15.80425033087925
 20
8.596536159389402
 30
0.0
  0
SEQEND
  5
CD
330
CA
100
AcDbEntity
  8
Layer 1
  6
AI-Linetype-11
370
    25
  0
POLYLINE
  5
CF
330
1F
100
AcDbEntity
  8
Layer 1
  6
AI-Linetype-12
 62
     3
420
    65280
370
    25
100
AcDb2dPolyline
 66
     1
 10
0.0
 20
0.0
 30
0.0
  0
VERTEX
  5
D0
330
CF
100
AcDbEntity
  8
Layer 1
  6
AI-Linetype-12
 62
     3
420
    65280
370
    25
100
AcDbVertex
100
AcDb2dVertex
 10
15.42924330189892
 20
8.596536159389402
 30
0.0
  0
VERTEX
  5
D1
330
CF
100
AcDbEntity
  8
Layer 1
  6
AI-Linetype-12
 62
     3
420
    65280
370
    25
100
AcDbVertex
100
AcDb2dVertex
 10
3.553977766827978
 20
8.596536159389402
 30
0.0
  0
SEQEND
  5
D2
330
CF
100
AcDbEntity
  8
Layer 1
  6
AI-Linetype-12
370
    25
  0
POLYLINE
  5
D4
330
1F
100
AcDbEntity
  8
Layer 1
 62
     7
420
 16777215
370
    25
100
AcDb2dPolyline
 66
     1
 10
0.0
 20
0.0
 30
0.0
  0
VERTEX
  5
D5
330
D4
100
AcDbEntity
  8
Layer 1
 62
     7
420
 16777215
370
    25
100
AcDbVertex
100
AcDb2dVertex
 10
31.99211365344523
 20
8.596536159389402
 30
0.0
  0
VERTEX
  5
D6
330
D4
100
AcDbEntity
  8
Layer 1
 62
     7
420
 16777215
370
    25
100
AcDbVertex
100
AcDb2dVertex
 10
31.99211365344523
 20
2.471735570944513
 30
0.0
  0
SEQEND
  5
D7
330
D4
100
AcDbEntity
  8
Layer 1
370
    25
  0
POLYLINE
  5
D8
330
1F
100
AcDbEntity
  8
Layer 1
 62
     7
420
 16777215
370
    25
100
AcDb2dPolyline
 66
     1
 10
0.0
 20
0.0
 30
0.0
  0
VERTEX
  5
D9
330
D8
100
AcDbEntity
  8
Layer 1
 62
     7
420
 16777215
370
    25
100
AcDbVertex
100
AcDb2dVertex
 10
3.553977766827978
 20
2.471735570944513
 30
0.0
  0
VERTEX
  5
DA
330
D8
100
AcDbEntity
  8
Layer 1
 62
     7
420
 16777215
370
    25
100
AcDbVertex
100
AcDb2dVertex
 10
15.42924330189892
 20
2.471735570944513
 30
0.0
  0
SEQEND
  5
DB
330
D8
100
AcDbEntity
  8
Layer 1
370
    25
  0
POLYLINE
  5
DC
330
1F
100
AcDbEntity
  8
Layer 1
 62
     7
420
 16777215
370
    25
100
AcDb2dPolyline
 66
     1
 10
0.0
 20
0.0
 30
0.0
  0
VERTEX
  5
DD
330
DC
100
AcDbEntity
  8
Layer 1
 62
     7
420
 16777215
370
    25
100
AcDbVertex
100
AcDb2dVertex
 10
15.42924330189892
 20
2.471735570944513
 30
0.0
  0
VERTEX
  5
DE
330
DC
100
AcDbEntity
  8
Layer 1
 62
     7
420
 16777215
370
    25
100
AcDbVertex
100
AcDb2dVertex
 10
15.42924330189892
 20
8.596536159389402
 30
0.0
  0
SEQEND
  5
DF
330
DC
100
AcDbEntity
  8
Layer 1
370
    25
  0
POLYLINE
  5
E0
330
1F
100
AcDbEntity
  8
Layer 1
 62
     7
420
 16777215
370
    25
100
AcDb2dPolyline
 66
     1
 10
0.0
 20
0.0
 30
0.0
  0
VERTEX
  5
E1
330
E0
100
AcDbEntity
  8
Layer 1
 62
     7
420
 16777215
370
    25
100
AcDbVertex
100
AcDb2dVertex
 10
15.42924330189892
 20
8.596536159389402
 30
0.0
  0
VERTEX
  5
E2
330
E0
100
AcDbEntity
  8
Layer 1
 62
     7
420
 16777215
370
    25
100
AcDbVertex
100
AcDb2dVertex
 10
15.80425033087925
 20
8.596536159389402
 30
0.0
  0
SEQEND
  5
E3
330
E0
100
AcDbEntity
  8
Layer 1
370
    25
  0
POLYLINE
  5
E4
330
1F
100
AcDbEntity
  8
Layer 1
 62
     7
420
 16777215
370
    25
100
AcDb2dPolyline
 66
     1
 10
0.0
 20
0.0
 30
0.0
  0
VERTEX
  5
E5
330
E4
100
AcDbEntity
  8
Layer 1
 62
     7
420
 16777215
370
    25
100
AcDbVertex
100
AcDb2dVertex
 10
15.80425033087925
 20
8.596536159389402
 30
0.0
  0
VERTEX
  5
E6
330
E4
100
AcDbEntity
  8
Layer 1
 62
     7
420
 16777215
370
    25
100
AcDbVertex
100
AcDb2dVertex
 10
15.80425033087925
 20
2.471735570944513
 30
0.0
  0
SEQEND
  5
E7
330
E4
100
AcDbEntity
  8
Layer 1
370
    25
  0
POLYLINE
  5
E8
330
1F
100
AcDbEntity
  8
Layer 1
 62
     7
420
 16777215
370
    25
100
AcDb2dPolyline
 66
     1
 10
0.0
 20
0.0
 30
0.0
  0
VERTEX
  5
E9
330
E8
100
AcDbEntity
  8
Layer 1
 62
     7
420
 16777215
370
    25
100
AcDbVertex
100
AcDb2dVertex
 10
15.80425033087925
 20
2.471735570944513
 30
0.0
  0
VERTEX
  5
EA
330
E8
100
AcDbEntity
  8
Layer 1
 62
     7
420
 16777215
370
    25
100
AcDbVertex
100
AcDb2dVertex
 10
31.6170998427764
 20
2.471735570944513
 30
0.0
  0
SEQEND
  5
EB
330
E8
100
AcDbEntity
  8
Layer 1
370
    25
  0
POLYLINE
  5
EC
330
1F
100
AcDbEntity
  8
Layer 1
 62
     7
420
 16777215
370
    25
100
AcDb2dPolyline
 66
     1
 10
0.0
 20
0.0
 30
0.0
  0
VERTEX
  5
ED
330
EC
100
AcDbEntity
  8
Layer 1
 62
     7
420
 16777215
370
    25
100
AcDbVertex
100
AcDb2dVertex
 10
31.6170998427764
 20
2.471735570944513
 30
0.0
  0
VERTEX
  5
EE
330
EC
100
AcDbEntity
  8
Layer 1
 62
     7
420
 16777215
370
    25
100
AcDbVertex
100
AcDb2dVertex
 10
31.6170998427764
 20
8.596536159389402
 30
0.0
  0
SEQEND
  5
EF
330
EC
100
AcDbEntity
  8
Layer 1
370
    25
  0
POLYLINE
  5
F0
330
1F
100
AcDbEntity
  8
Layer 1
 62
     7
420
 16777215
370
    25
100
AcDb2dPolyline
 66
     1
 10
0.0
 20
0.0
 30
0.0
  0
VERTEX
  5
F1
330
F0
100
AcDbEntity
  8
Layer 1
 62
     7
420
 16777215
370
    25
100
AcDbVertex
100
AcDb2dVertex
 10
31.6170998427764
 20
8.596536159389402
 30
0.0
  0
VERTEX
  5
F2
330
F0
100
AcDbEntity
  8
Layer 1
 62
     7
420
 16777215
370
    25
100
AcDbVertex
100
AcDb2dVertex
 10
31.99211365344523
 20
8.596536159389402
 30
0.0
  0
SEQEND
  5
F3
330
F0
100
AcDbEntity
  8
Layer 1
370
    25
  0
POLYLINE
  5
F4
330
1F
100
AcDbEntity
  8
Layer 1
 62
     7
420
 16777215
370
    25
100
AcDb2dPolyline
 66
     1
 10
0.0
 20
0.0
 30
0.0
  0
VERTEX
  5
F5
330
F4
100
AcDbEntity
  8
Layer 1
 62
     7
420
 16777215
370
    25
100
AcDbVertex
100
AcDb2dVertex
 10
44.1798793945927
 20
27.03340405749687
 30
0.0
  0
VERTEX
  5
F6
330
F4
100
AcDbEntity
  8
Layer 1
 62
     7
420
 16777215
370
    25
100
AcDbVertex
100
AcDb2dVertex
 10
44.1798793945927
 20
20.90861025074048
 30
0.0
  0
SEQEND
  5
F7
330
F4
100
AcDbEntity
  8
Layer 1
370
    25
  0
POLYLINE
  5
F8
330
1F
100
AcDbEntity
  8
Layer 1
 62
     7
420
 16777215
370
    25
100
AcDb2dPolyline
 66
     1
 10
0.0
 20
0.0
 30
0.0
  0
VERTEX
  5
F9
330
F8
100
AcDbEntity
  8
Layer 1
 62
     7
420
 16777215
370
    25
100
AcDbVertex
100
AcDb2dVertex
 10
43.80487914730087
 20
20.90861025074048
 30
0.0
  0
VERTEX
  5
FA
330
F8
100
AcDbEntity
  8
Layer 1
 62
     7
420
 16777215
370
    25
100
AcDbVertex
100
AcDb2dVertex
 10
43.80487914730087
 20
27.03340405749687
 30
0.0
  0
SEQEND
  5
FB
330
F8
100
AcDbEntity
  8
Layer 1
370
    25
  0
POLYLINE
  5
FC
330
1F
100
AcDbEntity
  8
Layer 1
 62
     7
420
 16777215
370
    25
100
AcDb2dPolyline
 66
     1
 10
0.0
 20
0.0
 30
0.0
  0
VERTEX
  5
FD
330
FC
100
AcDbEntity
  8
Layer 1
 62
     7
420
 16777215
370
    25
100
AcDbVertex
100
AcDb2dVertex
 10
44.1798793945927
 20
20.90861025074048
 30
0.0
  0
VERTEX
  5
FE
330
FC
100
AcDbEntity
  8
Layer 1
 62
     7
420
 16777215
370
    25
100
AcDbVertex
100
AcDb2dVertex
 10
43.80487914730087
 20
20.90861025074048
 30
0.0
  0
SEQEND
  5
FF
330
FC
100
AcDbEntity
  8
Layer 1
370
    25
  0
POLYLINE
  5
100
330
1F
100
AcDbEntity
  8
Layer 1
 62
     5
420
      255
370
     5
100
AcDb2dPolyline
 66
     1
 10
0.0
 20
0.0
 30
0.0
  0
VERTEX
  5
101
330
100
100
AcDbEntity
  8
Layer 1
 62
     5
420
      255
370
     5
100
AcDbVertex
100
AcDb2dVertex
 10
43.99237927094678
 20
9.794643503294077
 30
0.0
  0
VERTEX
  5
102
330
100
100
AcDbEntity
  8
Layer 1
 62
     5
420
      255
370
     5
100
AcDbVertex
100
AcDb2dVertex
 10
43.99237927094678
 20
0.4875084595055786
 30
0.0
  0
SEQEND
  5
103
330
100
100
AcDbEntity
  8
Layer 1
370
     5
  0
POLYLINE
  5
104
330
1F
100
AcDbEntity
  8
Layer 1
 62
     5
420
      255
370
     5
100
AcDb2dPolyline
 66
     1
 10
0.0
 20
0.0
 30
0.0
  0
VERTEX
  5
105
330
104
100
AcDbEntity
  8
Layer 1
 62
     5
420
      255
370
     5
100
AcDbVertex
100
AcDb2dVertex
 10
31.80460674811081
 20
9.794643503294077
 30
0.0
  0
VERTEX
  5
106
330
104
100
AcDbEntity
  8
Layer 1
 62
     5
420
      255
370
     5
100
AcDbVertex
100
AcDb2dVertex
 10
31.80460674811081
 20
0.4875084595055786
 30
0.0
  0
SEQEND
  5
107
330
104
100
AcDbEntity
  8
Layer 1
370
     5
  0
POLYLINE
  5
108
330
1F
100
AcDbEntity
  8
Layer 1
 62
     5
420
      255
370
     5
100
AcDb2dPolyline
 66
     1
 10
0.0
 20
0.0
 30
0.0
  0
VERTEX
  5
109
330
108
100
AcDbEntity
  8
Layer 1
 62
     5
420
      255
370
     5
100
AcDbVertex
100
AcDb2dVertex
 10
31.80460674811081
 20
0.8054882698900425
 30
0.0
  0
VERTEX
  5
10A
330
108
100
AcDbEntity
  8
Layer 1
 62
     5
420
      255
370
     5
100
AcDbVertex
100
AcDb2dVertex
 10
32.59959018251448
 20
1.004218869691832
 30
0.0
  0
SEQEND
  5
10B
330
108
100
AcDbEntity
  8
Layer 1
370
     5
  0
POLYLINE
  5
10C
330
1F
100
AcDbEntity
  8
Layer 1
 62
     5
420
      255
370
     5
100
AcDb2dPolyline
 66
     1
 10
0.0
 20
0.0
 30
0.0
  0
VERTEX
  5
10D
330
10C
100
AcDbEntity
  8
Layer 1
 62
     5
420
      255
370
     5
100
AcDbVertex
100
AcDb2dVertex
 10
32.59959018251448
 20
1.004218869691832
 30
0.0
  0
VERTEX
  5
10E
330
10C
100
AcDbEntity
  8
Layer 1
 62
     5
420
      255
370
     5
100
AcDbVertex
100
AcDb2dVertex
 10
32.44059349563374
 20
0.8054882698900425
 30
0.0
  0
SEQEND
  5
10F
330
10C
100
AcDbEntity
  8
Layer 1
370
     5
  0
POLYLINE
  5
110
330
1F
100
AcDbEntity
  8
Layer 1
 62
     5
420
      255
370
     5
100
AcDb2dPolyline
 66
     1
 10
0.0
 20
0.0
 30
0.0
  0
VERTEX
  5
111
330
110
100
AcDbEntity
  8
Layer 1
 62
     5
420
      255
370
     5
100
AcDbVertex
100
AcDb2dVertex
 10
32.44059349563374
 20
0.8054882698900425
 30
0.0
  0
VERTEX
  5
112
330
110
100
AcDbEntity
  8
Layer 1
 62
     5
420
      255
370
     5
100
AcDbVertex
100
AcDb2dVertex
 10
32.59959018251448
 20
0.6067576700882525
 30
0.0
  0
SEQEND
  5
113
330
110
100
AcDbEntity
  8
Layer 1
370
     5
  0
POLYLINE
  5
114
330
1F
100
AcDbEntity
  8
Layer 1
 62
     5
420
      255
370
     5
100
AcDb2dPolyline
 66
     1
 10
0.0
 20
0.0
 30
0.0
  0
VERTEX
  5
115
330
114
100
AcDbEntity
  8
Layer 1
 62
     5
420
      255
370
     5
100
AcDbVertex
100
AcDb2dVertex
 10
32.59959018251448
 20
0.6067576700882525
 30
0.0
  0
VERTEX
  5
116
330
114
100
AcDbEntity
  8
Layer 1
 62
     5
420
      255
370
     5
100
AcDbVertex
100
AcDb2dVertex
 10
31.80460674811081
 20
0.8054882698900425
 30
0.0
  0
SEQEND
  5
117
330
114
100
AcDbEntity
  8
Layer 1
370
     5
  0
POLYLINE
  5
118
330
1F
100
AcDbEntity
  8
Layer 1
370
     0
100
AcDb2dPolyline
 66
     1
 10
0.0
 20
0.0
 30
0.0
  0
VERTEX
  5
119
330
118
100
AcDbEntity
  8
Layer 1
370
     0
100
AcDbVertex
100
AcDb2dVertex
 10
31.80460674811081
 20
0.8054882698900425
 30
0.0
  0
VERTEX
  5
11A
330
118
100
AcDbEntity
  8
Layer 1
370
     0
100
AcDbVertex
100
AcDb2dVertex
 10
32.44059349563374
 20
0.8054882698900425
 30
0.0
  0
VERTEX
  5
11B
330
118
100
AcDbEntity
  8
Layer 1
370
     0
100
AcDbVertex
100
AcDb2dVertex
 10
32.59959018251448
 20
1.004218869691832
 30
0.0
  0
SEQEND
  5
11C
330
118
100
AcDbEntity
  8
Layer 1
370
     0
  0
HATCH
  5
11D
330
1F
100
AcDbEntity
  8
Layer 1
 62
     5
420
      255
100
AcDbHatch
 10
0.0
 20
0.0
 30
0.0
210
0.0
220
0.0
230
1.0
  2
SOLID
 70
     1
 71
     0
 91
        1
 92
        1
 93
        3
 72
     1
 10
31.80460674811081
 20
0.8054882698900425
 11
32.44059349563374
 21
0.8054882698900425
 72
     1
 10
32.44059349563374
 20
0.8054882698900425
 11
32.59959018251448
 21
1.004218869691832
 72
     1
 10
32.59959018251448
 20
1.004218869691832
 11
31.80460674811081
 21
0.8054882698900425
 97
        0
 75
     2
 76
     1
 98
        0
  0
POLYLINE
  5
11E
330
1F
100
AcDbEntity
  8
Layer 1
370
     0
100
AcDb2dPolyline
 66
     1
 10
0.0
 20
0.0
 30
0.0
  0
VERTEX
  5
11F
330
11E
100
AcDbEntity
  8
Layer 1
370
     0
100
AcDbVertex
100
AcDb2dVertex
 10
31.80460674811081
 20
0.8054882698900425
 30
0.0
  0
VERTEX
  5
120
330
11E
100
AcDbEntity
  8
Layer 1
370
     0
100
AcDbVertex
100
AcDb2dVertex
 10
32.44059349563374
 20
0.8054882698900425
 30
0.0
  0
VERTEX
  5
121
330
11E
100
AcDbEntity
  8
Layer 1
370
     0
100
AcDbVertex
100
AcDb2dVertex
 10
32.59959018251448
 20
1.004218869691832
 30
0.0
  0
SEQEND
  5
122
330
11E
100
AcDbEntity
  8
Layer 1
370
     0
  0
POLYLINE
  5
123
330
1F
100
AcDbEntity
  8
Layer 1
370
     0
100
AcDb2dPolyline
 66
     1
 10
0.0
 20
0.0
 30
0.0
  0
VERTEX
  5
124
330
123
100
AcDbEntity
  8
Layer 1
370
     0
100
AcDbVertex
100
AcDb2dVertex
 10
32.59959018251448
 20
0.6067576700882525
 30
0.0
  0
VERTEX
  5
125
330
123
100
AcDbEntity
  8
Layer 1
370
     0
100
AcDbVertex
100
AcDb2dVertex
 10
32.59959018251448
 20
0.6067576700882525
 30
0.0
  0
VERTEX
  5
126
330
123
100
AcDbEntity
  8
Layer 1
370
     0
100
AcDbVertex
100
AcDb2dVertex
 10
32.44059349563374
 20
0.8054882698900425
 30
0.0
  0
VERTEX
  5
127
330
123
100
AcDbEntity
  8
Layer 1
370
     0
100
AcDbVertex
100
AcDb2dVertex
 10
31.80460674811081
 20
0.8054882698900425
 30
0.0
  0
SEQEND
  5
128
330
123
100
AcDbEntity
  8
Layer 1
370
     0
  0
HATCH
  5
129
330
1F
100
AcDbEntity
  8
Layer 1
 62
     5
420
      255
100
AcDbHatch
 10
0.0
 20
0.0
 30
0.0
210
0.0
220
0.0
230
1.0
  2
SOLID
 70
     1
 71
     0
 91
        1
 92
        1
 93
        3
 72
     1
 10
32.59959018251448
 20
0.6067576700882525
 11
32.44059349563374
 21
0.8054882698900425
 72
     1
 10
32.44059349563374
 20
0.8054882698900425
 11
31.80460674811081
 21
0.8054882698900425
 72
     1
 10
31.80460674811081
 20
0.8054882698900425
 11
32.59959018251448
 21
0.6067576700882525
 97
        0
 75
     2
 76
     1
 98
        0
  0
POLYLINE
  5
12A
330
1F
100
AcDbEntity
  8
Layer 1
370
     0
100
AcDb2dPolyline
 66
     1
 10
0.0
 20
0.0
 30
0.0
  0
VERTEX
  5
12B
330
12A
100
AcDbEntity
  8
Layer 1
370
     0
100
AcDbVertex
100
AcDb2dVertex
 10
32.59959018251448
 20
0.6067576700882525
 30
0.0
  0
VERTEX
  5
12C
330
12A
100
AcDbEntity
  8
Layer 1
370
     0
100
AcDbVertex
100
AcDb2dVertex
 10
32.59959018251448
 20
0.6067576700882525
 30
0.0
  0
VERTEX
  5
12D
330
12A
100
AcDbEntity
  8
Layer 1
370
     0
100
AcDbVertex
100
AcDb2dVertex
 10
32.44059349563374
 20
0.8054882698900425
 30
0.0
  0
VERTEX
  5
12E
330
12A
100
AcDbEntity
  8
Layer 1
370
     0
100
AcDbVertex
100
AcDb2dVertex
 10
31.80460674811081
 20
0.8054882698900425
 30
0.0
  0
SEQEND
  5
12F
330
12A
100
AcDbEntity
  8
Layer 1
370
     0
  0
POLYLINE
  5
130
330
1F
100
AcDbEntity
  8
Layer 1
 62
     5
420
      255
370
     5
100
AcDb2dPolyline
 66
     1
 10
0.0
 20
0.0
 30
0.0
  0
VERTEX
  5
131
330
130
100
AcDbEntity
  8
Layer 1
 62
     5
420
      255
370
     5
100
AcDbVertex
100
AcDb2dVertex
 10
31.80460674811081
 20
0.8054882698900425
 30
0.0
  0
VERTEX
  5
132
330
130
100
AcDbEntity
  8
Layer 1
 62
     5
420
      255
370
     5
100
AcDbVertex
100
AcDb2dVertex
 10
36.17321450092673
 20
0.8054882698900425
 30
0.0
  0
SEQEND
  5
133
330
130
100
AcDbEntity
  8
Layer 1
370
     5
  0
POLYLINE
  5
134
330
1F
100
AcDbEntity
  8
Layer 1
 62
     5
420
      255
370
     5
100
AcDb2dPolyline
 66
     1
 10
0.0
 20
0.0
 30
0.0
  0
VERTEX
  5
135
330
134
100
AcDbEntity
  8
Layer 1
 62
     5
420
      255
370
     5
100
AcDbVertex
100
AcDb2dVertex
 10
43.99237927094678
 20
0.8054882698900425
 30
0.0
  0
VERTEX
  5
136
330
134
100
AcDbEntity
  8
Layer 1
 62
     5
420
      255
370
     5
100
AcDbVertex
100
AcDb2dVertex
 10
43.19740261823162
 20
0.6067576700882525
 30
0.0
  0
SEQEND
  5
137
330
134
100
AcDbEntity
  8
Layer 1
370
     5
  0
POLYLINE
  5
138
330
1F
100
AcDbEntity
  8
Layer 1
 62
     5
420
      255
370
     5
100
AcDb2dPolyline
 66
     1
 10
0.0
 20
0.0
 30
0.0
  0
VERTEX
  5
139
330
138
100
AcDbEntity
  8
Layer 1
 62
     5
420
      255
370
     5
100
AcDbVertex
100
AcDb2dVertex
 10
43.19740261823162
 20
0.6067576700882525
 30
0.0
  0
VERTEX
  5
13A
330
138
100
AcDbEntity
  8
Layer 1
 62
     5
420
      255
370
     5
100
AcDbVertex
100
AcDb2dVertex
 10
43.35639252342385
 20
0.8054882698900425
 30
0.0
  0
SEQEND
  5
13B
330
138
100
AcDbEntity
  8
Layer 1
370
     5
  0
POLYLINE
  5
13C
330
1F
100
AcDbEntity
  8
Layer 1
 62
     5
420
      255
370
     5
100
AcDb2dPolyline
 66
     1
 10
0.0
 20
0.0
 30
0.0
  0
VERTEX
  5
13D
330
13C
100
AcDbEntity
  8
Layer 1
 62
     5
420
      255
370
     5
100
AcDbVertex
100
AcDb2dVertex
 10
43.35639252342385
 20
0.8054882698900425
 30
0.0
  0
VERTEX
  5
13E
330
13C
100
AcDbEntity
  8
Layer 1
 62
     5
420
      255
370
     5
100
AcDbVertex
100
AcDb2dVertex
 10
43.19740261823162
 20
1.004218869691832
 30
0.0
  0
SEQEND
  5
13F
330
13C
100
AcDbEntity
  8
Layer 1
370
     5
  0
POLYLINE
  5
140
330
1F
100
AcDbEntity
  8
Layer 1
 62
     5
420
      255
370
     5
100
AcDb2dPolyline
 66
     1
 10
0.0
 20
0.0
 30
0.0
  0
VERTEX
  5
141
330
140
100
AcDbEntity
  8
Layer 1
 62
     5
420
      255
370
     5
100
AcDbVertex
100
AcDb2dVertex
 10
43.19740261823162
 20
1.004218869691832
 30
0.0
  0
VERTEX
  5
142
330
140
100
AcDbEntity
  8
Layer 1
 62
     5
420
      255
370
     5
100
AcDbVertex
100
AcDb2dVertex
 10
43.99237927094678
 20
0.8054882698900425
 30
0.0
  0
SEQEND
  5
143
330
140
100
AcDbEntity
  8
Layer 1
370
     5
  0
POLYLINE
  5
144
330
1F
100
AcDbEntity
  8
Layer 1
370
     0
100
AcDb2dPolyline
 66
     1
 10
0.0
 20
0.0
 30
0.0
  0
VERTEX
  5
145
330
144
100
AcDbEntity
  8
Layer 1
370
     0
100
AcDbVertex
100
AcDb2dVertex
 10
43.35639252342385
 20
0.8054882698900425
 30
0.0
  0
VERTEX
  5
146
330
144
100
AcDbEntity
  8
Layer 1
370
     0
100
AcDbVertex
100
AcDb2dVertex
 10
43.99237927094678
 20
0.8054882698900425
 30
0.0
  0
VERTEX
  5
147
330
144
100
AcDbEntity
  8
Layer 1
370
     0
100
AcDbVertex
100
AcDb2dVertex
 10
43.19740261823162
 20
1.004218869691832
 30
0.0
  0
SEQEND
  5
148
330
144
100
AcDbEntity
  8
Layer 1
370
     0
  0
HATCH
  5
149
330
1F
100
AcDbEntity
  8
Layer 1
 62
     5
420
      255
100
AcDbHatch
 10
0.0
 20
0.0
 30
0.0
210
0.0
220
0.0
230
1.0
  2
SOLID
 70
     1
 71
     0
 91
        1
 92
        1
 93
        3
 72
     1
 10
43.35639252342385
 20
0.8054882698900425
 11
43.99237927094678
 21
0.8054882698900425
 72
     1
 10
43.99237927094678
 20
0.8054882698900425
 11
43.19740261823162
 21
1.004218869691832
 72
     1
 10
43.19740261823162
 20
1.004218869691832
 11
43.35639252342385
 21
0.8054882698900425
 97
        0
 75
     2
 76
     1
 98
        0
  0
POLYLINE
  5
14A
330
1F
100
AcDbEntity
  8
Layer 1
370
     0
100
AcDb2dPolyline
 66
     1
 10
0.0
 20
0.0
 30
0.0
  0
VERTEX
  5
14B
330
14A
100
AcDbEntity
  8
Layer 1
370
     0
100
AcDbVertex
100
AcDb2dVertex
 10
43.35639252342385
 20
0.8054882698900425
 30
0.0
  0
VERTEX
  5
14C
330
14A
100
AcDbEntity
  8
Layer 1
370
     0
100
AcDbVertex
100
AcDb2dVertex
 10
43.99237927094678
 20
0.8054882698900425
 30
0.0
  0
VERTEX
  5
14D
330
14A
100
AcDbEntity
  8
Layer 1
370
     0
100
AcDbVertex
100
AcDb2dVertex
 10
43.19740261823162
 20
1.004218869691832
 30
0.0
  0
SEQEND
  5
14E
330
14A
100
AcDbEntity
  8
Layer 1
370
     0
  0
POLYLINE
  5
14F
330
1F
100
AcDbEntity
  8
Layer 1
370
     0
100
AcDb2dPolyline
 66
     1
 10
0.0
 20
0.0
 30
0.0
  0
VERTEX
  5
150
330
14F
100
AcDbEntity
  8
Layer 1
370
     0
100
AcDbVertex
100
AcDb2dVertex
 10
43.19740261823162
 20
0.6067576700882525
 30
0.0
  0
VERTEX
  5
151
330
14F
100
AcDbEntity
  8
Layer 1
370
     0
100
AcDbVertex
100
AcDb2dVertex
 10
43.19740261823162
 20
0.6067576700882525
 30
0.0
  0
VERTEX
  5
152
330
14F
100
AcDbEntity
  8
Layer 1
370
     0
100
AcDbVertex
100
AcDb2dVertex
 10
43.99237927094678
 20
0.8054882698900425
 30
0.0
  0
VERTEX
  5
153
330
14F
100
AcDbEntity
  8
Layer 1
370
     0
100
AcDbVertex
100
AcDb2dVertex
 10
43.35639252342385
 20
0.8054882698900425
 30
0.0
  0
SEQEND
  5
154
330
14F
100
AcDbEntity
  8
Layer 1
370
     0
  0
HATCH
  5
155
330
1F
100
AcDbEntity
  8
Layer 1
 62
     5
420
      255
100
AcDbHatch
 10
0.0
 20
0.0
 30
0.0
210
0.0
220
0.0
230
1.0
  2
SOLID
 70
     1
 71
     0
 91
        1
 92
        1
 93
        3
 72
     1
 10
43.19740261823162
 20
0.6067576700882525
 11
43.99237927094678
 21
0.8054882698900425
 72
     1
 10
43.99237927094678
 20
0.8054882698900425
 11
43.35639252342385
 21
0.8054882698900425
 72
     1
 10
43.35639252342385
 20
0.8054882698900425
 11
43.19740261823162
 21
0.6067576700882525
 97
        0
 75
     2
 76
     1
 98
        0
  0
POLYLINE
  5
156
330
1F
100
AcDbEntity
  8
Layer 1
370
     0
100
AcDb2dPolyline
 66
     1
 10
0.0
 20
0.0
 30
0.0
  0
VERTEX
  5
157
330
156
100
AcDbEntity
  8
Layer 1
370
     0
100
AcDbVertex
100
AcDb2dVertex
 10
43.19740261823162
 20
0.6067576700882525
 30
0.0
  0
VERTEX
  5
158
330
156
100
AcDbEntity
  8
Layer 1
370
     0
100
AcDbVertex
100
AcDb2dVertex
 10
43.19740261823162
 20
0.6067576700882525
 30
0.0
  0
VERTEX
  5
159
330
156
100
AcDbEntity
  8
Layer 1
370
     0
100
AcDbVertex
100
AcDb2dVertex
 10
43.99237927094678
 20
0.8054882698900425
 30
0.0
  0
VERTEX
  5
15A
330
156
100
AcDbEntity
  8
Layer 1
370
     0
100
AcDbVertex
100
AcDb2dVertex
 10
43.35639252342385
 20
0.8054882698900425
 30
0.0
  0
SEQEND
  5
15B
330
156
100
AcDbEntity
  8
Layer 1
370
     0
  0
POLYLINE
  5
15C
330
1F
100
AcDbEntity
  8
Layer 1
 62
     5
420
      255
370
     5
100
AcDb2dPolyline
 66
     1
 10
0.0
 20
0.0
 30
0.0
  0
VERTEX
  5
15D
330
15C
100
AcDbEntity
  8
Layer 1
 62
     5
420
      255
370
     5
100
AcDbVertex
100
AcDb2dVertex
 10
43.99237927094678
 20
0.8054882698900425
 30
0.0
  0
VERTEX
  5
15E
330
15C
100
AcDbEntity
  8
Layer 1
 62
     5
420
      255
370
     5
100
AcDbVertex
100
AcDb2dVertex
 10
39.62377829981936
 20
0.8054882698900425
 30
0.0
  0
SEQEND
  5
15F
330
15C
100
AcDbEntity
  8
Layer 1
370
     5
  0
MTEXT
  5
160
330
1F
100
AcDbEntity
  8
Layer 1
 62
     5
420
      255
100
AcDbMText
 10
36.70302713329484
 20
0.4767798282986979
 30
0.0
 40
0.6223401719208501
 41
0.0
 71
     7
 72
     1
  1
\fArial|b0|i0|c0|p34;\W1;1
 73
     1
 44
1.0
  0
MTEXT
  5
161
330
1F
100
AcDbEntity
  8
Layer 1
 62
     5
420
      255
100
AcDbMText
 10
37.22135158534407
 20
0.4767798282986979
 30
0.0
 40
0.6223401719208501
 41
0.0
 71
     7
 72
     1
  1
\fArial|b0|i0|c0|p34;\W1;2
 73
     1
 44
1.0
  0
MTEXT
  5
162
330
1F
100
AcDbEntity
  8
Layer 1
 62
     5
420
      255
100
AcDbMText
 10
37.73966247401631
 20
0.6811392295554253
 30
0.0
 40
0.6223401719208501
 41
0.0
 71
     7
 72
     1
  1
\fArial|b0|i0|c0|p34;\W1;3
 73
     1
 44
1.0
  0
POLYLINE
  5
163
330
1F
100
AcDbEntity
  8
Layer 1
 62
     5
420
      255
370
    13
100
AcDb2dPolyline
 66
     1
 10
0.0
 20
0.0
 30
0.0
  0
VERTEX
  5
164
330
163
100
AcDbEntity
  8
Layer 1
 62
     5
420
      255
370
    13
100
AcDbVertex
100
AcDb2dVertex
 10
38.03288912137605
 20
0.4797908979926644
 30
0.0
  0
VERTEX
  5
165
330
163
100
AcDbEntity
  8
Layer 1
 62
     5
420
      255
370
    13
100
AcDbVertex
100
AcDb2dVertex
 10
38.43866467108054
 20
1.335707803568146
 30
0.0
  0
SEQEND
  5
166
330
163
100
AcDbEntity
  8
Layer 1
370
    13
  0
MTEXT
  5
167
330
1F
100
AcDbEntity
  8
Layer 1
 62
     5
420
      255
100
AcDbMText
 10
38.32610220535879
 20
0.4767798282986979
 30
0.0
 40
0.6223401719208501
 41
0.0
 71
     7
 72
     1
  1
\fArial|b0|i0|c0|p34;\W1;1
 73
     1
 44
1.0
  0
MTEXT
  5
168
330
1F
100
AcDbEntity
  8
Layer 1
 62
     5
420
      255
100
AcDbMText
 10
38.70818253544454
 20
0.4767798282986979
 30
0.0
 40
0.6223401719208501
 41
0.0
 71
     7
 72
     1
  1
\fArial|b0|i0|c0|p34;\W1;6
 73
     1
 44
1.0
  0
POLYLINE
  5
169
330
1F
100
AcDbEntity
  8
Layer 1
 62
     5
420
      255
370
     5
100
AcDb2dPolyline
 66
     1
 10
0.0
 20
0.0
 30
0.0
  0
VERTEX
  5
16A
330
169
100
AcDbEntity
  8
Layer 1
 62
     5
420
      255
370
     5
100
AcDbVertex
100
AcDb2dVertex
 10
61.80527079186469
 20
17.64039927392233
 30
0.0
  0
VERTEX
  5
16B
330
169
100
AcDbEntity
  8
Layer 1
 62
     5
420
      255
370
     5
100
AcDbVertex
100
AcDb2dVertex
 10
61.80527079186469
 20
28.66060239616878
 30
0.0
  0
SEQEND
  5
16C
330
169
100
AcDbEntity
  8
Layer 1
370
     5
  0
POLYLINE
  5
16D
330
1F
100
AcDbEntity
  8
Layer 1
 62
     5
420
      255
370
     5
100
AcDb2dPolyline
 66
     1
 10
0.0
 20
0.0
 30
0.0
  0
VERTEX
  5
16E
330
16D
100
AcDbEntity
  8
Layer 1
 62
     5
420
      255
370
     5
100
AcDbVertex
100
AcDb2dVertex
 10
3.553977766827978
 20
19.75174913629235
 30
0.0
  0
VERTEX
  5
16F
330
16D
100
AcDbEntity
  8
Layer 1
 62
     5
420
      255
370
     5
100
AcDbVertex
100
AcDb2dVertex
 10
3.553977766827978
 20
28.66060239616878
 30
0.0
  0
SEQEND
  5
170
330
16D
100
AcDbEntity
  8
Layer 1
370
     5
  0
POLYLINE
  5
171
330
1F
100
AcDbEntity
  8
Layer 1
 62
     5
420
      255
370
     5
100
AcDb2dPolyline
 66
     1
 10
0.0
 20
0.0
 30
0.0
  0
VERTEX
  5
172
330
171
100
AcDbEntity
  8
Layer 1
 62
     5
420
      255
370
     5
100
AcDbVertex
100
AcDb2dVertex
 10
3.553977766827978
 20
28.36321179207009
 30
0.0
  0
VERTEX
  5
173
330
171
100
AcDbEntity
  8
Layer 1
 62
     5
420
      255
370
     5
100
AcDbVertex
100
AcDb2dVertex
 10
4.297501748894209
 20
28.54907752878752
 30
0.0
  0
SEQEND
  5
174
330
171
100
AcDbEntity
  8
Layer 1
370
     5
  0
POLYLINE
  5
175
330
1F
100
AcDbEntity
  8
Layer 1
 62
     5
420
      255
370
     5
100
AcDb2dPolyline
 66
     1
 10
0.0
 20
0.0
 30
0.0
  0
VERTEX
  5
176
330
175
100
AcDbEntity
  8
Layer 1
 62
     5
420
      255
370
     5
100
AcDbVertex
100
AcDb2dVertex
 10
4.297501748894209
 20
28.54907752878752
 30
0.0
  0
VERTEX
  5
177
330
175
100
AcDbEntity
  8
Layer 1
 62
     5
420
      255
370
     5
100
AcDbVertex
100
AcDb2dVertex
 10
4.148792883467863
 20
28.36321179207009
 30
0.0
  0
SEQEND
  5
178
330
175
100
AcDbEntity
  8
Layer 1
370
     5
  0
POLYLINE
  5
179
330
1F
100
AcDbEntity
  8
Layer 1
 62
     5
420
      255
370
     5
100
AcDb2dPolyline
 66
     1
 10
0.0
 20
0.0
 30
0.0
  0
VERTEX
  5
17A
330
179
100
AcDbEntity
  8
Layer 1
 62
     5
420
      255
370
     5
100
AcDbVertex
100
AcDb2dVertex
 10
4.148792883467863
 20
28.36321179207009
 30
0.0
  0
VERTEX
  5
17B
330
179
100
AcDbEntity
  8
Layer 1
 62
     5
420
      255
370
     5
100
AcDbVertex
100
AcDb2dVertex
 10
4.297501748894209
 20
28.17734605535265
 30
0.0
  0
SEQEND
  5
17C
330
179
100
AcDbEntity
  8
Layer 1
370
     5
  0
POLYLINE
  5
17D
330
1F
100
AcDbEntity
  8
Layer 1
 62
     5
420
      255
370
     5
100
AcDb2dPolyline
 66
     1
 10
0.0
 20
0.0
 30
0.0
  0
VERTEX
  5
17E
330
17D
100
AcDbEntity
  8
Layer 1
 62
     5
420
      255
370
     5
100
AcDbVertex
100
AcDb2dVertex
 10
4.297501748894209
 20
28.17734605535265
 30
0.0
  0
VERTEX
  5
17F
330
17D
100
AcDbEntity
  8
Layer 1
 62
     5
420
      255
370
     5
100
AcDbVertex
100
AcDb2dVertex
 10
3.553977766827978
 20
28.36321179207009
 30
0.0
  0
SEQEND
  5
180
330
17D
100
AcDbEntity
  8
Layer 1
370
     5
  0
POLYLINE
  5
181
330
1F
100
AcDbEntity
  8
Layer 1
370
     0
100
AcDb2dPolyline
 66
     1
 10
0.0
 20
0.0
 30
0.0
  0
VERTEX
  5
182
330
181
100
AcDbEntity
  8
Layer 1
370
     0
100
AcDbVertex
100
AcDb2dVertex
 10
3.553977766827978
 20
28.36321179207009
 30
0.0
  0
VERTEX
  5
183
330
181
100
AcDbEntity
  8
Layer 1
370
     0
100
AcDbVertex
100
AcDb2dVertex
 10
4.148792883467863
 20
28.36321179207009
 30
0.0
  0
VERTEX
  5
184
330
181
100
AcDbEntity
  8
Layer 1
370
     0
100
AcDbVertex
100
AcDb2dVertex
 10
4.297501748894209
 20
28.54907752878752
 30
0.0
  0
SEQEND
  5
185
330
181
100
AcDbEntity
  8
Layer 1
370
     0
  0
HATCH
  5
186
330
1F
100
AcDbEntity
  8
Layer 1
 62
     5
420
      255
100
AcDbHatch
 10
0.0
 20
0.0
 30
0.0
210
0.0
220
0.0
230
1.0
  2
SOLID
 70
     1
 71
     0
 91
        1
 92
        1
 93
        3
 72
     1
 10
3.553977766827978
 20
28.36321179207009
 11
4.148792883467863
 21
28.36321179207009
 72
     1
 10
4.148792883467863
 20
28.36321179207009
 11
4.297501748894209
 21
28.54907752878752
 72
     1
 10
4.297501748894209
 20
28.54907752878752
 11
3.553977766827978
 21
28.36321179207009
 97
        0
 75
     2
 76
     1
 98
        0
  0
POLYLINE
  5
187
330
1F
100
AcDbEntity
  8
Layer 1
370
     0
100
AcDb2dPolyline
 66
     1
 10
0.0
 20
0.0
 30
0.0
  0
VERTEX
  5
188
330
187
100
AcDbEntity
  8
Layer 1
370
     0
100
AcDbVertex
100
AcDb2dVertex
 10
3.553977766827978
 20
28.36321179207009
 30
0.0
  0
VERTEX
  5
189
330
187
100
AcDbEntity
  8
Layer 1
370
     0
100
AcDbVertex
100
AcDb2dVertex
 10
4.148792883467863
 20
28.36321179207009
 30
0.0
  0
VERTEX
  5
18A
330
187
100
AcDbEntity
  8
Layer 1
370
     0
100
AcDbVertex
100
AcDb2dVertex
 10
4.297501748894209
 20
28.54907752878752
 30
0.0
  0
SEQEND
  5
18B
330
187
100
AcDbEntity
  8
Layer 1
370
     0
  0
POLYLINE
  5
18C
330
1F
100
AcDbEntity
  8
Layer 1
370
     0
100
AcDb2dPolyline
 66
     1
 10
0.0
 20
0.0
 30
0.0
  0
VERTEX
  5
18D
330
18C
100
AcDbEntity
  8
Layer 1
370
     0
100
AcDbVertex
100
AcDb2dVertex
 10
4.297501748894209
 20
28.17734605535265
 30
0.0
  0
VERTEX
  5
18E
330
18C
100
AcDbEntity
  8
Layer 1
370
     0
100
AcDbVertex
100
AcDb2dVertex
 10
4.297501748894209
 20
28.17734605535265
 30
0.0
  0
VERTEX
  5
18F
330
18C
100
AcDbEntity
  8
Layer 1
370
     0
100
AcDbVertex
100
AcDb2dVertex
 10
4.148792883467863
 20
28.36321179207009
 30
0.0
  0
VERTEX
  5
190
330
18C
100
AcDbEntity
  8
Layer 1
370
     0
100
AcDbVertex
100
AcDb2dVertex
 10
3.553977766827978
 20
28.36321179207009
 30
0.0
  0
SEQEND
  5
191
330
18C
100
AcDbEntity
  8
Layer 1
370
     0
  0
HATCH
  5
192
330
1F
100
AcDbEntity
  8
Layer 1
 62
     5
420
      255
100
AcDbHatch
 10
0.0
 20
0.0
 30
0.0
210
0.0
220
0.0
230
1.0
  2
SOLID
 70
     1
 71
     0
 91
        1
 92
        1
 93
        3
 72
     1
 10
4.297501748894209
 20
28.17734605535265
 11
4.148792883467863
 21
28.36321179207009
 72
     1
 10
4.148792883467863
 20
28.36321179207009
 11
3.553977766827978
 21
28.36321179207009
 72
     1
 10
3.553977766827978
 20
28.36321179207009
 11
4.297501748894209
 21
28.17734605535265
 97
        0
 75
     2
 76
     1
 98
        0
  0
POLYLINE
  5
193
330
1F
100
AcDbEntity
  8
Layer 1
370
     0
100
AcDb2dPolyline
 66
     1
 10
0.0
 20
0.0
 30
0.0
  0
VERTEX
  5
194
330
193
100
AcDbEntity
  8
Layer 1
370
     0
100
AcDbVertex
100
AcDb2dVertex
 10
4.297501748894209
 20
28.17734605535265
 30
0.0
  0
VERTEX
  5
195
330
193
100
AcDbEntity
  8
Layer 1
370
     0
100
AcDbVertex
100
AcDb2dVertex
 10
4.297501748894209
 20
28.17734605535265
 30
0.0
  0
VERTEX
  5
196
330
193
100
AcDbEntity
  8
Layer 1
370
     0
100
AcDbVertex
100
AcDb2dVertex
 10
4.148792883467863
 20
28.36321179207009
 30
0.0
  0
VERTEX
  5
197
330
193
100
AcDbEntity
  8
Layer 1
370
     0
100
AcDbVertex
100
AcDb2dVertex
 10
3.553977766827978
 20
28.36321179207009
 30
0.0
  0
SEQEND
  5
198
330
193
100
AcDbEntity
  8
Layer 1
370
     0
  0
POLYLINE
  5
199
330
1F
100
AcDbEntity
  8
Layer 1
 62
     5
420
      255
370
     5
100
AcDb2dPolyline
 66
     1
 10
0.0
 20
0.0
 30
0.0
  0
VERTEX
  5
19A
330
199
100
AcDbEntity
  8
Layer 1
 62
     5
420
      255
370
     5
100
AcDbVertex
100
AcDb2dVertex
 10
3.553977766827978
 20
28.36321179207009
 30
0.0
  0
VERTEX
  5
19B
330
199
100
AcDbEntity
  8
Layer 1
 62
     5
420
      255
370
     5
100
AcDbVertex
100
AcDb2dVertex
 10
30.55780688077668
 20
28.36321179207009
 30
0.0
  0
SEQEND
  5
19C
330
199
100
AcDbEntity
  8
Layer 1
370
     5
  0
POLYLINE
  5
19D
330
1F
100
AcDbEntity
  8
Layer 1
 62
     5
420
      255
370
     5
100
AcDb2dPolyline
 66
     1
 10
0.0
 20
0.0
 30
0.0
  0
VERTEX
  5
19E
330
19D
100
AcDbEntity
  8
Layer 1
 62
     5
420
      255
370
     5
100
AcDbVertex
100
AcDb2dVertex
 10
61.80527079186469
 20
28.36321179207009
 30
0.0
  0
VERTEX
  5
19F
330
19D
100
AcDbEntity
  8
Layer 1
 62
     5
420
      255
370
     5
100
AcDbVertex
100
AcDb2dVertex
 10
61.06175359148695
 20
28.17734605535265
 30
0.0
  0
SEQEND
  5
1A0
330
19D
100
AcDbEntity
  8
Layer 1
370
     5
  0
POLYLINE
  5
1A1
330
1F
100
AcDbEntity
  8
Layer 1
 62
     5
420
      255
370
     5
100
AcDb2dPolyline
 66
     1
 10
0.0
 20
0.0
 30
0.0
  0
VERTEX
  5
1A2
330
1A1
100
AcDbEntity
  8
Layer 1
 62
     5
420
      255
370
     5
100
AcDbVertex
100
AcDb2dVertex
 10
61.06175359148695
 20
28.17734605535265
 30
0.0
  0
VERTEX
  5
1A3
330
1A1
100
AcDbEntity
  8
Layer 1
 62
     5
420
      255
370
     5
100
AcDbVertex
100
AcDb2dVertex
 10
61.21046245691331
 20
28.36321179207009
 30
0.0
  0
SEQEND
  5
1A4
330
1A1
100
AcDbEntity
  8
Layer 1
370
     5
  0
POLYLINE
  5
1A5
330
1F
100
AcDbEntity
  8
Layer 1
 62
     5
420
      255
370
     5
100
AcDb2dPolyline
 66
     1
 10
0.0
 20
0.0
 30
0.0
  0
VERTEX
  5
1A6
330
1A5
100
AcDbEntity
  8
Layer 1
 62
     5
420
      255
370
     5
100
AcDbVertex
100
AcDb2dVertex
 10
61.21046245691331
 20
28.36321179207009
 30
0.0
  0
VERTEX
  5
1A7
330
1A5
100
AcDbEntity
  8
Layer 1
 62
     5
420
      255
370
     5
100
AcDbVertex
100
AcDb2dVertex
 10
61.06175359148695
 20
28.54907752878752
 30
0.0
  0
SEQEND
  5
1A8
330
1A5
100
AcDbEntity
  8
Layer 1
370
     5
  0
POLYLINE
  5
1A9
330
1F
100
AcDbEntity
  8
Layer 1
 62
     5
420
      255
370
     5
100
AcDb2dPolyline
 66
     1
 10
0.0
 20
0.0
 30
0.0
  0
VERTEX
  5
1AA
330
1A9
100
AcDbEntity
  8
Layer 1
 62
     5
420
      255
370
     5
100
AcDbVertex
100
AcDb2dVertex
 10
61.06175359148695
 20
28.54907752878752
 30
0.0
  0
VERTEX
  5
1AB
330
1A9
100
AcDbEntity
  8
Layer 1
 62
     5
420
      255
370
     5
100
AcDbVertex
100
AcDb2dVertex
 10
61.80527079186469
 20
28.36321179207009
 30
0.0
  0
SEQEND
  5
1AC
330
1A9
100
AcDbEntity
  8
Layer 1
370
     5
  0
POLYLINE
  5
1AD
330
1F
100
AcDbEntity
  8
Layer 1
370
     0
100
AcDb2dPolyline
 66
     1
 10
0.0
 20
0.0
 30
0.0
  0
VERTEX
  5
1AE
330
1AD
100
AcDbEntity
  8
Layer 1
370
     0
100
AcDbVertex
100
AcDb2dVertex
 10
61.21046245691331
 20
28.36321179207009
 30
0.0
  0
VERTEX
  5
1AF
330
1AD
100
AcDbEntity
  8
Layer 1
370
     0
100
AcDbVertex
100
AcDb2dVertex
 10
61.80527079186469
 20
28.36321179207009
 30
0.0
  0
VERTEX
  5
1B0
330
1AD
100
AcDbEntity
  8
Layer 1
370
     0
100
AcDbVertex
100
AcDb2dVertex
 10
61.06175359148695
 20
28.54907752878752
 30
0.0
  0
SEQEND
  5
1B1
330
1AD
100
AcDbEntity
  8
Layer 1
370
     0
  0
HATCH
  5
1B2
330
1F
100
AcDbEntity
  8
Layer 1
 62
     5
420
      255
100
AcDbHatch
 10
0.0
 20
0.0
 30
0.0
210
0.0
220
0.0
230
1.0
  2
SOLID
 70
     1
 71
     0
 91
        1
 92
        1
 93
        3
 72
     1
 10
61.21046245691331
 20
28.36321179207009
 11
61.80527079186469
 21
28.36321179207009
 72
     1
 10
61.80527079186469
 20
28.36321179207009
 11
61.06175359148695
 21
28.54907752878752
 72
     1
 10
61.06175359148695
 20
28.54907752878752
 11
61.21046245691331
 21
28.36321179207009
 97
        0
 75
     2
 76
     1
 98
        0
  0
POLYLINE
  5
1B3
330
1F
100
AcDbEntity
  8
Layer 1
370
     0
100
AcDb2dPolyline
 66
     1
 10
0.0
 20
0.0
 30
0.0
  0
VERTEX
  5
1B4
330
1B3
100
AcDbEntity
  8
Layer 1
370
     0
100
AcDbVertex
100
AcDb2dVertex
 10
61.21046245691331
 20
28.36321179207009
 30
0.0
  0
VERTEX
  5
1B5
330
1B3
100
AcDbEntity
  8
Layer 1
370
     0
100
AcDbVertex
100
AcDb2dVertex
 10
61.80527079186469
 20
28.36321179207009
 30
0.0
  0
VERTEX
  5
1B6
330
1B3
100
AcDbEntity
  8
Layer 1
370
     0
100
AcDbVertex
100
AcDb2dVertex
 10
61.06175359148695
 20
28.54907752878752
 30
0.0
  0
SEQEND
  5
1B7
330
1B3
100
AcDbEntity
  8
Layer 1
370
     0
  0
POLYLINE
  5
1B8
330
1F
100
AcDbEntity
  8
Layer 1
370
     0
100
AcDb2dPolyline
 66
     1
 10
0.0
 20
0.0
 30
0.0
  0
VERTEX
  5
1B9
330
1B8
100
AcDbEntity
  8
Layer 1
370
     0
100
AcDbVertex
100
AcDb2dVertex
 10
61.06175359148695
 20
28.17734605535265
 30
0.0
  0
VERTEX
  5
1BA
330
1B8
100
AcDbEntity
  8
Layer 1
370
     0
100
AcDbVertex
100
AcDb2dVertex
 10
61.06175359148695
 20
28.17734605535265
 30
0.0
  0
VERTEX
  5
1BB
330
1B8
100
AcDbEntity
  8
Layer 1
370
     0
100
AcDbVertex
100
AcDb2dVertex
 10
61.80527079186469
 20
28.36321179207009
 30
0.0
  0
VERTEX
  5
1BC
330
1B8
100
AcDbEntity
  8
Layer 1
370
     0
100
AcDbVertex
100
AcDb2dVertex
 10
61.21046245691331
 20
28.36321179207009
 30
0.0
  0
SEQEND
  5
1BD
330
1B8
100
AcDbEntity
  8
Layer 1
370
     0
  0
HATCH
  5
1BE
330
1F
100
AcDbEntity
  8
Layer 1
 62
     5
420
      255
100
AcDbHatch
 10
0.0
 20
0.0
 30
0.0
210
0.0
220
0.0
230
1.0
  2
SOLID
 70
     1
 71
     0
 91
        1
 92
        1
 93
        3
 72
     1
 10
61.06175359148695
 20
28.17734605535265
 11
61.80527079186469
 21
28.36321179207009
 72
     1
 10
61.80527079186469
 20
28.36321179207009
 11
61.21046245691331
 21
28.36321179207009
 72
     1
 10
61.21046245691331
 20
28.36321179207009
 11
61.06175359148695
 21
28.17734605535265
 97
        0
 75
     2
 76
     1
 98
        0
  0
POLYLINE
  5
1BF
330
1F
100
AcDbEntity
  8
Layer 1
370
     0
100
AcDb2dPolyline
 66
     1
 10
0.0
 20
0.0
 30
0.0
  0
VERTEX
  5
1C0
330
1BF
100
AcDbEntity
  8
Layer 1
370
     0
100
AcDbVertex
100
AcDb2dVertex
 10
61.06175359148695
 20
28.17734605535265
 30
0.0
  0
VERTEX
  5
1C1
330
1BF
100
AcDbEntity
  8
Layer 1
370
     0
100
AcDbVertex
100
AcDb2dVertex
 10
61.06175359148695
 20
28.17734605535265
 30
0.0
  0
VERTEX
  5
1C2
330
1BF
100
AcDbEntity
  8
Layer 1
370
     0
100
AcDbVertex
100
AcDb2dVertex
 10
61.80527079186469
 20
28.36321179207009
 30
0.0
  0
VERTEX
  5
1C3
330
1BF
100
AcDbEntity
  8
Layer 1
370
     0
100
AcDbVertex
100
AcDb2dVertex
 10
61.21046245691331
 20
28.36321179207009
 30
0.0
  0
SEQEND
  5
1C4
330
1BF
100
AcDbEntity
  8
Layer 1
370
     0
  0
POLYLINE
  5
1C5
330
1F
100
AcDbEntity
  8
Layer 1
 62
     5
420
      255
370
     5
100
AcDb2dPolyline
 66
     1
 10
0.0
 20
0.0
 30
0.0
  0
VERTEX
  5
1C6
330
1C5
100
AcDbEntity
  8
Layer 1
 62
     5
420
      255
370
     5
100
AcDbVertex
100
AcDb2dVertex
 10
61.80527079186469
 20
28.36321179207009
 30
0.0
  0
VERTEX
  5
1C7
330
1C5
100
AcDbEntity
  8
Layer 1
 62
     5
420
      255
370
     5
100
AcDbVertex
100
AcDb2dVertex
 10
33.42641364442528
 20
28.36321179207009
 30
0.0
  0
SEQEND
  5
1C8
330
1C5
100
AcDbEntity
  8
Layer 1
370
     5
  0
MTEXT
  5
1C9
330
1F
100
AcDbEntity
  8
Layer 1
 62
     5
420
      255
100
AcDbMText
 10
31.05777330205662
 20
28.05284781787104
 30
0.0
 40
0.5820592352897221
 41
0.0
 71
     7
 72
     1
  1
\fArial|b0|i0|c0|p34;\W1;5
 73
     1
 44
1.0
  0
MTEXT
  5
1CA
330
1F
100
AcDbEntity
  8
Layer 1
 62
     5
420
      255
100
AcDbMText
 10
31.54351174086372
 20
28.05284781787104
 30
0.0
 40
0.5820592352897221
 41
0.0
 71
     7
 72
     1
  1
\fArial|b0|i0|c0|p34;\W1;8
 73
     1
 44
1.0
  0
MTEXT
  5
1CB
330
1F
100
AcDbEntity
  8
Layer 1
 62
     5
420
      255
100
AcDbMText
 10
32.02629336348485
 20
28.24239601144393
 30
0.0
 40
0.5820592352897221
 41
0.0
 71
     7
 72
     1
  1
\fArial|b0|i0|c0|p34;\W1;1
 73
     1
 44
1.0
  0
POLYLINE
  5
1CC
330
1F
100
AcDbEntity
  8
Layer 1
 62
     5
420
      255
370
    13
100
AcDb2dPolyline
 66
     1
 10
0.0
 20
0.0
 30
0.0
  0
VERTEX
  5
1CD
330
1CC
100
AcDbEntity
  8
Layer 1
 62
     5
420
      255
370
    13
100
AcDbVertex
100
AcDb2dVertex
 10
32.29878160741182
 20
28.055858887565
 30
0.0
  0
VERTEX
  5
1CE
330
1CC
100
AcDbEntity
  8
Layer 1
 62
     5
420
      255
370
    13
100
AcDbVertex
100
AcDb2dVertex
 10
32.6778915579346
 20
28.85847172153108
 30
0.0
  0
SEQEND
  5
1CF
330
1CC
100
AcDbEntity
  8
Layer 1
370
    13
  0
MTEXT
  5
1D0
330
1F
100
AcDbEntity
  8
Layer 1
 62
     5
420
      255
100
AcDbMText
 10
32.57423344921325
 20
28.05284781787104
 30
0.0
 40
0.5820592352897221
 41
0.0
 71
     7
 72
     1
  1
\fArial|b0|i0|c0|p34;\W1;4
 73
     1
 44
1.0
  0
POLYLINE
  5
1D1
330
1F
100
AcDbEntity
  8
Layer 1
 62
     5
420
      255
370
     5
100
AcDb2dPolyline
 66
     1
 10
0.0
 20
0.0
 30
0.0
  0
VERTEX
  5
1D2
330
1D1
100
AcDbEntity
  8
Layer 1
 62
     5
420
      255
370
     5
100
AcDbVertex
100
AcDb2dVertex
 10
7.847674988473729
 20
8.596536159389402
 30
0.0
  0
VERTEX
  5
1D3
330
1D1
100
AcDbEntity
  8
Layer 1
 62
     5
420
      255
370
     5
100
AcDbVertex
100
AcDb2dVertex
 10
1.207527109231072
 20
8.596536159389402
 30
0.0
  0
SEQEND
  5
1D4
330
1D1
100
AcDbEntity
  8
Layer 1
370
     5
  0
POLYLINE
  5
1D5
330
1F
100
AcDbEntity
  8
Layer 1
 62
     5
420
      255
370
     5
100
AcDb2dPolyline
 66
     1
 10
0.0
 20
0.0
 30
0.0
  0
VERTEX
  5
1D6
330
1D5
100
AcDbEntity
  8
Layer 1
 62
     5
420
      255
370
     5
100
AcDbVertex
100
AcDb2dVertex
 10
5.739451484502174
 20
20.90861025074048
 30
0.0
  0
VERTEX
  5
1D7
330
1D5
100
AcDbEntity
  8
Layer 1
 62
     5
420
      255
370
     5
100
AcDbVertex
100
AcDb2dVertex
 10
1.207527109231072
 20
20.90861025074048
 30
0.0
  0
SEQEND
  5
1D8
330
1D5
100
AcDbEntity
  8
Layer 1
370
     5
  0
POLYLINE
  5
1D9
330
1F
100
AcDbEntity
  8
Layer 1
 62
     5
420
      255
370
     5
100
AcDb2dPolyline
 66
     1
 10
0.0
 20
0.0
 30
0.0
  0
VERTEX
  5
1DA
330
1D9
100
AcDbEntity
  8
Layer 1
 62
     5
420
      255
370
     5
100
AcDbVertex
100
AcDb2dVertex
 10
1.518006372134619
 20
20.90861025074048
 30
0.0
  0
VERTEX
  5
1DB
330
1D9
100
AcDbEntity
  8
Layer 1
 62
     5
420
      255
370
     5
100
AcDbVertex
100
AcDb2dVertex
 10
1.712057606871461
 20
20.13245956530112
 30
0.0
  0
SEQEND
  5
1DC
330
1D9
100
AcDbEntity
  8
Layer 1
370
     5
  0
POLYLINE
  5
1DD
330
1F
100
AcDbEntity
  8
Layer 1
 62
     5
420
      255
370
     5
100
AcDb2dPolyline
 66
     1
 10
0.0
 20
0.0
 30
0.0
  0
VERTEX
  5
1DE
330
1DD
100
AcDbEntity
  8
Layer 1
 62
     5
420
      255
370
     5
100
AcDbVertex
100
AcDb2dVertex
 10
1.712057606871461
 20
20.13245956530112
 30
0.0
  0
VERTEX
  5
1DF
330
1DD
100
AcDbEntity
  8
Layer 1
 62
     5
420
      255
370
     5
100
AcDbVertex
100
AcDb2dVertex
 10
1.518006372134619
 20
20.28768563337589
 30
0.0
  0
SEQEND
  5
1E0
330
1DD
100
AcDbEntity
  8
Layer 1
370
     5
  0
POLYLINE
  5
1E1
330
1F
100
AcDbEntity
  8
Layer 1
 62
     5
420
      255
370
     5
100
AcDb2dPolyline
 66
     1
 10
0.0
 20
0.0
 30
0.0
  0
VERTEX
  5
1E2
330
1E1
100
AcDbEntity
  8
Layer 1
 62
     5
420
      255
370
     5
100
AcDbVertex
100
AcDb2dVertex
 10
1.518006372134619
 20
20.28768563337589
 30
0.0
  0
VERTEX
  5
1E3
330
1E1
100
AcDbEntity
  8
Layer 1
 62
     5
420
      255
370
     5
100
AcDbVertex
100
AcDb2dVertex
 10
1.323955137397777
 20
20.13245956530112
 30
0.0
  0
SEQEND
  5
1E4
330
1E1
100
AcDbEntity
  8
Layer 1
370
     5
  0
POLYLINE
  5
1E5
330
1F
100
AcDbEntity
  8
Layer 1
 62
     5
420
      255
370
     5
100
AcDb2dPolyline
 66
     1
 10
0.0
 20
0.0
 30
0.0
  0
VERTEX
  5
1E6
330
1E5
100
AcDbEntity
  8
Layer 1
 62
     5
420
      255
370
     5
100
AcDbVertex
100
AcDb2dVertex
 10
1.323955137397777
 20
20.13245956530112
 30
0.0
  0
VERTEX
  5
1E7
330
1E5
100
AcDbEntity
  8
Layer 1
 62
     5
420
      255
370
     5
100
AcDbVertex
100
AcDb2dVertex
 10
1.518006372134619
 20
20.90861025074048
 30
0.0
  0
SEQEND
  5
1E8
330
1E5
100
AcDbEntity
  8
Layer 1
370
     5
  0
POLYLINE
  5
1E9
330
1F
100
AcDbEntity
  8
Layer 1
370
     0
100
AcDb2dPolyline
 66
     1
 10
0.0
 20
0.0
 30
0.0
  0
VERTEX
  5
1EA
330
1E9
100
AcDbEntity
  8
Layer 1
370
     0
100
AcDbVertex
100
AcDb2dVertex
 10
1.362766740682845
 20
20.28768563337589
 30
0.0
  0
VERTEX
  5
1EB
330
1E9
100
AcDbEntity
  8
Layer 1
370
     0
100
AcDbVertex
100
AcDb2dVertex
 10
1.673246003586393
 20
20.28768563337589
 30
0.0
  0
VERTEX
  5
1EC
330
1E9
100
AcDbEntity
  8
Layer 1
370
     0
100
AcDbVertex
100
AcDb2dVertex
 10
1.518006372134619
 20
20.90861025074048
 30
0.0
  0
SEQEND
  5
1ED
330
1E9
100
AcDbEntity
  8
Layer 1
370
     0
  0
HATCH
  5
1EE
330
1F
100
AcDbEntity
  8
Layer 1
 62
     5
420
      255
100
AcDbHatch
 10
0.0
 20
0.0
 30
0.0
210
0.0
220
0.0
230
1.0
  2
SOLID
 70
     1
 71
     0
 91
        1
 92
        1
 93
        3
 72
     1
 10
1.362766740682845
 20
20.28768563337589
 11
1.673246003586393
 21
20.28768563337589
 72
     1
 10
1.673246003586393
 20
20.28768563337589
 11
1.518006372134619
 21
20.90861025074048
 72
     1
 10
1.518006372134619
 20
20.90861025074048
 11
1.362766740682845
 21
20.28768563337589
 97
        0
 75
     2
 76
     1
 98
        0
  0
POLYLINE
  5
1EF
330
1F
100
AcDbEntity
  8
Layer 1
370
     0
100
AcDb2dPolyline
 66
     1
 10
0.0
 20
0.0
 30
0.0
  0
VERTEX
  5
1F0
330
1EF
100
AcDbEntity
  8
Layer 1
370
     0
100
AcDbVertex
100
AcDb2dVertex
 10
1.362766740682845
 20
20.28768563337589
 30
0.0
  0
VERTEX
  5
1F1
330
1EF
100
AcDbEntity
  8
Layer 1
370
     0
100
AcDbVertex
100
AcDb2dVertex
 10
1.673246003586393
 20
20.28768563337589
 30
0.0
  0
VERTEX
  5
1F2
330
1EF
100
AcDbEntity
  8
Layer 1
370
     0
100
AcDbVertex
100
AcDb2dVertex
 10
1.518006372134619
 20
20.90861025074048
 30
0.0
  0
SEQEND
  5
1F3
330
1EF
100
AcDbEntity
  8
Layer 1
370
     0
  0
POLYLINE
  5
1F4
330
1F
100
AcDbEntity
  8
Layer 1
370
     0
100
AcDb2dPolyline
 66
     1
 10
0.0
 20
0.0
 30
0.0
  0
VERTEX
  5
1F5
330
1F4
100
AcDbEntity
  8
Layer 1
370
     0
100
AcDbVertex
100
AcDb2dVertex
 10
1.712057606871461
 20
20.13245956530112
 30
0.0
  0
VERTEX
  5
1F6
330
1F4
100
AcDbEntity
  8
Layer 1
370
     0
100
AcDbVertex
100
AcDb2dVertex
 10
1.712057606871461
 20
20.13245956530112
 30
0.0
  0
VERTEX
  5
1F7
330
1F4
100
AcDbEntity
  8
Layer 1
370
     0
100
AcDbVertex
100
AcDb2dVertex
 10
1.673246003586393
 20
20.28768563337589
 30
0.0
  0
VERTEX
  5
1F8
330
1F4
100
AcDbEntity
  8
Layer 1
370
     0
100
AcDbVertex
100
AcDb2dVertex
 10
1.518006372134619
 20
20.28768563337589
 30
0.0
  0
SEQEND
  5
1F9
330
1F4
100
AcDbEntity
  8
Layer 1
370
     0
  0
HATCH
  5
1FA
330
1F
100
AcDbEntity
  8
Layer 1
 62
     5
420
      255
100
AcDbHatch
 10
0.0
 20
0.0
 30
0.0
210
0.0
220
0.0
230
1.0
  2
SOLID
 70
     1
 71
     0
 91
        1
 92
        1
 93
        3
 72
     1
 10
1.712057606871461
 20
20.13245956530112
 11
1.673246003586393
 21
20.28768563337589
 72
     1
 10
1.673246003586393
 20
20.28768563337589
 11
1.518006372134619
 21
20.28768563337589
 72
     1
 10
1.518006372134619
 20
20.28768563337589
 11
1.712057606871461
 21
20.13245956530112
 97
        0
 75
     2
 76
     1
 98
        0
  0
POLYLINE
  5
1FB
330
1F
100
AcDbEntity
  8
Layer 1
370
     0
100
AcDb2dPolyline
 66
     1
 10
0.0
 20
0.0
 30
0.0
  0
VERTEX
  5
1FC
330
1FB
100
AcDbEntity
  8
Layer 1
370
     0
100
AcDbVertex
100
AcDb2dVertex
 10
1.712057606871461
 20
20.13245956530112
 30
0.0
  0
VERTEX
  5
1FD
330
1FB
100
AcDbEntity
  8
Layer 1
370
     0
100
AcDbVertex
100
AcDb2dVertex
 10
1.712057606871461
 20
20.13245956530112
 30
0.0
  0
VERTEX
  5
1FE
330
1FB
100
AcDbEntity
  8
Layer 1
370
     0
100
AcDbVertex
100
AcDb2dVertex
 10
1.673246003586393
 20
20.28768563337589
 30
0.0
  0
VERTEX
  5
1FF
330
1FB
100
AcDbEntity
  8
Layer 1
370
     0
100
AcDbVertex
100
AcDb2dVertex
 10
1.518006372134619
 20
20.28768563337589
 30
0.0
  0
SEQEND
  5
200
330
1FB
100
AcDbEntity
  8
Layer 1
370
     0
  0
POLYLINE
  5
201
330
1F
100
AcDbEntity
  8
Layer 1
370
     0
100
AcDb2dPolyline
 66
     1
 10
0.0
 20
0.0
 30
0.0
  0
VERTEX
  5
202
330
201
100
AcDbEntity
  8
Layer 1
370
     0
100
AcDbVertex
100
AcDb2dVertex
 10
1.323955137397777
 20
20.13245956530112
 30
0.0
  0
VERTEX
  5
203
330
201
100
AcDbEntity
  8
Layer 1
370
     0
100
AcDbVertex
100
AcDb2dVertex
 10
1.323955137397777
 20
20.13245956530112
 30
0.0
  0
VERTEX
  5
204
330
201
100
AcDbEntity
  8
Layer 1
370
     0
100
AcDbVertex
100
AcDb2dVertex
 10
1.518006372134619
 20
20.28768563337589
 30
0.0
  0
VERTEX
  5
205
330
201
100
AcDbEntity
  8
Layer 1
370
     0
100
AcDbVertex
100
AcDb2dVertex
 10
1.362766740682845
 20
20.28768563337589
 30
0.0
  0
SEQEND
  5
206
330
201
100
AcDbEntity
  8
Layer 1
370
     0
  0
HATCH
  5
207
330
1F
100
AcDbEntity
  8
Layer 1
 62
     5
420
      255
100
AcDbHatch
 10
0.0
 20
0.0
 30
0.0
210
0.0
220
0.0
230
1.0
  2
SOLID
 70
     1
 71
     0
 91
        1
 92
        1
 93
        3
 72
     1
 10
1.323955137397777
 20
20.13245956530112
 11
1.518006372134619
 21
20.28768563337589
 72
     1
 10
1.518006372134619
 20
20.28768563337589
 11
1.362766740682845
 21
20.28768563337589
 72
     1
 10
1.362766740682845
 20
20.28768563337589
 11
1.323955137397777
 21
20.13245956530112
 97
        0
 75
     2
 76
     1
 98
        0
  0
POLYLINE
  5
208
330
1F
100
AcDbEntity
  8
Layer 1
370
     0
100
AcDb2dPolyline
 66
     1
 10
0.0
 20
0.0
 30
0.0
  0
VERTEX
  5
209
330
208
100
AcDbEntity
  8
Layer 1
370
     0
100
AcDbVertex
100
AcDb2dVertex
 10
1.323955137397777
 20
20.13245956530112
 30
0.0
  0
VERTEX
  5
20A
330
208
100
AcDbEntity
  8
Layer 1
370
     0
100
AcDbVertex
100
AcDb2dVertex
 10
1.323955137397777
 20
20.13245956530112
 30
0.0
  0
VERTEX
  5
20B
330
208
100
AcDbEntity
  8
Layer 1
370
     0
100
AcDbVertex
100
AcDb2dVertex
 10
1.518006372134619
 20
20.28768563337589
 30
0.0
  0
VERTEX
  5
20C
330
208
100
AcDbEntity
  8
Layer 1
370
     0
100
AcDbVertex
100
AcDb2dVertex
 10
1.362766740682845
 20
20.28768563337589
 30
0.0
  0
SEQEND
  5
20D
330
208
100
AcDbEntity
  8
Layer 1
370
     0
  0
POLYLINE
  5
20E
330
1F
100
AcDbEntity
  8
Layer 1
 62
     5
420
      255
370
     5
100
AcDb2dPolyline
 66
     1
 10
0.0
 20
0.0
 30
0.0
  0
VERTEX
  5
20F
330
20E
100
AcDbEntity
  8
Layer 1
 62
     5
420
      255
370
     5
100
AcDbVertex
100
AcDb2dVertex
 10
1.518006372134619
 20
20.90861025074048
 30
0.0
  0
VERTEX
  5
210
330
20E
100
AcDbEntity
  8
Layer 1
 62
     5
420
      255
370
     5
100
AcDbVertex
100
AcDb2dVertex
 10
1.518006372134619
 20
15.65808459864037
 30
0.0
  0
SEQEND
  5
211
330
20E
100
AcDbEntity
  8
Layer 1
370
     5
  0
POLYLINE
  5
212
330
1F
100
AcDbEntity
  8
Layer 1
 62
     5
420
      255
370
     5
100
AcDb2dPolyline
 66
     1
 10
0.0
 20
0.0
 30
0.0
  0
VERTEX
  5
213
330
212
100
AcDbEntity
  8
Layer 1
 62
     5
420
      255
370
     5
100
AcDbVertex
100
AcDb2dVertex
 10
1.518006372134619
 20
8.596536159389402
 30
0.0
  0
VERTEX
  5
214
330
212
100
AcDbEntity
  8
Layer 1
 62
     5
420
      255
370
     5
100
AcDbVertex
100
AcDb2dVertex
 10
1.323955137397777
 20
9.37268684482877
 30
0.0
  0
SEQEND
  5
215
330
212
100
AcDbEntity
  8
Layer 1
370
     5
  0
POLYLINE
  5
216
330
1F
100
AcDbEntity
  8
Layer 1
 62
     5
420
      255
370
     5
100
AcDb2dPolyline
 66
     1
 10
0.0
 20
0.0
 30
0.0
  0
VERTEX
  5
217
330
216
100
AcDbEntity
  8
Layer 1
 62
     5
420
      255
370
     5
100
AcDbVertex
100
AcDb2dVertex
 10
1.323955137397777
 20
9.37268684482877
 30
0.0
  0
VERTEX
  5
218
330
216
100
AcDbEntity
  8
Layer 1
 62
     5
420
      255
370
     5
100
AcDbVertex
100
AcDb2dVertex
 10
1.518006372134619
 20
9.217453995065496
 30
0.0
  0
SEQEND
  5
219
330
216
100
AcDbEntity
  8
Layer 1
370
     5
  0
POLYLINE
  5
21A
330
1F
100
AcDbEntity
  8
Layer 1
 62
     5
420
      255
370
     5
100
AcDb2dPolyline
 66
     1
 10
0.0
 20
0.0
 30
0.0
  0
VERTEX
  5
21B
330
21A
100
AcDbEntity
  8
Layer 1
 62
     5
420
      255
370
     5
100
AcDbVertex
100
AcDb2dVertex
 10
1.518006372134619
 20
9.217453995065496
 30
0.0
  0
VERTEX
  5
21C
330
21A
100
AcDbEntity
  8
Layer 1
 62
     5
420
      255
370
     5
100
AcDbVertex
100
AcDb2dVertex
 10
1.712057606871461
 20
9.37268684482877
 30
0.0
  0
SEQEND
  5
21D
330
21A
100
AcDbEntity
  8
Layer 1
370
     5
  0
POLYLINE
  5
21E
330
1F
100
AcDbEntity
  8
Layer 1
 62
     5
420
      255
370
     5
100
AcDb2dPolyline
 66
     1
 10
0.0
 20
0.0
 30
0.0
  0
VERTEX
  5
21F
330
21E
100
AcDbEntity
  8
Layer 1
 62
     5
420
      255
370
     5
100
AcDbVertex
100
AcDb2dVertex
 10
1.712057606871461
 20
9.37268684482877
 30
0.0
  0
VERTEX
  5
220
330
21E
100
AcDbEntity
  8
Layer 1
 62
     5
420
      255
370
     5
100
AcDbVertex
100
AcDb2dVertex
 10
1.518006372134619
 20
8.596536159389402
 30
0.0
  0
SEQEND
  5
221
330
21E
100
AcDbEntity
  8
Layer 1
370
     5
  0
POLYLINE
  5
222
330
1F
100
AcDbEntity
  8
Layer 1
370
     0
100
AcDb2dPolyline
 66
     1
 10
0.0
 20
0.0
 30
0.0
  0
VERTEX
  5
223
330
222
100
AcDbEntity
  8
Layer 1
370
     0
100
AcDbVertex
100
AcDb2dVertex
 10
1.518006372134619
 20
9.217453995065496
 30
0.0
  0
VERTEX
  5
224
330
222
100
AcDbEntity
  8
Layer 1
370
     0
100
AcDbVertex
100
AcDb2dVertex
 10
1.673246003586393
 20
9.217453995065496
 30
0.0
  0
VERTEX
  5
225
330
222
100
AcDbEntity
  8
Layer 1
370
     0
100
AcDbVertex
100
AcDb2dVertex
 10
1.712057606871461
 20
9.37268684482877
 30
0.0
  0
SEQEND
  5
226
330
222
100
AcDbEntity
  8
Layer 1
370
     0
  0
HATCH
  5
227
330
1F
100
AcDbEntity
  8
Layer 1
 62
     5
420
      255
100
AcDbHatch
 10
0.0
 20
0.0
 30
0.0
210
0.0
220
0.0
230
1.0
  2
SOLID
 70
     1
 71
     0
 91
        1
 92
        1
 93
        3
 72
     1
 10
1.518006372134619
 20
9.217453995065496
 11
1.673246003586393
 21
9.217453995065496
 72
     1
 10
1.673246003586393
 20
9.217453995065496
 11
1.712057606871461
 21
9.37268684482877
 72
     1
 10
1.712057606871461
 20
9.37268684482877
 11
1.518006372134619
 21
9.217453995065496
 97
        0
 75
     2
 76
     1
 98
        0
  0
POLYLINE
  5
228
330
1F
100
AcDbEntity
  8
Layer 1
370
     0
100
AcDb2dPolyline
 66
     1
 10
0.0
 20
0.0
 30
0.0
  0
VERTEX
  5
229
330
228
100
AcDbEntity
  8
Layer 1
370
     0
100
AcDbVertex
100
AcDb2dVertex
 10
1.518006372134619
 20
9.217453995065496
 30
0.0
  0
VERTEX
  5
22A
330
228
100
AcDbEntity
  8
Layer 1
370
     0
100
AcDbVertex
100
AcDb2dVertex
 10
1.673246003586393
 20
9.217453995065496
 30
0.0
  0
VERTEX
  5
22B
330
228
100
AcDbEntity
  8
Layer 1
370
     0
100
AcDbVertex
100
AcDb2dVertex
 10
1.712057606871461
 20
9.37268684482877
 30
0.0
  0
SEQEND
  5
22C
330
228
100
AcDbEntity
  8
Layer 1
370
     0
  0
POLYLINE
  5
22D
330
1F
100
AcDbEntity
  8
Layer 1
370
     0
100
AcDb2dPolyline
 66
     1
 10
0.0
 20
0.0
 30
0.0
  0
VERTEX
  5
22E
330
22D
100
AcDbEntity
  8
Layer 1
370
     0
100
AcDbVertex
100
AcDb2dVertex
 10
1.362766740682845
 20
9.217453995065496
 30
0.0
  0
VERTEX
  5
22F
330
22D
100
AcDbEntity
  8
Layer 1
370
     0
100
AcDbVertex
100
AcDb2dVertex
 10
1.518006372134619
 20
9.217453995065496
 30
0.0
  0
VERTEX
  5
230
330
22D
100
AcDbEntity
  8
Layer 1
370
     0
100
AcDbVertex
100
AcDb2dVertex
 10
1.323955137397777
 20
9.37268684482877
 30
0.0
  0
SEQEND
  5
231
330
22D
100
AcDbEntity
  8
Layer 1
370
     0
  0
HATCH
  5
232
330
1F
100
AcDbEntity
  8
Layer 1
 62
     5
420
      255
100
AcDbHatch
 10
0.0
 20
0.0
 30
0.0
210
0.0
220
0.0
230
1.0
  2
SOLID
 70
     1
 71
     0
 91
        1
 92
        1
 93
        3
 72
     1
 10
1.362766740682845
 20
9.217453995065496
 11
1.518006372134619
 21
9.217453995065496
 72
     1
 10
1.518006372134619
 20
9.217453995065496
 11
1.323955137397777
 21
9.37268684482877
 72
     1
 10
1.323955137397777
 20
9.37268684482877
 11
1.362766740682845
 21
9.217453995065496
 97
        0
 75
     2
 76
     1
 98
        0
  0
POLYLINE
  5
233
330
1F
100
AcDbEntity
  8
Layer 1
370
     0
100
AcDb2dPolyline
 66
     1
 10
0.0
 20
0.0
 30
0.0
  0
VERTEX
  5
234
330
233
100
AcDbEntity
  8
Layer 1
370
     0
100
AcDbVertex
100
AcDb2dVertex
 10
1.362766740682845
 20
9.217453995065496
 30
0.0
  0
VERTEX
  5
235
330
233
100
AcDbEntity
  8
Layer 1
370
     0
100
AcDbVertex
100
AcDb2dVertex
 10
1.518006372134619
 20
9.217453995065496
 30
0.0
  0
VERTEX
  5
236
330
233
100
AcDbEntity
  8
Layer 1
370
     0
100
AcDbVertex
100
AcDb2dVertex
 10
1.323955137397777
 20
9.37268684482877
 30
0.0
  0
SEQEND
  5
237
330
233
100
AcDbEntity
  8
Layer 1
370
     0
  0
POLYLINE
  5
238
330
1F
100
AcDbEntity
  8
Layer 1
370
     0
100
AcDb2dPolyline
 66
     1
 10
0.0
 20
0.0
 30
0.0
  0
VERTEX
  5
239
330
238
100
AcDbEntity
  8
Layer 1
370
     0
100
AcDbVertex
100
AcDb2dVertex
 10
1.518006372134619
 20
8.596536159389402
 30
0.0
  0
VERTEX
  5
23A
330
238
100
AcDbEntity
  8
Layer 1
370
     0
100
AcDbVertex
100
AcDb2dVertex
 10
1.518006372134619
 20
8.596536159389402
 30
0.0
  0
VERTEX
  5
23B
330
238
100
AcDbEntity
  8
Layer 1
370
     0
100
AcDbVertex
100
AcDb2dVertex
 10
1.673246003586393
 20
9.217453995065496
 30
0.0
  0
VERTEX
  5
23C
330
238
100
AcDbEntity
  8
Layer 1
370
     0
100
AcDbVertex
100
AcDb2dVertex
 10
1.362766740682845
 20
9.217453995065496
 30
0.0
  0
SEQEND
  5
23D
330
238
100
AcDbEntity
  8
Layer 1
370
     0
  0
HATCH
  5
23E
330
1F
100
AcDbEntity
  8
Layer 1
 62
     5
420
      255
100
AcDbHatch
 10
0.0
 20
0.0
 30
0.0
210
0.0
220
0.0
230
1.0
  2
SOLID
 70
     1
 71
     0
 91
        1
 92
        1
 93
        3
 72
     1
 10
1.518006372134619
 20
8.596536159389402
 11
1.673246003586393
 21
9.217453995065496
 72
     1
 10
1.673246003586393
 20
9.217453995065496
 11
1.362766740682845
 21
9.217453995065496
 72
     1
 10
1.362766740682845
 20
9.217453995065496
 11
1.518006372134619
 21
8.596536159389402
 97
        0
 75
     2
 76
     1
 98
        0
  0
POLYLINE
  5
23F
330
1F
100
AcDbEntity
  8
Layer 1
370
     0
100
AcDb2dPolyline
 66
     1
 10
0.0
 20
0.0
 30
0.0
  0
VERTEX
  5
240
330
23F
100
AcDbEntity
  8
Layer 1
370
     0
100
AcDbVertex
100
AcDb2dVertex
 10
1.518006372134619
 20
8.596536159389402
 30
0.0
  0
VERTEX
  5
241
330
23F
100
AcDbEntity
  8
Layer 1
370
     0
100
AcDbVertex
100
AcDb2dVertex
 10
1.518006372134619
 20
8.596536159389402
 30
0.0
  0
VERTEX
  5
242
330
23F
100
AcDbEntity
  8
Layer 1
370
     0
100
AcDbVertex
100
AcDb2dVertex
 10
1.673246003586393
 20
9.217453995065496
 30
0.0
  0
VERTEX
  5
243
330
23F
100
AcDbEntity
  8
Layer 1
370
     0
100
AcDbVertex
100
AcDb2dVertex
 10
1.362766740682845
 20
9.217453995065496
 30
0.0
  0
SEQEND
  5
244
330
23F
100
AcDbEntity
  8
Layer 1
370
     0
  0
POLYLINE
  5
245
330
1F
100
AcDbEntity
  8
Layer 1
 62
     5
420
      255
370
     5
100
AcDb2dPolyline
 66
     1
 10
0.0
 20
0.0
 30
0.0
  0
VERTEX
  5
246
330
245
100
AcDbEntity
  8
Layer 1
 62
     5
420
      255
370
     5
100
AcDbVertex
100
AcDb2dVertex
 10
1.518006372134619
 20
8.596536159389402
 30
0.0
  0
VERTEX
  5
247
330
245
100
AcDbEntity
  8
Layer 1
 62
     5
420
      255
370
     5
100
AcDbVertex
100
AcDb2dVertex
 10
1.518006372134619
 20
13.84705502980101
 30
0.0
  0
SEQEND
  5
248
330
245
100
AcDbEntity
  8
Layer 1
370
     5
  0
MTEXT
  5
249
330
1F
100
AcDbEntity
  8
Layer 1
 62
     5
420
      255
100
AcDbMText
 10
0.3554215125925475
 20
14.43215198682051
 30
0.0
 40
0.6062277828573109
 41
0.0
 71
     7
 72
     1
  1
\fArial|b0|i0|c0|p34;\W1;1
 73
     1
 44
1.0
  0
MTEXT
  5
24A
330
1F
100
AcDbEntity
  8
Layer 1
 62
     5
420
      255
100
AcDbMText
 10
0.8618915731439153
 20
14.43215198682051
 30
0.0
 40
0.6062277828573109
 41
0.0
 71
     7
 72
     1
  1
\fArial|b0|i0|c0|p34;\W1;2
 73
     1
 44
1.0
  0
MTEXT
  5
24B
330
1F
100
AcDbEntity
  8
Layer 1
 62
     5
420
      255
100
AcDbMText
 10
1.368368415383783
 20
14.6305841923283
 30
0.0
 40
0.6062277828573109
 41
0.0
 71
     7
 72
     1
  1
\fArial|b0|i0|c0|p34;\W1;5
 73
     1
 44
1.0
  0
POLYLINE
  5
24C
330
1F
100
AcDbEntity
  8
Layer 1
 62
     5
420
      255
370
    13
100
AcDb2dPolyline
 66
     1
 10
0.0
 20
0.0
 30
0.0
  0
VERTEX
  5
24D
330
24C
100
AcDbEntity
  8
Layer 1
 62
     5
420
      255
370
    13
100
AcDbVertex
100
AcDb2dVertex
 10
1.652704269120121
 20
14.43516305651447
 30
0.0
  0
VERTEX
  5
24E
330
24C
100
AcDbEntity
  8
Layer 1
 62
     5
420
      255
370
    13
100
AcDbVertex
100
AcDb2dVertex
 10
2.04662542732674
 20
15.27331193822015
 30
0.0
  0
SEQEND
  5
24F
330
24C
100
AcDbEntity
  8
Layer 1
370
    13
  0
MTEXT
  5
250
330
1F
100
AcDbEntity
  8
Layer 1
 62
     5
420
      255
100
AcDbMText
 10
1.939996939042426
 20
14.43215198682051
 30
0.0
 40
0.6062277828573109
 41
0.0
 71
     7
 72
     1
  1
\fArial|b0|i0|c0|p34;\W1;1
 73
     1
 44
1.0
  0
MTEXT
  5
251
330
1F
100
AcDbEntity
  8
Layer 1
 62
     5
420
      255
100
AcDbMText
 10
2.313193257193276
 20
14.43215198682051
 30
0.0
 40
0.6062277828573109
 41
0.0
 71
     7
 72
     1
  1
\fArial|b0|i0|c0|p34;\W1;6
 73
     1
 44
1.0
  0
POLYLINE
  5
252
330
1F
100
AcDbEntity
  8
Layer 1
 62
     5
420
      255
370
     5
100
AcDb2dPolyline
 66
     1
 10
0.0
 20
0.0
 30
0.0
  0
VERTEX
  5
253
330
252
100
AcDbEntity
  8
Layer 1
 62
     5
420
      255
370
     5
100
AcDbVertex
100
AcDb2dVertex
 10
5.105777292757721
 20
2.471735570944513
 30
0.0
  0
VERTEX
  5
254
330
252
100
AcDbEntity
  8
Layer 1
 62
     5
420
      255
370
     5
100
AcDbVertex
100
AcDb2dVertex
 10
1.207527109231072
 20
2.471735570944513
 30
0.0
  0
SEQEND
  5
255
330
252
100
AcDbEntity
  8
Layer 1
370
     5
  0
POLYLINE
  5
256
330
1F
100
AcDbEntity
  8
Layer 1
 62
     5
420
      255
370
     5
100
AcDb2dPolyline
 66
     1
 10
0.0
 20
0.0
 30
0.0
  0
VERTEX
  5
257
330
256
100
AcDbEntity
  8
Layer 1
 62
     5
420
      255
370
     5
100
AcDbVertex
100
AcDb2dVertex
 10
7.847674988473729
 20
8.596536159389402
 30
0.0
  0
VERTEX
  5
258
330
256
100
AcDbEntity
  8
Layer 1
 62
     5
420
      255
370
     5
100
AcDbVertex
100
AcDb2dVertex
 10
1.207527109231072
 20
8.596536159389402
 30
0.0
  0
SEQEND
  5
259
330
256
100
AcDbEntity
  8
Layer 1
370
     5
  0
POLYLINE
  5
25A
330
1F
100
AcDbEntity
  8
Layer 1
 62
     5
420
      255
370
     5
100
AcDb2dPolyline
 66
     1
 10
0.0
 20
0.0
 30
0.0
  0
VERTEX
  5
25B
330
25A
100
AcDbEntity
  8
Layer 1
 62
     5
420
      255
370
     5
100
AcDbVertex
100
AcDb2dVertex
 10
1.518006372134619
 20
8.596536159389402
 30
0.0
  0
VERTEX
  5
25C
330
25A
100
AcDbEntity
  8
Layer 1
 62
     5
420
      255
370
     5
100
AcDbVertex
100
AcDb2dVertex
 10
1.712057606871461
 20
7.820371910573033
 30
0.0
  0
SEQEND
  5
25D
330
25A
100
AcDbEntity
  8
Layer 1
370
     5
  0
POLYLINE
  5
25E
330
1F
100
AcDbEntity
  8
Layer 1
 62
     5
420
      255
370
     5
100
AcDb2dPolyline
 66
     1
 10
0.0
 20
0.0
 30
0.0
  0
VERTEX
  5
25F
330
25E
100
AcDbEntity
  8
Layer 1
 62
     5
420
      255
370
     5
100
AcDbVertex
100
AcDb2dVertex
 10
1.712057606871461
 20
7.820371910573033
 30
0.0
  0
VERTEX
  5
260
330
25E
100
AcDbEntity
  8
Layer 1
 62
     5
420
      255
370
     5
100
AcDbVertex
100
AcDb2dVertex
 10
1.518006372134619
 20
7.975604760336306
 30
0.0
  0
SEQEND
  5
261
330
25E
100
AcDbEntity
  8
Layer 1
370
     5
  0
POLYLINE
  5
262
330
1F
100
AcDbEntity
  8
Layer 1
 62
     5
420
      255
370
     5
100
AcDb2dPolyline
 66
     1
 10
0.0
 20
0.0
 30
0.0
  0
VERTEX
  5
263
330
262
100
AcDbEntity
  8
Layer 1
 62
     5
420
      255
370
     5
100
AcDbVertex
100
AcDb2dVertex
 10
1.518006372134619
 20
7.975604760336306
 30
0.0
  0
VERTEX
  5
264
330
262
100
AcDbEntity
  8
Layer 1
 62
     5
420
      255
370
     5
100
AcDbVertex
100
AcDb2dVertex
 10
1.323955137397777
 20
7.820371910573033
 30
0.0
  0
SEQEND
  5
265
330
262
100
AcDbEntity
  8
Layer 1
370
     5
  0
POLYLINE
  5
266
330
1F
100
AcDbEntity
  8
Layer 1
 62
     5
420
      255
370
     5
100
AcDb2dPolyline
 66
     1
 10
0.0
 20
0.0
 30
0.0
  0
VERTEX
  5
267
330
266
100
AcDbEntity
  8
Layer 1
 62
     5
420
      255
370
     5
100
AcDbVertex
100
AcDb2dVertex
 10
1.323955137397777
 20
7.820371910573033
 30
0.0
  0
VERTEX
  5
268
330
266
100
AcDbEntity
  8
Layer 1
 62
     5
420
      255
370
     5
100
AcDbVertex
100
AcDb2dVertex
 10
1.518006372134619
 20
8.596536159389402
 30
0.0
  0
SEQEND
  5
269
330
266
100
AcDbEntity
  8
Layer 1
370
     5
  0
POLYLINE
  5
26A
330
1F
100
AcDbEntity
  8
Layer 1
370
     0
100
AcDb2dPolyline
 66
     1
 10
0.0
 20
0.0
 30
0.0
  0
VERTEX
  5
26B
330
26A
100
AcDbEntity
  8
Layer 1
370
     0
100
AcDbVertex
100
AcDb2dVertex
 10
1.362766740682845
 20
7.975604760336306
 30
0.0
  0
VERTEX
  5
26C
330
26A
100
AcDbEntity
  8
Layer 1
370
     0
100
AcDbVertex
100
AcDb2dVertex
 10
1.673246003586393
 20
7.975604760336306
 30
0.0
  0
VERTEX
  5
26D
330
26A
100
AcDbEntity
  8
Layer 1
370
     0
100
AcDbVertex
100
AcDb2dVertex
 10
1.518006372134619
 20
8.596536159389402
 30
0.0
  0
SEQEND
  5
26E
330
26A
100
AcDbEntity
  8
Layer 1
370
     0
  0
HATCH
  5
26F
330
1F
100
AcDbEntity
  8
Layer 1
 62
     5
420
      255
100
AcDbHatch
 10
0.0
 20
0.0
 30
0.0
210
0.0
220
0.0
230
1.0
  2
SOLID
 70
     1
 71
     0
 91
        1
 92
        1
 93
        3
 72
     1
 10
1.362766740682845
 20
7.975604760336306
 11
1.673246003586393
 21
7.975604760336306
 72
     1
 10
1.673246003586393
 20
7.975604760336306
 11
1.518006372134619
 21
8.596536159389402
 72
     1
 10
1.518006372134619
 20
8.596536159389402
 11
1.362766740682845
 21
7.975604760336306
 97
        0
 75
     2
 76
     1
 98
        0
  0
POLYLINE
  5
270
330
1F
100
AcDbEntity
  8
Layer 1
370
     0
100
AcDb2dPolyline
 66
     1
 10
0.0
 20
0.0
 30
0.0
  0
VERTEX
  5
271
330
270
100
AcDbEntity
  8
Layer 1
370
     0
100
AcDbVertex
100
AcDb2dVertex
 10
1.362766740682845
 20
7.975604760336306
 30
0.0
  0
VERTEX
  5
272
330
270
100
AcDbEntity
  8
Layer 1
370
     0
100
AcDbVertex
100
AcDb2dVertex
 10
1.673246003586393
 20
7.975604760336306
 30
0.0
  0
VERTEX
  5
273
330
270
100
AcDbEntity
  8
Layer 1
370
     0
100
AcDbVertex
100
AcDb2dVertex
 10
1.518006372134619
 20
8.596536159389402
 30
0.0
  0
SEQEND
  5
274
330
270
100
AcDbEntity
  8
Layer 1
370
     0
  0
POLYLINE
  5
275
330
1F
100
AcDbEntity
  8
Layer 1
370
     0
100
AcDb2dPolyline
 66
     1
 10
0.0
 20
0.0
 30
0.0
  0
VERTEX
  5
276
330
275
100
AcDbEntity
  8
Layer 1
370
     0
100
AcDbVertex
100
AcDb2dVertex
 10
1.712057606871461
 20
7.820371910573033
 30
0.0
  0
VERTEX
  5
277
330
275
100
AcDbEntity
  8
Layer 1
370
     0
100
AcDbVertex
100
AcDb2dVertex
 10
1.712057606871461
 20
7.820371910573033
 30
0.0
  0
VERTEX
  5
278
330
275
100
AcDbEntity
  8
Layer 1
370
     0
100
AcDbVertex
100
AcDb2dVertex
 10
1.673246003586393
 20
7.975604760336306
 30
0.0
  0
VERTEX
  5
279
330
275
100
AcDbEntity
  8
Layer 1
370
     0
100
AcDbVertex
100
AcDb2dVertex
 10
1.518006372134619
 20
7.975604760336306
 30
0.0
  0
SEQEND
  5
27A
330
275
100
AcDbEntity
  8
Layer 1
370
     0
  0
HATCH
  5
27B
330
1F
100
AcDbEntity
  8
Layer 1
 62
     5
420
      255
100
AcDbHatch
 10
0.0
 20
0.0
 30
0.0
210
0.0
220
0.0
230
1.0
  2
SOLID
 70
     1
 71
     0
 91
        1
 92
        1
 93
        3
 72
     1
 10
1.712057606871461
 20
7.820371910573033
 11
1.673246003586393
 21
7.975604760336306
 72
     1
 10
1.673246003586393
 20
7.975604760336306
 11
1.518006372134619
 21
7.975604760336306
 72
     1
 10
1.518006372134619
 20
7.975604760336306
 11
1.712057606871461
 21
7.820371910573033
 97
        0
 75
     2
 76
     1
 98
        0
  0
POLYLINE
  5
27C
330
1F
100
AcDbEntity
  8
Layer 1
370
     0
100
AcDb2dPolyline
 66
     1
 10
0.0
 20
0.0
 30
0.0
  0
VERTEX
  5
27D
330
27C
100
AcDbEntity
  8
Layer 1
370
     0
100
AcDbVertex
100
AcDb2dVertex
 10
1.712057606871461
 20
7.820371910573033
 30
0.0
  0
VERTEX
  5
27E
330
27C
100
AcDbEntity
  8
Layer 1
370
     0
100
AcDbVertex
100
AcDb2dVertex
 10
1.712057606871461
 20
7.820371910573033
 30
0.0
  0
VERTEX
  5
27F
330
27C
100
AcDbEntity
  8
Layer 1
370
     0
100
AcDbVertex
100
AcDb2dVertex
 10
1.673246003586393
 20
7.975604760336306
 30
0.0
  0
VERTEX
  5
280
330
27C
100
AcDbEntity
  8
Layer 1
370
     0
100
AcDbVertex
100
AcDb2dVertex
 10
1.518006372134619
 20
7.975604760336306
 30
0.0
  0
SEQEND
  5
281
330
27C
100
AcDbEntity
  8
Layer 1
370
     0
  0
POLYLINE
  5
282
330
1F
100
AcDbEntity
  8
Layer 1
370
     0
100
AcDb2dPolyline
 66
     1
 10
0.0
 20
0.0
 30
0.0
  0
VERTEX
  5
283
330
282
100
AcDbEntity
  8
Layer 1
370
     0
100
AcDbVertex
100
AcDb2dVertex
 10
1.323955137397777
 20
7.820371910573033
 30
0.0
  0
VERTEX
  5
284
330
282
100
AcDbEntity
  8
Layer 1
370
     0
100
AcDbVertex
100
AcDb2dVertex
 10
1.323955137397777
 20
7.820371910573033
 30
0.0
  0
VERTEX
  5
285
330
282
100
AcDbEntity
  8
Layer 1
370
     0
100
AcDbVertex
100
AcDb2dVertex
 10
1.518006372134619
 20
7.975604760336306
 30
0.0
  0
VERTEX
  5
286
330
282
100
AcDbEntity
  8
Layer 1
370
     0
100
AcDbVertex
100
AcDb2dVertex
 10
1.362766740682845
 20
7.975604760336306
 30
0.0
  0
SEQEND
  5
287
330
282
100
AcDbEntity
  8
Layer 1
370
     0
  0
HATCH
  5
288
330
1F
100
AcDbEntity
  8
Layer 1
 62
     5
420
      255
100
AcDbHatch
 10
0.0
 20
0.0
 30
0.0
210
0.0
220
0.0
230
1.0
  2
SOLID
 70
     1
 71
     0
 91
        1
 92
        1
 93
        3
 72
     1
 10
1.323955137397777
 20
7.820371910573033
 11
1.518006372134619
 21
7.975604760336306
 72
     1
 10
1.518006372134619
 20
7.975604760336306
 11
1.362766740682845
 21
7.975604760336306
 72
     1
 10
1.362766740682845
 20
7.975604760336306
 11
1.323955137397777
 21
7.820371910573033
 97
        0
 75
     2
 76
     1
 98
        0
  0
POLYLINE
  5
289
330
1F
100
AcDbEntity
  8
Layer 1
370
     0
100
AcDb2dPolyline
 66
     1
 10
0.0
 20
0.0
 30
0.0
  0
VERTEX
  5
28A
330
289
100
AcDbEntity
  8
Layer 1
370
     0
100
AcDbVertex
100
AcDb2dVertex
 10
1.323955137397777
 20
7.820371910573033
 30
0.0
  0
VERTEX
  5
28B
330
289
100
AcDbEntity
  8
Layer 1
370
     0
100
AcDbVertex
100
AcDb2dVertex
 10
1.323955137397777
 20
7.820371910573033
 30
0.0
  0
VERTEX
  5
28C
330
289
100
AcDbEntity
  8
Layer 1
370
     0
100
AcDbVertex
100
AcDb2dVertex
 10
1.518006372134619
 20
7.975604760336306
 30
0.0
  0
VERTEX
  5
28D
330
289
100
AcDbEntity
  8
Layer 1
370
     0
100
AcDbVertex
100
AcDb2dVertex
 10
1.362766740682845
 20
7.975604760336306
 30
0.0
  0
SEQEND
  5
28E
330
289
100
AcDbEntity
  8
Layer 1
370
     0
  0
POLYLINE
  5
28F
330
1F
100
AcDbEntity
  8
Layer 1
 62
     5
420
      255
370
     5
100
AcDb2dPolyline
 66
     1
 10
0.0
 20
0.0
 30
0.0
  0
VERTEX
  5
290
330
28F
100
AcDbEntity
  8
Layer 1
 62
     5
420
      255
370
     5
100
AcDbVertex
100
AcDb2dVertex
 10
1.518006372134619
 20
8.596536159389402
 30
0.0
  0
VERTEX
  5
291
330
28F
100
AcDbEntity
  8
Layer 1
 62
     5
420
      255
370
     5
100
AcDbVertex
100
AcDb2dVertex
 10
1.518006372134619
 20
6.439647258742387
 30
0.0
  0
SEQEND
  5
292
330
28F
100
AcDbEntity
  8
Layer 1
370
     5
  0
POLYLINE
  5
293
330
1F
100
AcDbEntity
  8
Layer 1
 62
     5
420
      255
370
     5
100
AcDb2dPolyline
 66
     1
 10
0.0
 20
0.0
 30
0.0
  0
VERTEX
  5
294
330
293
100
AcDbEntity
  8
Layer 1
 62
     5
420
      255
370
     5
100
AcDbVertex
100
AcDb2dVertex
 10
1.518006372134619
 20
2.471735570944513
 30
0.0
  0
VERTEX
  5
295
330
293
100
AcDbEntity
  8
Layer 1
 62
     5
420
      255
370
     5
100
AcDbVertex
100
AcDb2dVertex
 10
1.323955137397777
 20
3.247899819760881
 30
0.0
  0
SEQEND
  5
296
330
293
100
AcDbEntity
  8
Layer 1
370
     5
  0
POLYLINE
  5
297
330
1F
100
AcDbEntity
  8
Layer 1
 62
     5
420
      255
370
     5
100
AcDb2dPolyline
 66
     1
 10
0.0
 20
0.0
 30
0.0
  0
VERTEX
  5
298
330
297
100
AcDbEntity
  8
Layer 1
 62
     5
420
      255
370
     5
100
AcDbVertex
100
AcDb2dVertex
 10
1.323955137397777
 20
3.247899819760881
 30
0.0
  0
VERTEX
  5
299
330
297
100
AcDbEntity
  8
Layer 1
 62
     5
420
      255
370
     5
100
AcDbVertex
100
AcDb2dVertex
 10
1.518006372134619
 20
3.092666969997607
 30
0.0
  0
SEQEND
  5
29A
330
297
100
AcDbEntity
  8
Layer 1
370
     5
  0
POLYLINE
  5
29B
330
1F
100
AcDbEntity
  8
Layer 1
 62
     5
420
      255
370
     5
100
AcDb2dPolyline
 66
     1
 10
0.0
 20
0.0
 30
0.0
  0
VERTEX
  5
29C
330
29B
100
AcDbEntity
  8
Layer 1
 62
     5
420
      255
370
     5
100
AcDbVertex
100
AcDb2dVertex
 10
1.518006372134619
 20
3.092666969997607
 30
0.0
  0
VERTEX
  5
29D
330
29B
100
AcDbEntity
  8
Layer 1
 62
     5
420
      255
370
     5
100
AcDbVertex
100
AcDb2dVertex
 10
1.712057606871461
 20
3.247899819760881
 30
0.0
  0
SEQEND
  5
29E
330
29B
100
AcDbEntity
  8
Layer 1
370
     5
  0
POLYLINE
  5
29F
330
1F
100
AcDbEntity
  8
Layer 1
 62
     5
420
      255
370
     5
100
AcDb2dPolyline
 66
     1
 10
0.0
 20
0.0
 30
0.0
  0
VERTEX
  5
2A0
330
29F
100
AcDbEntity
  8
Layer 1
 62
     5
420
      255
370
     5
100
AcDbVertex
100
AcDb2dVertex
 10
1.712057606871461
 20
3.247899819760881
 30
0.0
  0
VERTEX
  5
2A1
330
29F
100
AcDbEntity
  8
Layer 1
 62
     5
420
      255
370
     5
100
AcDbVertex
100
AcDb2dVertex
 10
1.518006372134619
 20
2.471735570944513
 30
0.0
  0
SEQEND
  5
2A2
330
29F
100
AcDbEntity
  8
Layer 1
370
     5
  0
POLYLINE
  5
2A3
330
1F
100
AcDbEntity
  8
Layer 1
370
     0
100
AcDb2dPolyline
 66
     1
 10
0.0
 20
0.0
 30
0.0
  0
VERTEX
  5
2A4
330
2A3
100
AcDbEntity
  8
Layer 1
370
     0
100
AcDbVertex
100
AcDb2dVertex
 10
1.518006372134619
 20
3.092666969997607
 30
0.0
  0
VERTEX
  5
2A5
330
2A3
100
AcDbEntity
  8
Layer 1
370
     0
100
AcDbVertex
100
AcDb2dVertex
 10
1.673246003586393
 20
3.092666969997607
 30
0.0
  0
VERTEX
  5
2A6
330
2A3
100
AcDbEntity
  8
Layer 1
370
     0
100
AcDbVertex
100
AcDb2dVertex
 10
1.712057606871461
 20
3.247899819760881
 30
0.0
  0
SEQEND
  5
2A7
330
2A3
100
AcDbEntity
  8
Layer 1
370
     0
  0
HATCH
  5
2A8
330
1F
100
AcDbEntity
  8
Layer 1
 62
     5
420
      255
100
AcDbHatch
 10
0.0
 20
0.0
 30
0.0
210
0.0
220
0.0
230
1.0
  2
SOLID
 70
     1
 71
     0
 91
        1
 92
        1
 93
        3
 72
     1
 10
1.518006372134619
 20
3.092666969997607
 11
1.673246003586393
 21
3.092666969997607
 72
     1
 10
1.673246003586393
 20
3.092666969997607
 11
1.712057606871461
 21
3.247899819760881
 72
     1
 10
1.712057606871461
 20
3.247899819760881
 11
1.518006372134619
 21
3.092666969997607
 97
        0
 75
     2
 76
     1
 98
        0
  0
POLYLINE
  5
2A9
330
1F
100
AcDbEntity
  8
Layer 1
370
     0
100
AcDb2dPolyline
 66
     1
 10
0.0
 20
0.0
 30
0.0
  0
VERTEX
  5
2AA
330
2A9
100
AcDbEntity
  8
Layer 1
370
     0
100
AcDbVertex
100
AcDb2dVertex
 10
1.518006372134619
 20
3.092666969997607
 30
0.0
  0
VERTEX
  5
2AB
330
2A9
100
AcDbEntity
  8
Layer 1
370
     0
100
AcDbVertex
100
AcDb2dVertex
 10
1.673246003586393
 20
3.092666969997607
 30
0.0
  0
VERTEX
  5
2AC
330
2A9
100
AcDbEntity
  8
Layer 1
370
     0
100
AcDbVertex
100
AcDb2dVertex
 10
1.712057606871461
 20
3.247899819760881
 30
0.0
  0
SEQEND
  5
2AD
330
2A9
100
AcDbEntity
  8
Layer 1
370
     0
  0
POLYLINE
  5
2AE
330
1F
100
AcDbEntity
  8
Layer 1
370
     0
100
AcDb2dPolyline
 66
     1
 10
0.0
 20
0.0
 30
0.0
  0
VERTEX
  5
2AF
330
2AE
100
AcDbEntity
  8
Layer 1
370
     0
100
AcDbVertex
100
AcDb2dVertex
 10
1.362766740682845
 20
3.092666969997607
 30
0.0
  0
VERTEX
  5
2B0
330
2AE
100
AcDbEntity
  8
Layer 1
370
     0
100
AcDbVertex
100
AcDb2dVertex
 10
1.518006372134619
 20
3.092666969997607
 30
0.0
  0
VERTEX
  5
2B1
330
2AE
100
AcDbEntity
  8
Layer 1
370
     0
100
AcDbVertex
100
AcDb2dVertex
 10
1.323955137397777
 20
3.247899819760881
 30
0.0
  0
SEQEND
  5
2B2
330
2AE
100
AcDbEntity
  8
Layer 1
370
     0
  0
HATCH
  5
2B3
330
1F
100
AcDbEntity
  8
Layer 1
 62
     5
420
      255
100
AcDbHatch
 10
0.0
 20
0.0
 30
0.0
210
0.0
220
0.0
230
1.0
  2
SOLID
 70
     1
 71
     0
 91
        1
 92
        1
 93
        3
 72
     1
 10
1.362766740682845
 20
3.092666969997607
 11
1.518006372134619
 21
3.092666969997607
 72
     1
 10
1.518006372134619
 20
3.092666969997607
 11
1.323955137397777
 21
3.247899819760881
 72
     1
 10
1.323955137397777
 20
3.247899819760881
 11
1.362766740682845
 21
3.092666969997607
 97
        0
 75
     2
 76
     1
 98
        0
  0
POLYLINE
  5
2B4
330
1F
100
AcDbEntity
  8
Layer 1
370
     0
100
AcDb2dPolyline
 66
     1
 10
0.0
 20
0.0
 30
0.0
  0
VERTEX
  5
2B5
330
2B4
100
AcDbEntity
  8
Layer 1
370
     0
100
AcDbVertex
100
AcDb2dVertex
 10
1.362766740682845
 20
3.092666969997607
 30
0.0
  0
VERTEX
  5
2B6
330
2B4
100
AcDbEntity
  8
Layer 1
370
     0
100
AcDbVertex
100
AcDb2dVertex
 10
1.518006372134619
 20
3.092666969997607
 30
0.0
  0
VERTEX
  5
2B7
330
2B4
100
AcDbEntity
  8
Layer 1
370
     0
100
AcDbVertex
100
AcDb2dVertex
 10
1.323955137397777
 20
3.247899819760881
 30
0.0
  0
SEQEND
  5
2B8
330
2B4
100
AcDbEntity
  8
Layer 1
370
     0
  0
POLYLINE
  5
2B9
330
1F
100
AcDbEntity
  8
Layer 1
370
     0
100
AcDb2dPolyline
 66
     1
 10
0.0
 20
0.0
 30
0.0
  0
VERTEX
  5
2BA
330
2B9
100
AcDbEntity
  8
Layer 1
370
     0
100
AcDbVertex
100
AcDb2dVertex
 10
1.518006372134619
 20
2.471735570944513
 30
0.0
  0
VERTEX
  5
2BB
330
2B9
100
AcDbEntity
  8
Layer 1
370
     0
100
AcDbVertex
100
AcDb2dVertex
 10
1.518006372134619
 20
2.471735570944513
 30
0.0
  0
VERTEX
  5
2BC
330
2B9
100
AcDbEntity
  8
Layer 1
370
     0
100
AcDbVertex
100
AcDb2dVertex
 10
1.673246003586393
 20
3.092666969997607
 30
0.0
  0
VERTEX
  5
2BD
330
2B9
100
AcDbEntity
  8
Layer 1
370
     0
100
AcDbVertex
100
AcDb2dVertex
 10
1.362766740682845
 20
3.092666969997607
 30
0.0
  0
SEQEND
  5
2BE
330
2B9
100
AcDbEntity
  8
Layer 1
370
     0
  0
HATCH
  5
2BF
330
1F
100
AcDbEntity
  8
Layer 1
 62
     5
420
      255
100
AcDbHatch
 10
0.0
 20
0.0
 30
0.0
210
0.0
220
0.0
230
1.0
  2
SOLID
 70
     1
 71
     0
 91
        1
 92
        1
 93
        3
 72
     1
 10
1.518006372134619
 20
2.471735570944513
 11
1.673246003586393
 21
3.092666969997607
 72
     1
 10
1.673246003586393
 20
3.092666969997607
 11
1.362766740682845
 21
3.092666969997607
 72
     1
 10
1.362766740682845
 20
3.092666969997607
 11
1.518006372134619
 21
2.471735570944513
 97
        0
 75
     2
 76
     1
 98
        0
  0
POLYLINE
  5
2C0
330
1F
100
AcDbEntity
  8
Layer 1
370
     0
100
AcDb2dPolyline
 66
     1
 10
0.0
 20
0.0
 30
0.0
  0
VERTEX
  5
2C1
330
2C0
100
AcDbEntity
  8
Layer 1
370
     0
100
AcDbVertex
100
AcDb2dVertex
 10
1.518006372134619
 20
2.471735570944513
 30
0.0
  0
VERTEX
  5
2C2
330
2C0
100
AcDbEntity
  8
Layer 1
370
     0
100
AcDbVertex
100
AcDb2dVertex
 10
1.518006372134619
 20
2.471735570944513
 30
0.0
  0
VERTEX
  5
2C3
330
2C0
100
AcDbEntity
  8
Layer 1
370
     0
100
AcDbVertex
100
AcDb2dVertex
 10
1.673246003586393
 20
3.092666969997607
 30
0.0
  0
VERTEX
  5
2C4
330
2C0
100
AcDbEntity
  8
Layer 1
370
     0
100
AcDbVertex
100
AcDb2dVertex
 10
1.362766740682845
 20
3.092666969997607
 30
0.0
  0
SEQEND
  5
2C5
330
2C0
100
AcDbEntity
  8
Layer 1
370
     0
  0
POLYLINE
  5
2C6
330
1F
100
AcDbEntity
  8
Layer 1
 62
     5
420
      255
370
     5
100
AcDb2dPolyline
 66
     1
 10
0.0
 20
0.0
 30
0.0
  0
VERTEX
  5
2C7
330
2C6
100
AcDbEntity
  8
Layer 1
 62
     5
420
      255
370
     5
100
AcDbVertex
100
AcDb2dVertex
 10
1.518006372134619
 20
2.471735570944513
 30
0.0
  0
VERTEX
  5
2C8
330
2C6
100
AcDbEntity
  8
Layer 1
 62
     5
420
      255
370
     5
100
AcDbVertex
100
AcDb2dVertex
 10
1.518006372134619
 20
4.628624471591527
 30
0.0
  0
SEQEND
  5
2C9
330
2C6
100
AcDbEntity
  8
Layer 1
370
     5
  0
MTEXT
  5
2CA
330
1F
100
AcDbEntity
  8
Layer 1
 62
     5
420
      255
100
AcDbMText
 10
0.7967331100366398
 20
5.212487161304034
 30
0.0
 40
0.6062277828573109
 41
0.0
 71
     7
 72
     1
  1
\fArial|b0|i0|c0|p34;\W1;6
 73
     1
 44
1.0
  0
MTEXT
  5
2CB
330
1F
100
AcDbEntity
  8
Layer 1
 62
     5
420
      255
100
AcDbMText
 10
1.303203170588008
 20
5.410919366811827
 30
0.0
 40
0.6062277828573109
 41
0.0
 71
     7
 72
     1
  1
\fArial|b0|i0|c0|p34;\W1;1
 73
     1
 44
1.0
  0
POLYLINE
  5
2CC
330
1F
100
AcDbEntity
  8
Layer 1
 62
     5
420
      255
370
    13
100
AcDb2dPolyline
 66
     1
 10
0.0
 20
0.0
 30
0.0
  0
VERTEX
  5
2CD
330
2CC
100
AcDbEntity
  8
Layer 1
 62
     5
420
      255
370
    13
100
AcDbVertex
100
AcDb2dVertex
 10
1.587539024324346
 20
5.215498230998
 30
0.0
  0
VERTEX
  5
2CE
330
2CC
100
AcDbEntity
  8
Layer 1
 62
     5
420
      255
370
    13
100
AcDbVertex
100
AcDb2dVertex
 10
1.981466964219465
 20
6.05364711270368
 30
0.0
  0
SEQEND
  5
2CF
330
2CC
100
AcDbEntity
  8
Layer 1
370
    13
  0
MTEXT
  5
2D0
330
1F
100
AcDbEntity
  8
Layer 1
 62
     5
420
      255
100
AcDbMText
 10
1.874838475935151
 20
5.212487161304034
 30
0.0
 40
0.6062277828573109
 41
0.0
 71
     7
 72
     1
  1
\fArial|b0|i0|c0|p34;\W1;8
 73
     1
 44
1.0
  0
POLYLINE
  5
2D1
330
1F
100
AcDbEntity
  8
Layer 1
 62
     5
420
      255
370
     5
100
AcDb2dPolyline
 66
     1
 10
0.0
 20
0.0
 30
0.0
  0
VERTEX
  5
2D2
330
2D1
100
AcDbEntity
  8
Layer 1
 62
     5
420
      255
370
     5
100
AcDbVertex
100
AcDb2dVertex
 10
15.61675020723333
 20
9.526658300531057
 30
0.0
  0
VERTEX
  5
2D3
330
2D1
100
AcDbEntity
  8
Layer 1
 62
     5
420
      255
370
     5
100
AcDbVertex
100
AcDb2dVertex
 10
15.61675020723333
 20
0.4950225703634951
 30
0.0
  0
SEQEND
  5
2D4
330
2D1
100
AcDbEntity
  8
Layer 1
370
     5
  0
POLYLINE
  5
2D5
330
1F
100
AcDbEntity
  8
Layer 1
 62
     5
420
      255
370
     5
100
AcDb2dPolyline
 66
     1
 10
0.0
 20
0.0
 30
0.0
  0
VERTEX
  5
2D6
330
2D5
100
AcDbEntity
  8
Layer 1
 62
     5
420
      255
370
     5
100
AcDbVertex
100
AcDb2dVertex
 10
3.553977766827978
 20
9.526658300531057
 30
0.0
  0
VERTEX
  5
2D7
330
2D5
100
AcDbEntity
  8
Layer 1
 62
     5
420
      255
370
     5
100
AcDbVertex
100
AcDb2dVertex
 10
3.553977766827978
 20
0.4950225703634951
 30
0.0
  0
SEQEND
  5
2D8
330
2D5
100
AcDbEntity
  8
Layer 1
370
     5
  0
POLYLINE
  5
2D9
330
1F
100
AcDbEntity
  8
Layer 1
 62
     5
420
      255
370
     5
100
AcDb2dPolyline
 66
     1
 10
0.0
 20
0.0
 30
0.0
  0
VERTEX
  5
2DA
330
2D9
100
AcDbEntity
  8
Layer 1
 62
     5
420
      255
370
     5
100
AcDbVertex
100
AcDb2dVertex
 10
3.553977766827978
 20
0.8054882698900425
 30
0.0
  0
VERTEX
  5
2DB
330
2D9
100
AcDbEntity
  8
Layer 1
 62
     5
420
      255
370
     5
100
AcDbVertex
100
AcDb2dVertex
 10
4.330175924086846
 20
0.9995259412498847
 30
0.0
  0
SEQEND
  5
2DC
330
2D9
100
AcDbEntity
  8
Layer 1
370
     5
  0
POLYLINE
  5
2DD
330
1F
100
AcDbEntity
  8
Layer 1
 62
     5
420
      255
370
     5
100
AcDb2dPolyline
 66
     1
 10
0.0
 20
0.0
 30
0.0
  0
VERTEX
  5
2DE
330
2DD
100
AcDbEntity
  8
Layer 1
 62
     5
420
      255
370
     5
100
AcDbVertex
100
AcDb2dVertex
 10
4.330175924086846
 20
0.9995259412498847
 30
0.0
  0
VERTEX
  5
2DF
330
2DD
100
AcDbEntity
  8
Layer 1
 62
     5
420
      255
370
     5
100
AcDbVertex
100
AcDb2dVertex
 10
4.174936292635072
 20
0.8054882698900425
 30
0.0
  0
SEQEND
  5
2E0
330
2DD
100
AcDbEntity
  8
Layer 1
370
     5
  0
POLYLINE
  5
2E1
330
1F
100
AcDbEntity
  8
Layer 1
 62
     5
420
      255
370
     5
100
AcDb2dPolyline
 66
     1
 10
0.0
 20
0.0
 30
0.0
  0
VERTEX
  5
2E2
330
2E1
100
AcDbEntity
  8
Layer 1
 62
     5
420
      255
370
     5
100
AcDbVertex
100
AcDb2dVertex
 10
4.174936292635072
 20
0.8054882698900425
 30
0.0
  0
VERTEX
  5
2E3
330
2E1
100
AcDbEntity
  8
Layer 1
 62
     5
420
      255
370
     5
100
AcDbVertex
100
AcDb2dVertex
 10
4.330175924086846
 20
0.6114505985302003
 30
0.0
  0
SEQEND
  5
2E4
330
2E1
100
AcDbEntity
  8
Layer 1
370
     5
  0
POLYLINE
  5
2E5
330
1F
100
AcDbEntity
  8
Layer 1
 62
     5
420
      255
370
     5
100
AcDb2dPolyline
 66
     1
 10
0.0
 20
0.0
 30
0.0
  0
VERTEX
  5
2E6
330
2E5
100
AcDbEntity
  8
Layer 1
 62
     5
420
      255
370
     5
100
AcDbVertex
100
AcDb2dVertex
 10
4.330175924086846
 20
0.6114505985302003
 30
0.0
  0
VERTEX
  5
2E7
330
2E5
100
AcDbEntity
  8
Layer 1
 62
     5
420
      255
370
     5
100
AcDbVertex
100
AcDb2dVertex
 10
3.553977766827978
 20
0.8054882698900425
 30
0.0
  0
SEQEND
  5
2E8
330
2E5
100
AcDbEntity
  8
Layer 1
370
     5
  0
POLYLINE
  5
2E9
330
1F
100
AcDbEntity
  8
Layer 1
370
     0
100
AcDb2dPolyline
 66
     1
 10
0.0
 20
0.0
 30
0.0
  0
VERTEX
  5
2EA
330
2E9
100
AcDbEntity
  8
Layer 1
370
     0
100
AcDbVertex
100
AcDb2dVertex
 10
3.553977766827978
 20
0.8054882698900425
 30
0.0
  0
VERTEX
  5
2EB
330
2E9
100
AcDbEntity
  8
Layer 1
370
     0
100
AcDbVertex
100
AcDb2dVertex
 10
4.174936292635072
 20
0.8054882698900425
 30
0.0
  0
VERTEX
  5
2EC
330
2E9
100
AcDbEntity
  8
Layer 1
370
     0
100
AcDbVertex
100
AcDb2dVertex
 10
4.330175924086846
 20
0.9995259412498847
 30
0.0
  0
SEQEND
  5
2ED
330
2E9
100
AcDbEntity
  8
Layer 1
370
     0
  0
HATCH
  5
2EE
330
1F
100
AcDbEntity
  8
Layer 1
 62
     5
420
      255
100
AcDbHatch
 10
0.0
 20
0.0
 30
0.0
210
0.0
220
0.0
230
1.0
  2
SOLID
 70
     1
 71
     0
 91
        1
 92
        1
 93
        3
 72
     1
 10
3.553977766827978
 20
0.8054882698900425
 11
4.174936292635072
 21
0.8054882698900425
 72
     1
 10
4.174936292635072
 20
0.8054882698900425
 11
4.330175924086846
 21
0.9995259412498847
 72
     1
 10
4.330175924086846
 20
0.9995259412498847
 11
3.553977766827978
 21
0.8054882698900425
 97
        0
 75
     2
 76
     1
 98
        0
  0
POLYLINE
  5
2EF
330
1F
100
AcDbEntity
  8
Layer 1
370
     0
100
AcDb2dPolyline
 66
     1
 10
0.0
 20
0.0
 30
0.0
  0
VERTEX
  5
2F0
330
2EF
100
AcDbEntity
  8
Layer 1
370
     0
100
AcDbVertex
100
AcDb2dVertex
 10
3.553977766827978
 20
0.8054882698900425
 30
0.0
  0
VERTEX
  5
2F1
330
2EF
100
AcDbEntity
  8
Layer 1
370
     0
100
AcDbVertex
100
AcDb2dVertex
 10
4.174936292635072
 20
0.8054882698900425
 30
0.0
  0
VERTEX
  5
2F2
330
2EF
100
AcDbEntity
  8
Layer 1
370
     0
100
AcDbVertex
100
AcDb2dVertex
 10
4.330175924086846
 20
0.9995259412498847
 30
0.0
  0
SEQEND
  5
2F3
330
2EF
100
AcDbEntity
  8
Layer 1
370
     0
  0
POLYLINE
  5
2F4
330
1F
100
AcDbEntity
  8
Layer 1
370
     0
100
AcDb2dPolyline
 66
     1
 10
0.0
 20
0.0
 30
0.0
  0
VERTEX
  5
2F5
330
2F4
100
AcDbEntity
  8
Layer 1
370
     0
100
AcDbVertex
100
AcDb2dVertex
 10
4.330175924086846
 20
0.6114505985302003
 30
0.0
  0
VERTEX
  5
2F6
330
2F4
100
AcDbEntity
  8
Layer 1
370
     0
100
AcDbVertex
100
AcDb2dVertex
 10
4.330175924086846
 20
0.6114505985302003
 30
0.0
  0
VERTEX
  5
2F7
330
2F4
100
AcDbEntity
  8
Layer 1
370
     0
100
AcDbVertex
100
AcDb2dVertex
 10
4.174936292635072
 20
0.8054882698900425
 30
0.0
  0
VERTEX
  5
2F8
330
2F4
100
AcDbEntity
  8
Layer 1
370
     0
100
AcDbVertex
100
AcDb2dVertex
 10
3.553977766827978
 20
0.8054882698900425
 30
0.0
  0
SEQEND
  5
2F9
330
2F4
100
AcDbEntity
  8
Layer 1
370
     0
  0
HATCH
  5
2FA
330
1F
100
AcDbEntity
  8
Layer 1
 62
     5
420
      255
100
AcDbHatch
 10
0.0
 20
0.0
 30
0.0
210
0.0
220
0.0
230
1.0
  2
SOLID
 70
     1
 71
     0
 91
        1
 92
        1
 93
        3
 72
     1
 10
4.330175924086846
 20
0.6114505985302003
 11
4.174936292635072
 21
0.8054882698900425
 72
     1
 10
4.174936292635072
 20
0.8054882698900425
 11
3.553977766827978
 21
0.8054882698900425
 72
     1
 10
3.553977766827978
 20
0.8054882698900425
 11
4.330175924086846
 21
0.6114505985302003
 97
        0
 75
     2
 76
     1
 98
        0
  0
POLYLINE
  5
2FB
330
1F
100
AcDbEntity
  8
Layer 1
370
     0
100
AcDb2dPolyline
 66
     1
 10
0.0
 20
0.0
 30
0.0
  0
VERTEX
  5
2FC
330
2FB
100
AcDbEntity
  8
Layer 1
370
     0
100
AcDbVertex
100
AcDb2dVertex
 10
4.330175924086846
 20
0.6114505985302003
 30
0.0
  0
VERTEX
  5
2FD
330
2FB
100
AcDbEntity
  8
Layer 1
370
     0
100
AcDbVertex
100
AcDb2dVertex
 10
4.330175924086846
 20
0.6114505985302003
 30
0.0
  0
VERTEX
  5
2FE
330
2FB
100
AcDbEntity
  8
Layer 1
370
     0
100
AcDbVertex
100
AcDb2dVertex
 10
4.174936292635072
 20
0.8054882698900425
 30
0.0
  0
VERTEX
  5
2FF
330
2FB
100
AcDbEntity
  8
Layer 1
370
     0
100
AcDbVertex
100
AcDb2dVertex
 10
3.553977766827978
 20
0.8054882698900425
 30
0.0
  0
SEQEND
  5
300
330
2FB
100
AcDbEntity
  8
Layer 1
370
     0
  0
POLYLINE
  5
301
330
1F
100
AcDbEntity
  8
Layer 1
 62
     5
420
      255
370
     5
100
AcDb2dPolyline
 66
     1
 10
0.0
 20
0.0
 30
0.0
  0
VERTEX
  5
302
330
301
100
AcDbEntity
  8
Layer 1
 62
     5
420
      255
370
     5
100
AcDbVertex
100
AcDb2dVertex
 10
3.553977766827978
 20
0.8054882698900425
 30
0.0
  0
VERTEX
  5
303
330
301
100
AcDbEntity
  8
Layer 1
 62
     5
420
      255
370
     5
100
AcDbVertex
100
AcDb2dVertex
 10
7.80709336449018
 20
0.8054882698900425
 30
0.0
  0
SEQEND
  5
304
330
301
100
AcDbEntity
  8
Layer 1
370
     5
  0
POLYLINE
  5
305
330
1F
100
AcDbEntity
  8
Layer 1
 62
     5
420
      255
370
     5
100
AcDb2dPolyline
 66
     1
 10
0.0
 20
0.0
 30
0.0
  0
VERTEX
  5
306
330
305
100
AcDbEntity
  8
Layer 1
 62
     5
420
      255
370
     5
100
AcDbVertex
100
AcDb2dVertex
 10
15.61675020723333
 20
0.8054882698900425
 30
0.0
  0
VERTEX
  5
307
330
305
100
AcDbEntity
  8
Layer 1
 62
     5
420
      255
370
     5
100
AcDbVertex
100
AcDb2dVertex
 10
14.84054526828596
 20
0.6114505985302003
 30
0.0
  0
SEQEND
  5
308
330
305
100
AcDbEntity
  8
Layer 1
370
     5
  0
POLYLINE
  5
309
330
1F
100
AcDbEntity
  8
Layer 1
 62
     5
420
      255
370
     5
100
AcDb2dPolyline
 66
     1
 10
0.0
 20
0.0
 30
0.0
  0
VERTEX
  5
30A
330
309
100
AcDbEntity
  8
Layer 1
 62
     5
420
      255
370
     5
100
AcDbVertex
100
AcDb2dVertex
 10
14.84054526828596
 20
0.6114505985302003
 30
0.0
  0
VERTEX
  5
30B
330
309
100
AcDbEntity
  8
Layer 1
 62
     5
420
      255
370
     5
100
AcDbVertex
100
AcDb2dVertex
 10
14.99579168142624
 20
0.8054882698900425
 30
0.0
  0
SEQEND
  5
30C
330
309
100
AcDbEntity
  8
Layer 1
370
     5
  0
POLYLINE
  5
30D
330
1F
100
AcDbEntity
  8
Layer 1
 62
     5
420
      255
370
     5
100
AcDb2dPolyline
 66
     1
 10
0.0
 20
0.0
 30
0.0
  0
VERTEX
  5
30E
330
30D
100
AcDbEntity
  8
Layer 1
 62
     5
420
      255
370
     5
100
AcDbVertex
100
AcDb2dVertex
 10
14.99579168142624
 20
0.8054882698900425
 30
0.0
  0
VERTEX
  5
30F
330
30D
100
AcDbEntity
  8
Layer 1
 62
     5
420
      255
370
     5
100
AcDbVertex
100
AcDb2dVertex
 10
14.84054526828596
 20
0.9995259412498847
 30
0.0
  0
SEQEND
  5
310
330
30D
100
AcDbEntity
  8
Layer 1
370
     5
  0
POLYLINE
  5
311
330
1F
100
AcDbEntity
  8
Layer 1
 62
     5
420
      255
370
     5
100
AcDb2dPolyline
 66
     1
 10
0.0
 20
0.0
 30
0.0
  0
VERTEX
  5
312
330
311
100
AcDbEntity
  8
Layer 1
 62
     5
420
      255
370
     5
100
AcDbVertex
100
AcDb2dVertex
 10
14.84054526828596
 20
0.9995259412498847
 30
0.0
  0
VERTEX
  5
313
330
311
100
AcDbEntity
  8
Layer 1
 62
     5
420
      255
370
     5
100
AcDbVertex
100
AcDb2dVertex
 10
15.61675020723333
 20
0.8054882698900425
 30
0.0
  0
SEQEND
  5
314
330
311
100
AcDbEntity
  8
Layer 1
370
     5
  0
POLYLINE
  5
315
330
1F
100
AcDbEntity
  8
Layer 1
370
     0
100
AcDb2dPolyline
 66
     1
 10
0.0
 20
0.0
 30
0.0
  0
VERTEX
  5
316
330
315
100
AcDbEntity
  8
Layer 1
370
     0
100
AcDbVertex
100
AcDb2dVertex
 10
14.99579168142624
 20
0.8054882698900425
 30
0.0
  0
VERTEX
  5
317
330
315
100
AcDbEntity
  8
Layer 1
370
     0
100
AcDbVertex
100
AcDb2dVertex
 10
15.61675020723333
 20
0.8054882698900425
 30
0.0
  0
VERTEX
  5
318
330
315
100
AcDbEntity
  8
Layer 1
370
     0
100
AcDbVertex
100
AcDb2dVertex
 10
14.84054526828596
 20
0.9995259412498847
 30
0.0
  0
SEQEND
  5
319
330
315
100
AcDbEntity
  8
Layer 1
370
     0
  0
HATCH
  5
31A
330
1F
100
AcDbEntity
  8
Layer 1
 62
     5
420
      255
100
AcDbHatch
 10
0.0
 20
0.0
 30
0.0
210
0.0
220
0.0
230
1.0
  2
SOLID
 70
     1
 71
     0
 91
        1
 92
        1
 93
        3
 72
     1
 10
14.99579168142624
 20
0.8054882698900425
 11
15.61675020723333
 21
0.8054882698900425
 72
     1
 10
15.61675020723333
 20
0.8054882698900425
 11
14.84054526828596
 21
0.9995259412498847
 72
     1
 10
14.84054526828596
 20
0.9995259412498847
 11
14.99579168142624
 21
0.8054882698900425
 97
        0
 75
     2
 76
     1
 98
        0
  0
POLYLINE
  5
31B
330
1F
100
AcDbEntity
  8
Layer 1
370
     0
100
AcDb2dPolyline
 66
     1
 10
0.0
 20
0.0
 30
0.0
  0
VERTEX
  5
31C
330
31B
100
AcDbEntity
  8
Layer 1
370
     0
100
AcDbVertex
100
AcDb2dVertex
 10
14.99579168142624
 20
0.8054882698900425
 30
0.0
  0
VERTEX
  5
31D
330
31B
100
AcDbEntity
  8
Layer 1
370
     0
100
AcDbVertex
100
AcDb2dVertex
 10
15.61675020723333
 20
0.8054882698900425
 30
0.0
  0
VERTEX
  5
31E
330
31B
100
AcDbEntity
  8
Layer 1
370
     0
100
AcDbVertex
100
AcDb2dVertex
 10
14.84054526828596
 20
0.9995259412498847
 30
0.0
  0
SEQEND
  5
31F
330
31B
100
AcDbEntity
  8
Layer 1
370
     0
  0
POLYLINE
  5
320
330
1F
100
AcDbEntity
  8
Layer 1
370
     0
100
AcDb2dPolyline
 66
     1
 10
0.0
 20
0.0
 30
0.0
  0
VERTEX
  5
321
330
320
100
AcDbEntity
  8
Layer 1
370
     0
100
AcDbVertex
100
AcDb2dVertex
 10
14.84054526828596
 20
0.6114505985302003
 30
0.0
  0
VERTEX
  5
322
330
320
100
AcDbEntity
  8
Layer 1
370
     0
100
AcDbVertex
100
AcDb2dVertex
 10
14.84054526828596
 20
0.6114505985302003
 30
0.0
  0
VERTEX
  5
323
330
320
100
AcDbEntity
  8
Layer 1
370
     0
100
AcDbVertex
100
AcDb2dVertex
 10
15.61675020723333
 20
0.8054882698900425
 30
0.0
  0
VERTEX
  5
324
330
320
100
AcDbEntity
  8
Layer 1
370
     0
100
AcDbVertex
100
AcDb2dVertex
 10
14.99579168142624
 20
0.8054882698900425
 30
0.0
  0
SEQEND
  5
325
330
320
100
AcDbEntity
  8
Layer 1
370
     0
  0
HATCH
  5
326
330
1F
100
AcDbEntity
  8
Layer 1
 62
     5
420
      255
100
AcDbHatch
 10
0.0
 20
0.0
 30
0.0
210
0.0
220
0.0
230
1.0
  2
SOLID
 70
     1
 71
     0
 91
        1
 92
        1
 93
        3
 72
     1
 10
14.84054526828596
 20
0.6114505985302003
 11
15.61675020723333
 21
0.8054882698900425
 72
     1
 10
15.61675020723333
 20
0.8054882698900425
 11
14.99579168142624
 21
0.8054882698900425
 72
     1
 10
14.99579168142624
 20
0.8054882698900425
 11
14.84054526828596
 21
0.6114505985302003
 97
        0
 75
     2
 76
     1
 98
        0
  0
POLYLINE
  5
327
330
1F
100
AcDbEntity
  8
Layer 1
370
     0
100
AcDb2dPolyline
 66
     1
 10
0.0
 20
0.0
 30
0.0
  0
VERTEX
  5
328
330
327
100
AcDbEntity
  8
Layer 1
370
     0
100
AcDbVertex
100
AcDb2dVertex
 10
14.84054526828596
 20
0.6114505985302003
 30
0.0
  0
VERTEX
  5
329
330
327
100
AcDbEntity
  8
Layer 1
370
     0
100
AcDbVertex
100
AcDb2dVertex
 10
14.84054526828596
 20
0.6114505985302003
 30
0.0
  0
VERTEX
  5
32A
330
327
100
AcDbEntity
  8
Layer 1
370
     0
100
AcDbVertex
100
AcDb2dVertex
 10
15.61675020723333
 20
0.8054882698900425
 30
0.0
  0
VERTEX
  5
32B
330
327
100
AcDbEntity
  8
Layer 1
370
     0
100
AcDbVertex
100
AcDb2dVertex
 10
14.99579168142624
 20
0.8054882698900425
 30
0.0
  0
SEQEND
  5
32C
330
327
100
AcDbEntity
  8
Layer 1
370
     0
  0
POLYLINE
  5
32D
330
1F
100
AcDbEntity
  8
Layer 1
 62
     5
420
      255
370
     5
100
AcDb2dPolyline
 66
     1
 10
0.0
 20
0.0
 30
0.0
  0
VERTEX
  5
32E
330
32D
100
AcDbEntity
  8
Layer 1
 62
     5
420
      255
370
     5
100
AcDbVertex
100
AcDb2dVertex
 10
15.61675020723333
 20
0.8054882698900425
 30
0.0
  0
VERTEX
  5
32F
330
32D
100
AcDbEntity
  8
Layer 1
 62
     5
420
      255
370
     5
100
AcDbVertex
100
AcDb2dVertex
 10
11.17612770423671
 20
0.8054882698900425
 30
0.0
  0
SEQEND
  5
330
330
32D
100
AcDbEntity
  8
Layer 1
370
     5
  0
MTEXT
  5
331
330
1F
100
AcDbEntity
  8
Layer 1
 62
     5
420
      255
100
AcDbMText
 10
8.32867302701938
 20
0.4856638402335992
 30
0.0
 40
0.6062277828573109
 41
0.0
 71
     7
 72
     1
  1
\fArial|b0|i0|c0|p34;\W1;1
 73
     1
 44
1.0
  0
MTEXT
  5
332
330
1F
100
AcDbEntity
  8
Layer 1
 62
     5
420
      255
100
AcDbMText
 10
8.835143087570748
 20
0.4856638402335992
 30
0.0
 40
0.6062277828573109
 41
0.0
 71
     7
 72
     1
  1
\fArial|b0|i0|c0|p34;\W1;2
 73
     1
 44
1.0
  0
MTEXT
  5
333
330
1F
100
AcDbEntity
  8
Layer 1
 62
     5
420
      255
100
AcDbMText
 10
9.341619929810616
 20
0.6840960457413925
 30
0.0
 40
0.6062277828573109
 41
0.0
 71
     7
 72
     1
  1
\fArial|b0|i0|c0|p34;\W1;1
 73
     1
 44
1.0
  0
POLYLINE
  5
334
330
1F
100
AcDbEntity
  8
Layer 1
 62
     5
420
      255
370
    13
100
AcDb2dPolyline
 66
     1
 10
0.0
 20
0.0
 30
0.0
  0
VERTEX
  5
335
330
334
100
AcDbEntity
  8
Layer 1
 62
     5
420
      255
370
    13
100
AcDbVertex
100
AcDb2dVertex
 10
9.625955783546953
 20
0.4886749099275656
 30
0.0
  0
VERTEX
  5
336
330
334
100
AcDbEntity
  8
Layer 1
 62
     5
420
      255
370
    13
100
AcDbVertex
100
AcDb2dVertex
 10
10.01987694175357
 20
1.326823791633245
 30
0.0
  0
SEQEND
  5
337
330
334
100
AcDbEntity
  8
Layer 1
370
    13
  0
MTEXT
  5
338
330
1F
100
AcDbEntity
  8
Layer 1
 62
     5
420
      255
100
AcDbMText
 10
9.913248453469258
 20
0.4856638402335992
 30
0.0
 40
0.6062277828573109
 41
0.0
 71
     7
 72
     1
  1
\fArial|b0|i0|c0|p34;\W1;1
 73
     1
 44
1.0
  0
MTEXT
  5
339
330
1F
100
AcDbEntity
  8
Layer 1
 62
     5
420
      255
100
AcDbMText
 10
10.28644477162011
 20
0.4856638402335992
 30
0.0
 40
0.6062277828573109
 41
0.0
 71
     7
 72
     1
  1
\fArial|b0|i0|c0|p34;\W1;6
 73
     1
 44
1.0
  0
POLYLINE
  5
33A
330
1F
100
AcDbEntity
  8
Layer 1
 62
     5
420
      255
370
     5
100
AcDb2dPolyline
 66
     1
 10
0.0
 20
0.0
 30
0.0
  0
VERTEX
  5
33B
330
33A
100
AcDbEntity
  8
Layer 1
 62
     5
420
      255
370
     5
100
AcDbVertex
100
AcDb2dVertex
 10
31.80460674811081
 20
9.794643503294077
 30
0.0
  0
VERTEX
  5
33C
330
33A
100
AcDbEntity
  8
Layer 1
 62
     5
420
      255
370
     5
100
AcDbVertex
100
AcDb2dVertex
 10
31.80460674811081
 20
0.4875084595055786
 30
0.0
  0
SEQEND
  5
33D
330
33A
100
AcDbEntity
  8
Layer 1
370
     5
  0
POLYLINE
  5
33E
330
1F
100
AcDbEntity
  8
Layer 1
 62
     5
420
      255
370
     5
100
AcDb2dPolyline
 66
     1
 10
0.0
 20
0.0
 30
0.0
  0
VERTEX
  5
33F
330
33E
100
AcDbEntity
  8
Layer 1
 62
     5
420
      255
370
     5
100
AcDbVertex
100
AcDb2dVertex
 10
15.61675020723333
 20
9.519144189673142
 30
0.0
  0
VERTEX
  5
340
330
33E
100
AcDbEntity
  8
Layer 1
 62
     5
420
      255
370
     5
100
AcDbVertex
100
AcDb2dVertex
 10
15.61675020723333
 20
0.4875084595055786
 30
0.0
  0
SEQEND
  5
341
330
33E
100
AcDbEntity
  8
Layer 1
370
     5
  0
POLYLINE
  5
342
330
1F
100
AcDbEntity
  8
Layer 1
 62
     5
420
      255
370
     5
100
AcDb2dPolyline
 66
     1
 10
0.0
 20
0.0
 30
0.0
  0
VERTEX
  5
343
330
342
100
AcDbEntity
  8
Layer 1
 62
     5
420
      255
370
     5
100
AcDbVertex
100
AcDb2dVertex
 10
15.61675020723333
 20
0.8054882698900425
 30
0.0
  0
VERTEX
  5
344
330
342
100
AcDbEntity
  8
Layer 1
 62
     5
420
      255
370
     5
100
AcDbVertex
100
AcDb2dVertex
 10
16.41172685994849
 20
1.004218869691832
 30
0.0
  0
SEQEND
  5
345
330
342
100
AcDbEntity
  8
Layer 1
370
     5
  0
POLYLINE
  5
346
330
1F
100
AcDbEntity
  8
Layer 1
 62
     5
420
      255
370
     5
100
AcDb2dPolyline
 66
     1
 10
0.0
 20
0.0
 30
0.0
  0
VERTEX
  5
347
330
346
100
AcDbEntity
  8
Layer 1
 62
     5
420
      255
370
     5
100
AcDbVertex
100
AcDb2dVertex
 10
16.41172685994849
 20
1.004218869691832
 30
0.0
  0
VERTEX
  5
348
330
346
100
AcDbEntity
  8
Layer 1
 62
     5
420
      255
370
     5
100
AcDbVertex
100
AcDb2dVertex
 10
16.25273017306776
 20
0.8054882698900425
 30
0.0
  0
SEQEND
  5
349
330
346
100
AcDbEntity
  8
Layer 1
370
     5
  0
POLYLINE
  5
34A
330
1F
100
AcDbEntity
  8
Layer 1
 62
     5
420
      255
370
     5
100
AcDb2dPolyline
 66
     1
 10
0.0
 20
0.0
 30
0.0
  0
VERTEX
  5
34B
330
34A
100
AcDbEntity
  8
Layer 1
 62
     5
420
      255
370
     5
100
AcDbVertex
100
AcDb2dVertex
 10
16.25273017306776
 20
0.8054882698900425
 30
0.0
  0
VERTEX
  5
34C
330
34A
100
AcDbEntity
  8
Layer 1
 62
     5
420
      255
370
     5
100
AcDbVertex
100
AcDb2dVertex
 10
16.41172685994849
 20
0.6067576700882525
 30
0.0
  0
SEQEND
  5
34D
330
34A
100
AcDbEntity
  8
Layer 1
370
     5
  0
POLYLINE
  5
34E
330
1F
100
AcDbEntity
  8
Layer 1
 62
     5
420
      255
370
     5
100
AcDb2dPolyline
 66
     1
 10
0.0
 20
0.0
 30
0.0
  0
VERTEX
  5
34F
330
34E
100
AcDbEntity
  8
Layer 1
 62
     5
420
      255
370
     5
100
AcDbVertex
100
AcDb2dVertex
 10
16.41172685994849
 20
0.6067576700882525
 30
0.0
  0
VERTEX
  5
350
330
34E
100
AcDbEntity
  8
Layer 1
 62
     5
420
      255
370
     5
100
AcDbVertex
100
AcDb2dVertex
 10
15.61675020723333
 20
0.8054882698900425
 30
0.0
  0
SEQEND
  5
351
330
34E
100
AcDbEntity
  8
Layer 1
370
     5
  0
POLYLINE
  5
352
330
1F
100
AcDbEntity
  8
Layer 1
370
     0
100
AcDb2dPolyline
 66
     1
 10
0.0
 20
0.0
 30
0.0
  0
VERTEX
  5
353
330
352
100
AcDbEntity
  8
Layer 1
370
     0
100
AcDbVertex
100
AcDb2dVertex
 10
15.61675020723333
 20
0.8054882698900425
 30
0.0
  0
VERTEX
  5
354
330
352
100
AcDbEntity
  8
Layer 1
370
     0
100
AcDbVertex
100
AcDb2dVertex
 10
16.25273017306776
 20
0.8054882698900425
 30
0.0
  0
VERTEX
  5
355
330
352
100
AcDbEntity
  8
Layer 1
370
     0
100
AcDbVertex
100
AcDb2dVertex
 10
16.41172685994849
 20
1.004218869691832
 30
0.0
  0
SEQEND
  5
356
330
352
100
AcDbEntity
  8
Layer 1
370
     0
  0
HATCH
  5
357
330
1F
100
AcDbEntity
  8
Layer 1
 62
     5
420
      255
100
AcDbHatch
 10
0.0
 20
0.0
 30
0.0
210
0.0
220
0.0
230
1.0
  2
SOLID
 70
     1
 71
     0
 91
        1
 92
        1
 93
        3
 72
     1
 10
15.61675020723333
 20
0.8054882698900425
 11
16.25273017306776
 21
0.8054882698900425
 72
     1
 10
16.25273017306776
 20
0.8054882698900425
 11
16.41172685994849
 21
1.004218869691832
 72
     1
 10
16.41172685994849
 20
1.004218869691832
 11
15.61675020723333
 21
0.8054882698900425
 97
        0
 75
     2
 76
     1
 98
        0
  0
POLYLINE
  5
358
330
1F
100
AcDbEntity
  8
Layer 1
370
     0
100
AcDb2dPolyline
 66
     1
 10
0.0
 20
0.0
 30
0.0
  0
VERTEX
  5
359
330
358
100
AcDbEntity
  8
Layer 1
370
     0
100
AcDbVertex
100
AcDb2dVertex
 10
15.61675020723333
 20
0.8054882698900425
 30
0.0
  0
VERTEX
  5
35A
330
358
100
AcDbEntity
  8
Layer 1
370
     0
100
AcDbVertex
100
AcDb2dVertex
 10
16.25273017306776
 20
0.8054882698900425
 30
0.0
  0
VERTEX
  5
35B
330
358
100
AcDbEntity
  8
Layer 1
370
     0
100
AcDbVertex
100
AcDb2dVertex
 10
16.41172685994849
 20
1.004218869691832
 30
0.0
  0
SEQEND
  5
35C
330
358
100
AcDbEntity
  8
Layer 1
370
     0
  0
POLYLINE
  5
35D
330
1F
100
AcDbEntity
  8
Layer 1
370
     0
100
AcDb2dPolyline
 66
     1
 10
0.0
 20
0.0
 30
0.0
  0
VERTEX
  5
35E
330
35D
100
AcDbEntity
  8
Layer 1
370
     0
100
AcDbVertex
100
AcDb2dVertex
 10
16.41172685994849
 20
0.6067576700882525
 30
0.0
  0
VERTEX
  5
35F
330
35D
100
AcDbEntity
  8
Layer 1
370
     0
100
AcDbVertex
100
AcDb2dVertex
 10
16.41172685994849
 20
0.6067576700882525
 30
0.0
  0
VERTEX
  5
360
330
35D
100
AcDbEntity
  8
Layer 1
370
     0
100
AcDbVertex
100
AcDb2dVertex
 10
16.25273017306776
 20
0.8054882698900425
 30
0.0
  0
VERTEX
  5
361
330
35D
100
AcDbEntity
  8
Layer 1
370
     0
100
AcDbVertex
100
AcDb2dVertex
 10
15.61675020723333
 20
0.8054882698900425
 30
0.0
  0
SEQEND
  5
362
330
35D
100
AcDbEntity
  8
Layer 1
370
     0
  0
HATCH
  5
363
330
1F
100
AcDbEntity
  8
Layer 1
 62
     5
420
      255
100
AcDbHatch
 10
0.0
 20
0.0
 30
0.0
210
0.0
220
0.0
230
1.0
  2
SOLID
 70
     1
 71
     0
 91
        1
 92
        1
 93
        3
 72
     1
 10
16.41172685994849
 20
0.6067576700882525
 11
16.25273017306776
 21
0.8054882698900425
 72
     1
 10
16.25273017306776
 20
0.8054882698900425
 11
15.61675020723333
 21
0.8054882698900425
 72
     1
 10
15.61675020723333
 20
0.8054882698900425
 11
16.41172685994849
 21
0.6067576700882525
 97
        0
 75
     2
 76
     1
 98
        0
  0
POLYLINE
  5
364
330
1F
100
AcDbEntity
  8
Layer 1
370
     0
100
AcDb2dPolyline
 66
     1
 10
0.0
 20
0.0
 30
0.0
  0
VERTEX
  5
365
330
364
100
AcDbEntity
  8
Layer 1
370
     0
100
AcDbVertex
100
AcDb2dVertex
 10
16.41172685994849
 20
0.6067576700882525
 30
0.0
  0
VERTEX
  5
366
330
364
100
AcDbEntity
  8
Layer 1
370
     0
100
AcDbVertex
100
AcDb2dVertex
 10
16.41172685994849
 20
0.6067576700882525
 30
0.0
  0
VERTEX
  5
367
330
364
100
AcDbEntity
  8
Layer 1
370
     0
100
AcDbVertex
100
AcDb2dVertex
 10
16.25273017306776
 20
0.8054882698900425
 30
0.0
  0
VERTEX
  5
368
330
364
100
AcDbEntity
  8
Layer 1
370
     0
100
AcDbVertex
100
AcDb2dVertex
 10
15.61675020723333
 20
0.8054882698900425
 30
0.0
  0
SEQEND
  5
369
330
364
100
AcDbEntity
  8
Layer 1
370
     0
  0
POLYLINE
  5
36A
330
1F
100
AcDbEntity
  8
Layer 1
 62
     5
420
      255
370
     5
100
AcDb2dPolyline
 66
     1
 10
0.0
 20
0.0
 30
0.0
  0
VERTEX
  5
36B
330
36A
100
AcDbEntity
  8
Layer 1
 62
     5
420
      255
370
     5
100
AcDbVertex
100
AcDb2dVertex
 10
15.61675020723333
 20
0.8054882698900425
 30
0.0
  0
VERTEX
  5
36C
330
36A
100
AcDbEntity
  8
Layer 1
 62
     5
420
      255
370
     5
100
AcDbVertex
100
AcDb2dVertex
 10
21.98539996907001
 20
0.8054882698900425
 30
0.0
  0
SEQEND
  5
36D
330
36A
100
AcDbEntity
  8
Layer 1
370
     5
  0
POLYLINE
  5
36E
330
1F
100
AcDbEntity
  8
Layer 1
 62
     5
420
      255
370
     5
100
AcDb2dPolyline
 66
     1
 10
0.0
 20
0.0
 30
0.0
  0
VERTEX
  5
36F
330
36E
100
AcDbEntity
  8
Layer 1
 62
     5
420
      255
370
     5
100
AcDbVertex
100
AcDb2dVertex
 10
31.80460674811081
 20
0.8054882698900425
 30
0.0
  0
VERTEX
  5
370
330
36E
100
AcDbEntity
  8
Layer 1
 62
     5
420
      255
370
     5
100
AcDbVertex
100
AcDb2dVertex
 10
31.00962331370716
 20
0.6067576700882525
 30
0.0
  0
SEQEND
  5
371
330
36E
100
AcDbEntity
  8
Layer 1
370
     5
  0
POLYLINE
  5
372
330
1F
100
AcDbEntity
  8
Layer 1
 62
     5
420
      255
370
     5
100
AcDb2dPolyline
 66
     1
 10
0.0
 20
0.0
 30
0.0
  0
VERTEX
  5
373
330
372
100
AcDbEntity
  8
Layer 1
 62
     5
420
      255
370
     5
100
AcDbVertex
100
AcDb2dVertex
 10
31.00962331370716
 20
0.6067576700882525
 30
0.0
  0
VERTEX
  5
374
330
372
100
AcDbEntity
  8
Layer 1
 62
     5
420
      255
370
     5
100
AcDbVertex
100
AcDb2dVertex
 10
31.16862678227639
 20
0.8054882698900425
 30
0.0
  0
SEQEND
  5
375
330
372
100
AcDbEntity
  8
Layer 1
370
     5
  0
POLYLINE
  5
376
330
1F
100
AcDbEntity
  8
Layer 1
 62
     5
420
      255
370
     5
100
AcDb2dPolyline
 66
     1
 10
0.0
 20
0.0
 30
0.0
  0
VERTEX
  5
377
330
376
100
AcDbEntity
  8
Layer 1
 62
     5
420
      255
370
     5
100
AcDbVertex
100
AcDb2dVertex
 10
31.16862678227639
 20
0.8054882698900425
 30
0.0
  0
VERTEX
  5
378
330
376
100
AcDbEntity
  8
Layer 1
 62
     5
420
      255
370
     5
100
AcDbVertex
100
AcDb2dVertex
 10
31.00962331370716
 20
1.004218869691832
 30
0.0
  0
SEQEND
  5
379
330
376
100
AcDbEntity
  8
Layer 1
370
     5
  0
POLYLINE
  5
37A
330
1F
100
AcDbEntity
  8
Layer 1
 62
     5
420
      255
370
     5
100
AcDb2dPolyline
 66
     1
 10
0.0
 20
0.0
 30
0.0
  0
VERTEX
  5
37B
330
37A
100
AcDbEntity
  8
Layer 1
 62
     5
420
      255
370
     5
100
AcDbVertex
100
AcDb2dVertex
 10
31.00962331370716
 20
1.004218869691832
 30
0.0
  0
VERTEX
  5
37C
330
37A
100
AcDbEntity
  8
Layer 1
 62
     5
420
      255
370
     5
100
AcDbVertex
100
AcDb2dVertex
 10
31.80460674811081
 20
0.8054882698900425
 30
0.0
  0
SEQEND
  5
37D
330
37A
100
AcDbEntity
  8
Layer 1
370
     5
  0
POLYLINE
  5
37E
330
1F
100
AcDbEntity
  8
Layer 1
370
     0
100
AcDb2dPolyline
 66
     1
 10
0.0
 20
0.0
 30
0.0
  0
VERTEX
  5
37F
330
37E
100
AcDbEntity
  8
Layer 1
370
     0
100
AcDbVertex
100
AcDb2dVertex
 10
31.16862678227639
 20
0.8054882698900425
 30
0.0
  0
VERTEX
  5
380
330
37E
100
AcDbEntity
  8
Layer 1
370
     0
100
AcDbVertex
100
AcDb2dVertex
 10
31.80460674811081
 20
0.8054882698900425
 30
0.0
  0
VERTEX
  5
381
330
37E
100
AcDbEntity
  8
Layer 1
370
     0
100
AcDbVertex
100
AcDb2dVertex
 10
31.00962331370716
 20
1.004218869691832
 30
0.0
  0
SEQEND
  5
382
330
37E
100
AcDbEntity
  8
Layer 1
370
     0
  0
HATCH
  5
383
330
1F
100
AcDbEntity
  8
Layer 1
 62
     5
420
      255
100
AcDbHatch
 10
0.0
 20
0.0
 30
0.0
210
0.0
220
0.0
230
1.0
  2
SOLID
 70
     1
 71
     0
 91
        1
 92
        1
 93
        3
 72
     1
 10
31.16862678227639
 20
0.8054882698900425
 11
31.80460674811081
 21
0.8054882698900425
 72
     1
 10
31.80460674811081
 20
0.8054882698900425
 11
31.00962331370716
 21
1.004218869691832
 72
     1
 10
31.00962331370716
 20
1.004218869691832
 11
31.16862678227639
 21
0.8054882698900425
 97
        0
 75
     2
 76
     1
 98
        0
  0
POLYLINE
  5
384
330
1F
100
AcDbEntity
  8
Layer 1
370
     0
100
AcDb2dPolyline
 66
     1
 10
0.0
 20
0.0
 30
0.0
  0
VERTEX
  5
385
330
384
100
AcDbEntity
  8
Layer 1
370
     0
100
AcDbVertex
100
AcDb2dVertex
 10
31.16862678227639
 20
0.8054882698900425
 30
0.0
  0
VERTEX
  5
386
330
384
100
AcDbEntity
  8
Layer 1
370
     0
100
AcDbVertex
100
AcDb2dVertex
 10
31.80460674811081
 20
0.8054882698900425
 30
0.0
  0
VERTEX
  5
387
330
384
100
AcDbEntity
  8
Layer 1
370
     0
100
AcDbVertex
100
AcDb2dVertex
 10
31.00962331370716
 20
1.004218869691832
 30
0.0
  0
SEQEND
  5
388
330
384
100
AcDbEntity
  8
Layer 1
370
     0
  0
POLYLINE
  5
389
330
1F
100
AcDbEntity
  8
Layer 1
370
     0
100
AcDb2dPolyline
 66
     1
 10
0.0
 20
0.0
 30
0.0
  0
VERTEX
  5
38A
330
389
100
AcDbEntity
  8
Layer 1
370
     0
100
AcDbVertex
100
AcDb2dVertex
 10
31.00962331370716
 20
0.6067576700882525
 30
0.0
  0
VERTEX
  5
38B
330
389
100
AcDbEntity
  8
Layer 1
370
     0
100
AcDbVertex
100
AcDb2dVertex
 10
31.00962331370716
 20
0.6067576700882525
 30
0.0
  0
VERTEX
  5
38C
330
389
100
AcDbEntity
  8
Layer 1
370
     0
100
AcDbVertex
100
AcDb2dVertex
 10
31.80460674811081
 20
0.8054882698900425
 30
0.0
  0
VERTEX
  5
38D
330
389
100
AcDbEntity
  8
Layer 1
370
     0
100
AcDbVertex
100
AcDb2dVertex
 10
31.16862678227639
 20
0.8054882698900425
 30
0.0
  0
SEQEND
  5
38E
330
389
100
AcDbEntity
  8
Layer 1
370
     0
  0
HATCH
  5
38F
330
1F
100
AcDbEntity
  8
Layer 1
 62
     5
420
      255
100
AcDbHatch
 10
0.0
 20
0.0
 30
0.0
210
0.0
220
0.0
230
1.0
  2
SOLID
 70
     1
 71
     0
 91
        1
 92
        1
 93
        3
 72
     1
 10
31.00962331370716
 20
0.6067576700882525
 11
31.80460674811081
 21
0.8054882698900425
 72
     1
 10
31.80460674811081
 20
0.8054882698900425
 11
31.16862678227639
 21
0.8054882698900425
 72
     1
 10
31.16862678227639
 20
0.8054882698900425
 11
31.00962331370716
 21
0.6067576700882525
 97
        0
 75
     2
 76
     1
 98
        0
  0
POLYLINE
  5
390
330
1F
100
AcDbEntity
  8
Layer 1
370
     0
100
AcDb2dPolyline
 66
     1
 10
0.0
 20
0.0
 30
0.0
  0
VERTEX
  5
391
330
390
100
AcDbEntity
  8
Layer 1
370
     0
100
AcDbVertex
100
AcDb2dVertex
 10
31.00962331370716
 20
0.6067576700882525
 30
0.0
  0
VERTEX
  5
392
330
390
100
AcDbEntity
  8
Layer 1
370
     0
100
AcDbVertex
100
AcDb2dVertex
 10
31.00962331370716
 20
0.6067576700882525
 30
0.0
  0
VERTEX
  5
393
330
390
100
AcDbEntity
  8
Layer 1
370
     0
100
AcDbVertex
100
AcDb2dVertex
 10
31.80460674811081
 20
0.8054882698900425
 30
0.0
  0
VERTEX
  5
394
330
390
100
AcDbEntity
  8
Layer 1
370
     0
100
AcDbVertex
100
AcDb2dVertex
 10
31.16862678227639
 20
0.8054882698900425
 30
0.0
  0
SEQEND
  5
395
330
390
100
AcDbEntity
  8
Layer 1
370
     0
  0
POLYLINE
  5
396
330
1F
100
AcDbEntity
  8
Layer 1
 62
     5
420
      255
370
     5
100
AcDb2dPolyline
 66
     1
 10
0.0
 20
0.0
 30
0.0
  0
VERTEX
  5
397
330
396
100
AcDbEntity
  8
Layer 1
 62
     5
420
      255
370
     5
100
AcDbVertex
100
AcDb2dVertex
 10
31.80460674811081
 20
0.8054882698900425
 30
0.0
  0
VERTEX
  5
398
330
396
100
AcDbEntity
  8
Layer 1
 62
     5
420
      255
370
     5
100
AcDbVertex
100
AcDb2dVertex
 10
25.43595698627414
 20
0.8054882698900425
 30
0.0
  0
SEQEND
  5
399
330
396
100
AcDbEntity
  8
Layer 1
370
     5
  0
MTEXT
  5
39A
330
1F
100
AcDbEntity
  8
Layer 1
 62
     5
420
      255
100
AcDbMText
 10
22.51880689634308
 20
0.4767798282986979
 30
0.0
 40
0.6223401719208501
 41
0.0
 71
     7
 72
     1
  1
\fArial|b0|i0|c0|p34;\W1;1
 73
     1
 44
1.0
  0
MTEXT
  5
39B
330
1F
100
AcDbEntity
  8
Layer 1
 62
     5
420
      255
100
AcDbMText
 10
23.03713134839231
 20
0.4767798282986979
 30
0.0
 40
0.6223401719208501
 41
0.0
 71
     7
 72
     1
  1
\fArial|b0|i0|c0|p34;\W1;6
 73
     1
 44
1.0
  0
MTEXT
  5
39C
330
1F
100
AcDbEntity
  8
Layer 1
 62
     5
420
      255
100
AcDbMText
 10
23.55544901875305
 20
0.6811392295554253
 30
0.0
 40
0.6223401719208501
 41
0.0
 71
     7
 72
     1
  1
\fArial|b0|i0|c0|p34;\W1;3
 73
     1
 44
1.0
  0
POLYLINE
  5
39D
330
1F
100
AcDbEntity
  8
Layer 1
 62
     5
420
      255
370
    13
100
AcDb2dPolyline
 66
     1
 10
0.0
 20
0.0
 30
0.0
  0
VERTEX
  5
39E
330
39D
100
AcDbEntity
  8
Layer 1
 62
     5
420
      255
370
    13
100
AcDbVertex
100
AcDb2dVertex
 10
23.84571206823832
 20
0.4797908979926644
 30
0.0
  0
VERTEX
  5
39F
330
39D
100
AcDbEntity
  8
Layer 1
 62
     5
420
      255
370
    13
100
AcDbVertex
100
AcDb2dVertex
 10
24.25148083625431
 20
1.335707803568146
 30
0.0
  0
SEQEND
  5
3A0
330
39D
100
AcDbEntity
  8
Layer 1
370
    13
  0
MTEXT
  5
3A1
330
1F
100
AcDbEntity
  8
Layer 1
 62
     5
420
      255
100
AcDbMText
 10
24.14189553178403
 20
0.4767798282986979
 30
0.0
 40
0.6223401719208501
 41
0.0
 71
     7
 72
     1
  1
\fArial|b0|i0|c0|p34;\W1;1
 73
     1
 44
1.0
  0
MTEXT
  5
3A2
330
1F
100
AcDbEntity
  8
Layer 1
 62
     5
420
      255
100
AcDbMText
 10
24.52396908018128
 20
0.4767798282986979
 30
0.0
 40
0.6223401719208501
 41
0.0
 71
     7
 72
     1
  1
\fArial|b0|i0|c0|p34;\W1;6
 73
     1
 44
1.0
  0
POLYLINE
  5
3A3
330
1F
100
AcDbEntity
  8
Layer 1
 62
     5
420
      255
370
     5
100
AcDb2dPolyline
 66
     1
 10
0.0
 20
0.0
 30
0.0
  0
VERTEX
  5
3A4
330
3A3
100
AcDbEntity
  8
Layer 1
 62
     5
420
      255
370
     5
100
AcDbVertex
100
AcDb2dVertex
 10
5.752526579930029
 20
20.90861025074048
 30
0.0
  0
VERTEX
  5
3A5
330
3A3
100
AcDbEntity
  8
Layer 1
 62
     5
420
      255
370
     5
100
AcDbVertex
100
AcDb2dVertex
 10
1.220602204658926
 20
20.90861025074048
 30
0.0
  0
SEQEND
  5
3A6
330
3A3
100
AcDbEntity
  8
Layer 1
370
     5
  0
POLYLINE
  5
3A7
330
1F
100
AcDbEntity
  8
Layer 1
 62
     5
420
      255
370
     5
100
AcDb2dPolyline
 66
     1
 10
0.0
 20
0.0
 30
0.0
  0
VERTEX
  5
3A8
330
3A7
100
AcDbEntity
  8
Layer 1
 62
     5
420
      255
370
     5
100
AcDbVertex
100
AcDb2dVertex
 10
4.310549717568064
 20
27.03340405749687
 30
0.0
  0
VERTEX
  5
3A9
330
3A7
100
AcDbEntity
  8
Layer 1
 62
     5
420
      255
370
     5
100
AcDbVertex
100
AcDb2dVertex
 10
1.220602204658926
 20
27.03340405749687
 30
0.0
  0
SEQEND
  5
3AA
330
3A7
100
AcDbEntity
  8
Layer 1
370
     5
  0
POLYLINE
  5
3AB
330
1F
100
AcDbEntity
  8
Layer 1
 62
     5
420
      255
370
     5
100
AcDb2dPolyline
 66
     1
 10
0.0
 20
0.0
 30
0.0
  0
VERTEX
  5
3AC
330
3AB
100
AcDbEntity
  8
Layer 1
 62
     5
420
      255
370
     5
100
AcDbVertex
100
AcDb2dVertex
 10
1.518006372134619
 20
27.03340405749687
 30
0.0
  0
VERTEX
  5
3AD
330
3AB
100
AcDbEntity
  8
Layer 1
 62
     5
420
      255
370
     5
100
AcDbVertex
100
AcDb2dVertex
 10
1.703885672229052
 20
26.28992754725014
 30
0.0
  0
SEQEND
  5
3AE
330
3AB
100
AcDbEntity
  8
Layer 1
370
     5
  0
POLYLINE
  5
3AF
330
1F
100
AcDbEntity
  8
Layer 1
 62
     5
420
      255
370
     5
100
AcDb2dPolyline
 66
     1
 10
0.0
 20
0.0
 30
0.0
  0
VERTEX
  5
3B0
330
3AF
100
AcDbEntity
  8
Layer 1
 62
     5
420
      255
370
     5
100
AcDbVertex
100
AcDb2dVertex
 10
1.703885672229052
 20
26.28992754725014
 30
0.0
  0
VERTEX
  5
3B1
330
3AF
100
AcDbEntity
  8
Layer 1
 62
     5
420
      255
370
     5
100
AcDbVertex
100
AcDb2dVertex
 10
1.518006372134619
 20
26.43862284929949
 30
0.0
  0
SEQEND
  5
3B2
330
3AF
100
AcDbEntity
  8
Layer 1
370
     5
  0
POLYLINE
  5
3B3
330
1F
100
AcDbEntity
  8
Layer 1
 62
     5
420
      255
370
     5
100
AcDb2dPolyline
 66
     1
 10
0.0
 20
0.0
 30
0.0
  0
VERTEX
  5
3B4
330
3B3
100
AcDbEntity
  8
Layer 1
 62
     5
420
      255
370
     5
100
AcDbVertex
100
AcDb2dVertex
 10
1.518006372134619
 20
26.43862284929949
 30
0.0
  0
VERTEX
  5
3B5
330
3B3
100
AcDbEntity
  8
Layer 1
 62
     5
420
      255
370
     5
100
AcDbVertex
100
AcDb2dVertex
 10
1.332127072040186
 20
26.28992754725014
 30
0.0
  0
SEQEND
  5
3B6
330
3B3
100
AcDbEntity
  8
Layer 1
370
     5
  0
POLYLINE
  5
3B7
330
1F
100
AcDbEntity
  8
Layer 1
 62
     5
420
      255
370
     5
100
AcDb2dPolyline
 66
     1
 10
0.0
 20
0.0
 30
0.0
  0
VERTEX
  5
3B8
330
3B7
100
AcDbEntity
  8
Layer 1
 62
     5
420
      255
370
     5
100
AcDbVertex
100
AcDb2dVertex
 10
1.332127072040186
 20
26.28992754725014
 30
0.0
  0
VERTEX
  5
3B9
330
3B7
100
AcDbEntity
  8
Layer 1
 62
     5
420
      255
370
     5
100
AcDbVertex
100
AcDb2dVertex
 10
1.518006372134619
 20
27.03340405749687
 30
0.0
  0
SEQEND
  5
3BA
330
3B7
100
AcDbEntity
  8
Layer 1
370
     5
  0
POLYLINE
  5
3BB
330
1F
100
AcDbEntity
  8
Layer 1
370
     0
100
AcDb2dPolyline
 66
     1
 10
0.0
 20
0.0
 30
0.0
  0
VERTEX
  5
3BC
330
3BB
100
AcDbEntity
  8
Layer 1
370
     0
100
AcDbVertex
100
AcDb2dVertex
 10
1.369304288396773
 20
26.43862284929949
 30
0.0
  0
VERTEX
  5
3BD
330
3BB
100
AcDbEntity
  8
Layer 1
370
     0
100
AcDbVertex
100
AcDb2dVertex
 10
1.666708455872465
 20
26.43862284929949
 30
0.0
  0
VERTEX
  5
3BE
330
3BB
100
AcDbEntity
  8
Layer 1
370
     0
100
AcDbVertex
100
AcDb2dVertex
 10
1.518006372134619
 20
27.03340405749687
 30
0.0
  0
SEQEND
  5
3BF
330
3BB
100
AcDbEntity
  8
Layer 1
370
     0
  0
HATCH
  5
3C0
330
1F
100
AcDbEntity
  8
Layer 1
 62
     5
420
      255
100
AcDbHatch
 10
0.0
 20
0.0
 30
0.0
210
0.0
220
0.0
230
1.0
  2
SOLID
 70
     1
 71
     0
 91
        1
 92
        1
 93
        3
 72
     1
 10
1.369304288396773
 20
26.43862284929949
 11
1.666708455872465
 21
26.43862284929949
 72
     1
 10
1.666708455872465
 20
26.43862284929949
 11
1.518006372134619
 21
27.03340405749687
 72
     1
 10
1.518006372134619
 20
27.03340405749687
 11
1.369304288396773
 21
26.43862284929949
 97
        0
 75
     2
 76
     1
 98
        0
  0
POLYLINE
  5
3C1
330
1F
100
AcDbEntity
  8
Layer 1
370
     0
100
AcDb2dPolyline
 66
     1
 10
0.0
 20
0.0
 30
0.0
  0
VERTEX
  5
3C2
330
3C1
100
AcDbEntity
  8
Layer 1
370
     0
100
AcDbVertex
100
AcDb2dVertex
 10
1.369304288396773
 20
26.43862284929949
 30
0.0
  0
VERTEX
  5
3C3
330
3C1
100
AcDbEntity
  8
Layer 1
370
     0
100
AcDbVertex
100
AcDb2dVertex
 10
1.666708455872465
 20
26.43862284929949
 30
0.0
  0
VERTEX
  5
3C4
330
3C1
100
AcDbEntity
  8
Layer 1
370
     0
100
AcDbVertex
100
AcDb2dVertex
 10
1.518006372134619
 20
27.03340405749687
 30
0.0
  0
SEQEND
  5
3C5
330
3C1
100
AcDbEntity
  8
Layer 1
370
     0
  0
POLYLINE
  5
3C6
330
1F
100
AcDbEntity
  8
Layer 1
370
     0
100
AcDb2dPolyline
 66
     1
 10
0.0
 20
0.0
 30
0.0
  0
VERTEX
  5
3C7
330
3C6
100
AcDbEntity
  8
Layer 1
370
     0
100
AcDbVertex
100
AcDb2dVertex
 10
1.703885672229052
 20
26.28992754725014
 30
0.0
  0
VERTEX
  5
3C8
330
3C6
100
AcDbEntity
  8
Layer 1
370
     0
100
AcDbVertex
100
AcDb2dVertex
 10
1.703885672229052
 20
26.28992754725014
 30
0.0
  0
VERTEX
  5
3C9
330
3C6
100
AcDbEntity
  8
Layer 1
370
     0
100
AcDbVertex
100
AcDb2dVertex
 10
1.666708455872465
 20
26.43862284929949
 30
0.0
  0
VERTEX
  5
3CA
330
3C6
100
AcDbEntity
  8
Layer 1
370
     0
100
AcDbVertex
100
AcDb2dVertex
 10
1.518006372134619
 20
26.43862284929949
 30
0.0
  0
SEQEND
  5
3CB
330
3C6
100
AcDbEntity
  8
Layer 1
370
     0
  0
HATCH
  5
3CC
330
1F
100
AcDbEntity
  8
Layer 1
 62
     5
420
      255
100
AcDbHatch
 10
0.0
 20
0.0
 30
0.0
210
0.0
220
0.0
230
1.0
  2
SOLID
 70
     1
 71
     0
 91
        1
 92
        1
 93
        3
 72
     1
 10
1.703885672229052
 20
26.28992754725014
 11
1.666708455872465
 21
26.43862284929949
 72
     1
 10
1.666708455872465
 20
26.43862284929949
 11
1.518006372134619
 21
26.43862284929949
 72
     1
 10
1.518006372134619
 20
26.43862284929949
 11
1.703885672229052
 21
26.28992754725014
 97
        0
 75
     2
 76
     1
 98
        0
  0
POLYLINE
  5
3CD
330
1F
100
AcDbEntity
  8
Layer 1
370
     0
100
AcDb2dPolyline
 66
     1
 10
0.0
 20
0.0
 30
0.0
  0
VERTEX
  5
3CE
330
3CD
100
AcDbEntity
  8
Layer 1
370
     0
100
AcDbVertex
100
AcDb2dVertex
 10
1.703885672229052
 20
26.28992754725014
 30
0.0
  0
VERTEX
  5
3CF
330
3CD
100
AcDbEntity
  8
Layer 1
370
     0
100
AcDbVertex
100
AcDb2dVertex
 10
1.703885672229052
 20
26.28992754725014
 30
0.0
  0
VERTEX
  5
3D0
330
3CD
100
AcDbEntity
  8
Layer 1
370
     0
100
AcDbVertex
100
AcDb2dVertex
 10
1.666708455872465
 20
26.43862284929949
 30
0.0
  0
VERTEX
  5
3D1
330
3CD
100
AcDbEntity
  8
Layer 1
370
     0
100
AcDbVertex
100
AcDb2dVertex
 10
1.518006372134619
 20
26.43862284929949
 30
0.0
  0
SEQEND
  5
3D2
330
3CD
100
AcDbEntity
  8
Layer 1
370
     0
  0
POLYLINE
  5
3D3
330
1F
100
AcDbEntity
  8
Layer 1
370
     0
100
AcDb2dPolyline
 66
     1
 10
0.0
 20
0.0
 30
0.0
  0
VERTEX
  5
3D4
330
3D3
100
AcDbEntity
  8
Layer 1
370
     0
100
AcDbVertex
100
AcDb2dVertex
 10
1.332127072040186
 20
26.28992754725014
 30
0.0
  0
VERTEX
  5
3D5
330
3D3
100
AcDbEntity
  8
Layer 1
370
     0
100
AcDbVertex
100
AcDb2dVertex
 10
1.332127072040186
 20
26.28992754725014
 30
0.0
  0
VERTEX
  5
3D6
330
3D3
100
AcDbEntity
  8
Layer 1
370
     0
100
AcDbVertex
100
AcDb2dVertex
 10
1.518006372134619
 20
26.43862284929949
 30
0.0
  0
VERTEX
  5
3D7
330
3D3
100
AcDbEntity
  8
Layer 1
370
     0
100
AcDbVertex
100
AcDb2dVertex
 10
1.369304288396773
 20
26.43862284929949
 30
0.0
  0
SEQEND
  5
3D8
330
3D3
100
AcDbEntity
  8
Layer 1
370
     0
  0
HATCH
  5
3D9
330
1F
100
AcDbEntity
  8
Layer 1
 62
     5
420
      255
100
AcDbHatch
 10
0.0
 20
0.0
 30
0.0
210
0.0
220
0.0
230
1.0
  2
SOLID
 70
     1
 71
     0
 91
        1
 92
        1
 93
        3
 72
     1
 10
1.332127072040186
 20
26.28992754725014
 11
1.518006372134619
 21
26.43862284929949
 72
     1
 10
1.518006372134619
 20
26.43862284929949
 11
1.369304288396773
 21
26.43862284929949
 72
     1
 10
1.369304288396773
 20
26.43862284929949
 11
1.332127072040186
 21
26.28992754725014
 97
        0
 75
     2
 76
     1
 98
        0
  0
POLYLINE
  5
3DA
330
1F
100
AcDbEntity
  8
Layer 1
370
     0
100
AcDb2dPolyline
 66
     1
 10
0.0
 20
0.0
 30
0.0
  0
VERTEX
  5
3DB
330
3DA
100
AcDbEntity
  8
Layer 1
370
     0
100
AcDbVertex
100
AcDb2dVertex
 10
1.332127072040186
 20
26.28992754725014
 30
0.0
  0
VERTEX
  5
3DC
330
3DA
100
AcDbEntity
  8
Layer 1
370
     0
100
AcDbVertex
100
AcDb2dVertex
 10
1.332127072040186
 20
26.28992754725014
 30
0.0
  0
VERTEX
  5
3DD
330
3DA
100
AcDbEntity
  8
Layer 1
370
     0
100
AcDbVertex
100
AcDb2dVertex
 10
1.518006372134619
 20
26.43862284929949
 30
0.0
  0
VERTEX
  5
3DE
330
3DA
100
AcDbEntity
  8
Layer 1
370
     0
100
AcDbVertex
100
AcDb2dVertex
 10
1.369304288396773
 20
26.43862284929949
 30
0.0
  0
SEQEND
  5
3DF
330
3DA
100
AcDbEntity
  8
Layer 1
370
     0
  0
POLYLINE
  5
3E0
330
1F
100
AcDbEntity
  8
Layer 1
 62
     5
420
      255
370
     5
100
AcDb2dPolyline
 66
     1
 10
0.0
 20
0.0
 30
0.0
  0
VERTEX
  5
3E1
330
3E0
100
AcDbEntity
  8
Layer 1
 62
     5
420
      255
370
     5
100
AcDbVertex
100
AcDb2dVertex
 10
1.518006372134619
 20
27.03340405749687
 30
0.0
  0
VERTEX
  5
3E2
330
3E0
100
AcDbEntity
  8
Layer 1
 62
     5
420
      255
370
     5
100
AcDbVertex
100
AcDb2dVertex
 10
1.518006372134619
 20
24.83839528579178
 30
0.0
  0
SEQEND
  5
3E3
330
3E0
100
AcDbEntity
  8
Layer 1
370
     5
  0
POLYLINE
  5
3E4
330
1F
100
AcDbEntity
  8
Layer 1
 62
     5
420
      255
370
     5
100
AcDb2dPolyline
 66
     1
 10
0.0
 20
0.0
 30
0.0
  0
VERTEX
  5
3E5
330
3E4
100
AcDbEntity
  8
Layer 1
 62
     5
420
      255
370
     5
100
AcDbVertex
100
AcDb2dVertex
 10
1.518006372134619
 20
20.90861025074048
 30
0.0
  0
VERTEX
  5
3E6
330
3E4
100
AcDbEntity
  8
Layer 1
 62
     5
420
      255
370
     5
100
AcDbVertex
100
AcDb2dVertex
 10
1.332127072040186
 20
21.65208676098722
 30
0.0
  0
SEQEND
  5
3E7
330
3E4
100
AcDbEntity
  8
Layer 1
370
     5
  0
POLYLINE
  5
3E8
330
1F
100
AcDbEntity
  8
Layer 1
 62
     5
420
      255
370
     5
100
AcDb2dPolyline
 66
     1
 10
0.0
 20
0.0
 30
0.0
  0
VERTEX
  5
3E9
330
3E8
100
AcDbEntity
  8
Layer 1
 62
     5
420
      255
370
     5
100
AcDbVertex
100
AcDb2dVertex
 10
1.332127072040186
 20
21.65208676098722
 30
0.0
  0
VERTEX
  5
3EA
330
3E8
100
AcDbEntity
  8
Layer 1
 62
     5
420
      255
370
     5
100
AcDbVertex
100
AcDb2dVertex
 10
1.518006372134619
 20
21.50339145893787
 30
0.0
  0
SEQEND
  5
3EB
330
3E8
100
AcDbEntity
  8
Layer 1
370
     5
  0
POLYLINE
  5
3EC
330
1F
100
AcDbEntity
  8
Layer 1
 62
     5
420
      255
370
     5
100
AcDb2dPolyline
 66
     1
 10
0.0
 20
0.0
 30
0.0
  0
VERTEX
  5
3ED
330
3EC
100
AcDbEntity
  8
Layer 1
 62
     5
420
      255
370
     5
100
AcDbVertex
100
AcDb2dVertex
 10
1.518006372134619
 20
21.50339145893787
 30
0.0
  0
VERTEX
  5
3EE
330
3EC
100
AcDbEntity
  8
Layer 1
 62
     5
420
      255
370
     5
100
AcDbVertex
100
AcDb2dVertex
 10
1.703885672229052
 20
21.65208676098722
 30
0.0
  0
SEQEND
  5
3EF
330
3EC
100
AcDbEntity
  8
Layer 1
370
     5
  0
POLYLINE
  5
3F0
330
1F
100
AcDbEntity
  8
Layer 1
 62
     5
420
      255
370
     5
100
AcDb2dPolyline
 66
     1
 10
0.0
 20
0.0
 30
0.0
  0
VERTEX
  5
3F1
330
3F0
100
AcDbEntity
  8
Layer 1
 62
     5
420
      255
370
     5
100
AcDbVertex
100
AcDb2dVertex
 10
1.703885672229052
 20
21.65208676098722
 30
0.0
  0
VERTEX
  5
3F2
330
3F0
100
AcDbEntity
  8
Layer 1
 62
     5
420
      255
370
     5
100
AcDbVertex
100
AcDb2dVertex
 10
1.518006372134619
 20
20.90861025074048
 30
0.0
  0
SEQEND
  5
3F3
330
3F0
100
AcDbEntity
  8
Layer 1
370
     5
  0
POLYLINE
  5
3F4
330
1F
100
AcDbEntity
  8
Layer 1
370
     0
100
AcDb2dPolyline
 66
     1
 10
0.0
 20
0.0
 30
0.0
  0
VERTEX
  5
3F5
330
3F4
100
AcDbEntity
  8
Layer 1
370
     0
100
AcDbVertex
100
AcDb2dVertex
 10
1.518006372134619
 20
21.50339145893787
 30
0.0
  0
VERTEX
  5
3F6
330
3F4
100
AcDbEntity
  8
Layer 1
370
     0
100
AcDbVertex
100
AcDb2dVertex
 10
1.666708455872465
 20
21.50339145893787
 30
0.0
  0
VERTEX
  5
3F7
330
3F4
100
AcDbEntity
  8
Layer 1
370
     0
100
AcDbVertex
100
AcDb2dVertex
 10
1.703885672229052
 20
21.65208676098722
 30
0.0
  0
SEQEND
  5
3F8
330
3F4
100
AcDbEntity
  8
Layer 1
370
     0
  0
HATCH
  5
3F9
330
1F
100
AcDbEntity
  8
Layer 1
 62
     5
420
      255
100
AcDbHatch
 10
0.0
 20
0.0
 30
0.0
210
0.0
220
0.0
230
1.0
  2
SOLID
 70
     1
 71
     0
 91
        1
 92
        1
 93
        3
 72
     1
 10
1.518006372134619
 20
21.50339145893787
 11
1.666708455872465
 21
21.50339145893787
 72
     1
 10
1.666708455872465
 20
21.50339145893787
 11
1.703885672229052
 21
21.65208676098722
 72
     1
 10
1.703885672229052
 20
21.65208676098722
 11
1.518006372134619
 21
21.50339145893787
 97
        0
 75
     2
 76
     1
 98
        0
  0
POLYLINE
  5
3FA
330
1F
100
AcDbEntity
  8
Layer 1
370
     0
100
AcDb2dPolyline
 66
     1
 10
0.0
 20
0.0
 30
0.0
  0
VERTEX
  5
3FB
330
3FA
100
AcDbEntity
  8
Layer 1
370
     0
100
AcDbVertex
100
AcDb2dVertex
 10
1.518006372134619
 20
21.50339145893787
 30
0.0
  0
VERTEX
  5
3FC
330
3FA
100
AcDbEntity
  8
Layer 1
370
     0
100
AcDbVertex
100
AcDb2dVertex
 10
1.666708455872465
 20
21.50339145893787
 30
0.0
  0
VERTEX
  5
3FD
330
3FA
100
AcDbEntity
  8
Layer 1
370
     0
100
AcDbVertex
100
AcDb2dVertex
 10
1.703885672229052
 20
21.65208676098722
 30
0.0
  0
SEQEND
  5
3FE
330
3FA
100
AcDbEntity
  8
Layer 1
370
     0
  0
POLYLINE
  5
3FF
330
1F
100
AcDbEntity
  8
Layer 1
370
     0
100
AcDb2dPolyline
 66
     1
 10
0.0
 20
0.0
 30
0.0
  0
VERTEX
  5
400
330
3FF
100
AcDbEntity
  8
Layer 1
370
     0
100
AcDbVertex
100
AcDb2dVertex
 10
1.369304288396773
 20
21.50339145893787
 30
0.0
  0
VERTEX
  5
401
330
3FF
100
AcDbEntity
  8
Layer 1
370
     0
100
AcDbVertex
100
AcDb2dVertex
 10
1.518006372134619
 20
21.50339145893787
 30
0.0
  0
VERTEX
  5
402
330
3FF
100
AcDbEntity
  8
Layer 1
370
     0
100
AcDbVertex
100
AcDb2dVertex
 10
1.332127072040186
 20
21.65208676098722
 30
0.0
  0
SEQEND
  5
403
330
3FF
100
AcDbEntity
  8
Layer 1
370
     0
  0
HATCH
  5
404
330
1F
100
AcDbEntity
  8
Layer 1
 62
     5
420
      255
100
AcDbHatch
 10
0.0
 20
0.0
 30
0.0
210
0.0
220
0.0
230
1.0
  2
SOLID
 70
     1
 71
     0
 91
        1
 92
        1
 93
        3
 72
     1
 10
1.369304288396773
 20
21.50339145893787
 11
1.518006372134619
 21
21.50339145893787
 72
     1
 10
1.518006372134619
 20
21.50339145893787
 11
1.332127072040186
 21
21.65208676098722
 72
     1
 10
1.332127072040186
 20
21.65208676098722
 11
1.369304288396773
 21
21.50339145893787
 97
        0
 75
     2
 76
     1
 98
        0
  0
POLYLINE
  5
405
330
1F
100
AcDbEntity
  8
Layer 1
370
     0
100
AcDb2dPolyline
 66
     1
 10
0.0
 20
0.0
 30
0.0
  0
VERTEX
  5
406
330
405
100
AcDbEntity
  8
Layer 1
370
     0
100
AcDbVertex
100
AcDb2dVertex
 10
1.369304288396773
 20
21.50339145893787
 30
0.0
  0
VERTEX
  5
407
330
405
100
AcDbEntity
  8
Layer 1
370
     0
100
AcDbVertex
100
AcDb2dVertex
 10
1.518006372134619
 20
21.50339145893787
 30
0.0
  0
VERTEX
  5
408
330
405
100
AcDbEntity
  8
Layer 1
370
     0
100
AcDbVertex
100
AcDb2dVertex
 10
1.332127072040186
 20
21.65208676098722
 30
0.0
  0
SEQEND
  5
409
330
405
100
AcDbEntity
  8
Layer 1
370
     0
  0
POLYLINE
  5
40A
330
1F
100
AcDbEntity
  8
Layer 1
370
     0
100
AcDb2dPolyline
 66
     1
 10
0.0
 20
0.0
 30
0.0
  0
VERTEX
  5
40B
330
40A
100
AcDbEntity
  8
Layer 1
370
     0
100
AcDbVertex
100
AcDb2dVertex
 10
1.518006372134619
 20
20.90861025074048
 30
0.0
  0
VERTEX
  5
40C
330
40A
100
AcDbEntity
  8
Layer 1
370
     0
100
AcDbVertex
100
AcDb2dVertex
 10
1.518006372134619
 20
20.90861025074048
 30
0.0
  0
VERTEX
  5
40D
330
40A
100
AcDbEntity
  8
Layer 1
370
     0
100
AcDbVertex
100
AcDb2dVertex
 10
1.666708455872465
 20
21.50339145893787
 30
0.0
  0
VERTEX
  5
40E
330
40A
100
AcDbEntity
  8
Layer 1
370
     0
100
AcDbVertex
100
AcDb2dVertex
 10
1.369304288396773
 20
21.50339145893787
 30
0.0
  0
SEQEND
  5
40F
330
40A
100
AcDbEntity
  8
Layer 1
370
     0
  0
HATCH
  5
410
330
1F
100
AcDbEntity
  8
Layer 1
 62
     5
420
      255
100
AcDbHatch
 10
0.0
 20
0.0
 30
0.0
210
0.0
220
0.0
230
1.0
  2
SOLID
 70
     1
 71
     0
 91
        1
 92
        1
 93
        3
 72
     1
 10
1.518006372134619
 20
20.90861025074048
 11
1.666708455872465
 21
21.50339145893787
 72
     1
 10
1.666708455872465
 20
21.50339145893787
 11
1.369304288396773
 21
21.50339145893787
 72
     1
 10
1.369304288396773
 20
21.50339145893787
 11
1.518006372134619
 21
20.90861025074048
 97
        0
 75
     2
 76
     1
 98
        0
  0
POLYLINE
  5
411
330
1F
100
AcDbEntity
  8
Layer 1
370
     0
100
AcDb2dPolyline
 66
     1
 10
0.0
 20
0.0
 30
0.0
  0
VERTEX
  5
412
330
411
100
AcDbEntity
  8
Layer 1
370
     0
100
AcDbVertex
100
AcDb2dVertex
 10
1.518006372134619
 20
20.90861025074048
 30
0.0
  0
VERTEX
  5
413
330
411
100
AcDbEntity
  8
Layer 1
370
     0
100
AcDbVertex
100
AcDb2dVertex
 10
1.518006372134619
 20
20.90861025074048
 30
0.0
  0
VERTEX
  5
414
330
411
100
AcDbEntity
  8
Layer 1
370
     0
100
AcDbVertex
100
AcDb2dVertex
 10
1.666708455872465
 20
21.50339145893787
 30
0.0
  0
VERTEX
  5
415
330
411
100
AcDbEntity
  8
Layer 1
370
     0
100
AcDbVertex
100
AcDb2dVertex
 10
1.369304288396773
 20
21.50339145893787
 30
0.0
  0
SEQEND
  5
416
330
411
100
AcDbEntity
  8
Layer 1
370
     0
  0
POLYLINE
  5
417
330
1F
100
AcDbEntity
  8
Layer 1
 62
     5
420
      255
370
     5
100
AcDb2dPolyline
 66
     1
 10
0.0
 20
0.0
 30
0.0
  0
VERTEX
  5
418
330
417
100
AcDbEntity
  8
Layer 1
 62
     5
420
      255
370
     5
100
AcDbVertex
100
AcDb2dVertex
 10
1.518006372134619
 20
20.90861025074048
 30
0.0
  0
VERTEX
  5
419
330
417
100
AcDbEntity
  8
Layer 1
 62
     5
420
      255
370
     5
100
AcDbVertex
100
AcDb2dVertex
 10
1.518006372134619
 20
23.10361902244557
 30
0.0
  0
SEQEND
  5
41A
330
417
100
AcDbEntity
  8
Layer 1
370
     5
  0
MTEXT
  5
41B
330
1F
100
AcDbEntity
  8
Layer 1
 62
     5
420
      255
100
AcDbMText
 10
0.8263487437158105
 20
23.66070082427188
 30
0.0
 40
0.5820592352897221
 41
0.0
 71
     7
 72
     1
  1
\fArial|b0|i0|c0|p34;\W1;6
 73
     1
 44
1.0
  0
MTEXT
  5
41C
330
1F
100
AcDbEntity
  8
Layer 1
 62
     5
420
      255
100
AcDbMText
 10
1.312093964211409
 20
23.85024901784477
 30
0.0
 40
0.5820592352897221
 41
0.0
 71
     7
 72
     1
  1
\fArial|b0|i0|c0|p34;\W1;1
 73
     1
 44
1.0
  0
POLYLINE
  5
41D
330
1F
100
AcDbEntity
  8
Layer 1
 62
     5
420
      255
370
    13
100
AcDb2dPolyline
 66
     1
 10
0.0
 20
0.0
 30
0.0
  0
VERTEX
  5
41E
330
41D
100
AcDbEntity
  8
Layer 1
 62
     5
420
      255
370
    13
100
AcDbVertex
100
AcDb2dVertex
 10
1.581618610263911
 20
23.66371189396585
 30
0.0
  0
VERTEX
  5
41F
330
41D
100
AcDbEntity
  8
Layer 1
 62
     5
420
      255
370
    13
100
AcDbVertex
100
AcDb2dVertex
 10
1.963692158661163
 20
24.46631794624342
 30
0.0
  0
SEQEND
  5
420
330
41D
100
AcDbEntity
  8
Layer 1
370
    13
  0
MTEXT
  5
421
330
1F
100
AcDbEntity
  8
Layer 1
 62
     5
420
      255
100
AcDbMText
 10
1.860027268251315
 20
23.66070082427188
 30
0.0
 40
0.5820592352897221
 41
0.0
 71
     7
 72
     1
  1
\fArial|b0|i0|c0|p34;\W1;8
 73
     1
 44
1.0
  0
POLYLINE
  5
422
330
1F
100
AcDbEntity
  8
Layer 1
 62
     5
420
      255
370
     5
100
AcDb2dPolyline
 66
     1
 10
0.0
 20
0.0
 30
0.0
  0
VERTEX
  5
423
330
422
100
AcDbEntity
  8
Layer 1
 62
     5
420
      255
370
     5
100
AcDbVertex
100
AcDb2dVertex
 10
58.95479148157639
 20
2.471735570944513
 30
0.0
  0
VERTEX
  5
424
330
422
100
AcDbEntity
  8
Layer 1
 62
     5
420
      255
370
     5
100
AcDbVertex
100
AcDb2dVertex
 10
65.95052363393559
 20
2.471735570944513
 30
0.0
  0
SEQEND
  5
425
330
422
100
AcDbEntity
  8
Layer 1
370
     5
  0
POLYLINE
  5
426
330
1F
100
AcDbEntity
  8
Layer 1
 62
     5
420
      255
370
     5
100
AcDb2dPolyline
 66
     1
 10
0.0
 20
0.0
 30
0.0
  0
VERTEX
  5
427
330
426
100
AcDbEntity
  8
Layer 1
 62
     5
420
      255
370
     5
100
AcDbVertex
100
AcDb2dVertex
 10
56.78332195065454
 20
27.03340405749687
 30
0.0
  0
VERTEX
  5
428
330
426
100
AcDbEntity
  8
Layer 1
 62
     5
420
      255
370
     5
100
AcDbVertex
100
AcDb2dVertex
 10
65.95052363393559
 20
27.03340405749687
 30
0.0
  0
SEQEND
  5
429
330
426
100
AcDbEntity
  8
Layer 1
370
     5
  0
POLYLINE
  5
42A
330
1F
100
AcDbEntity
  8
Layer 1
 62
     5
420
      255
370
     5
100
AcDb2dPolyline
 66
     1
 10
0.0
 20
0.0
 30
0.0
  0
VERTEX
  5
42B
330
42A
100
AcDbEntity
  8
Layer 1
 62
     5
420
      255
370
     5
100
AcDbVertex
100
AcDb2dVertex
 10
65.6161185740043
 20
27.03340405749687
 30
0.0
  0
VERTEX
  5
42C
330
42A
100
AcDbEntity
  8
Layer 1
 62
     5
420
      255
370
     5
100
AcDbVertex
100
AcDb2dVertex
 10
65.82513021357198
 20
26.19743887948817
 30
0.0
  0
SEQEND
  5
42D
330
42A
100
AcDbEntity
  8
Layer 1
370
     5
  0
POLYLINE
  5
42E
330
1F
100
AcDbEntity
  8
Layer 1
 62
     5
420
      255
370
     5
100
AcDb2dPolyline
 66
     1
 10
0.0
 20
0.0
 30
0.0
  0
VERTEX
  5
42F
330
42E
100
AcDbEntity
  8
Layer 1
 62
     5
420
      255
370
     5
100
AcDbVertex
100
AcDb2dVertex
 10
65.82513021357198
 20
26.19743887948817
 30
0.0
  0
VERTEX
  5
430
330
42E
100
AcDbEntity
  8
Layer 1
 62
     5
420
      255
370
     5
100
AcDbVertex
100
AcDb2dVertex
 10
65.6161185740043
 20
26.36462784607681
 30
0.0
  0
SEQEND
  5
431
330
42E
100
AcDbEntity
  8
Layer 1
370
     5
  0
POLYLINE
  5
432
330
1F
100
AcDbEntity
  8
Layer 1
 62
     5
420
      255
370
     5
100
AcDb2dPolyline
 66
     1
 10
0.0
 20
0.0
 30
0.0
  0
VERTEX
  5
433
330
432
100
AcDbEntity
  8
Layer 1
 62
     5
420
      255
370
     5
100
AcDbVertex
100
AcDb2dVertex
 10
65.6161185740043
 20
26.36462784607681
 30
0.0
  0
VERTEX
  5
434
330
432
100
AcDbEntity
  8
Layer 1
 62
     5
420
      255
370
     5
100
AcDbVertex
100
AcDb2dVertex
 10
65.40710693443664
 20
26.19743887948817
 30
0.0
  0
SEQEND
  5
435
330
432
100
AcDbEntity
  8
Layer 1
370
     5
  0
POLYLINE
  5
436
330
1F
100
AcDbEntity
  8
Layer 1
 62
     5
420
      255
370
     5
100
AcDb2dPolyline
 66
     1
 10
0.0
 20
0.0
 30
0.0
  0
VERTEX
  5
437
330
436
100
AcDbEntity
  8
Layer 1
 62
     5
420
      255
370
     5
100
AcDbVertex
100
AcDb2dVertex
 10
65.40710693443664
 20
26.19743887948817
 30
0.0
  0
VERTEX
  5
438
330
436
100
AcDbEntity
  8
Layer 1
 62
     5
420
      255
370
     5
100
AcDbVertex
100
AcDb2dVertex
 10
65.6161185740043
 20
27.03340405749687
 30
0.0
  0
SEQEND
  5
439
330
436
100
AcDbEntity
  8
Layer 1
370
     5
  0
POLYLINE
  5
43A
330
1F
100
AcDbEntity
  8
Layer 1
370
     0
100
AcDb2dPolyline
 66
     1
 10
0.0
 20
0.0
 30
0.0
  0
VERTEX
  5
43B
330
43A
100
AcDbEntity
  8
Layer 1
370
     0
100
AcDbVertex
100
AcDb2dVertex
 10
65.44890926235017
 20
26.36462784607681
 30
0.0
  0
VERTEX
  5
43C
330
43A
100
AcDbEntity
  8
Layer 1
370
     0
100
AcDbVertex
100
AcDb2dVertex
 10
65.78332788565845
 20
26.36462784607681
 30
0.0
  0
VERTEX
  5
43D
330
43A
100
AcDbEntity
  8
Layer 1
370
     0
100
AcDbVertex
100
AcDb2dVertex
 10
65.6161185740043
 20
27.03340405749687
 30
0.0
  0
SEQEND
  5
43E
330
43A
100
AcDbEntity
  8
Layer 1
370
     0
  0
HATCH
  5
43F
330
1F
100
AcDbEntity
  8
Layer 1
 62
     5
420
      255
100
AcDbHatch
 10
0.0
 20
0.0
 30
0.0
210
0.0
220
0.0
230
1.0
  2
SOLID
 70
     1
 71
     0
 91
        1
 92
        1
 93
        3
 72
     1
 10
65.44890926235017
 20
26.36462784607681
 11
65.78332788565845
 21
26.36462784607681
 72
     1
 10
65.78332788565845
 20
26.36462784607681
 11
65.6161185740043
 21
27.03340405749687
 72
     1
 10
65.6161185740043
 20
27.03340405749687
 11
65.44890926235017
 21
26.36462784607681
 97
        0
 75
     2
 76
     1
 98
        0
  0
POLYLINE
  5
440
330
1F
100
AcDbEntity
  8
Layer 1
370
     0
100
AcDb2dPolyline
 66
     1
 10
0.0
 20
0.0
 30
0.0
  0
VERTEX
  5
441
330
440
100
AcDbEntity
  8
Layer 1
370
     0
100
AcDbVertex
100
AcDb2dVertex
 10
65.44890926235017
 20
26.36462784607681
 30
0.0
  0
VERTEX
  5
442
330
440
100
AcDbEntity
  8
Layer 1
370
     0
100
AcDbVertex
100
AcDb2dVertex
 10
65.78332788565845
 20
26.36462784607681
 30
0.0
  0
VERTEX
  5
443
330
440
100
AcDbEntity
  8
Layer 1
370
     0
100
AcDbVertex
100
AcDb2dVertex
 10
65.6161185740043
 20
27.03340405749687
 30
0.0
  0
SEQEND
  5
444
330
440
100
AcDbEntity
  8
Layer 1
370
     0
  0
POLYLINE
  5
445
330
1F
100
AcDbEntity
  8
Layer 1
370
     0
100
AcDb2dPolyline
 66
     1
 10
0.0
 20
0.0
 30
0.0
  0
VERTEX
  5
446
330
445
100
AcDbEntity
  8
Layer 1
370
     0
100
AcDbVertex
100
AcDb2dVertex
 10
65.82513021357198
 20
26.19743887948817
 30
0.0
  0
VERTEX
  5
447
330
445
100
AcDbEntity
  8
Layer 1
370
     0
100
AcDbVertex
100
AcDb2dVertex
 10
65.82513021357198
 20
26.19743887948817
 30
0.0
  0
VERTEX
  5
448
330
445
100
AcDbEntity
  8
Layer 1
370
     0
100
AcDbVertex
100
AcDb2dVertex
 10
65.78332788565845
 20
26.36462784607681
 30
0.0
  0
VERTEX
  5
449
330
445
100
AcDbEntity
  8
Layer 1
370
     0
100
AcDbVertex
100
AcDb2dVertex
 10
65.6161185740043
 20
26.36462784607681
 30
0.0
  0
SEQEND
  5
44A
330
445
100
AcDbEntity
  8
Layer 1
370
     0
  0
HATCH
  5
44B
330
1F
100
AcDbEntity
  8
Layer 1
 62
     5
420
      255
100
AcDbHatch
 10
0.0
 20
0.0
 30
0.0
210
0.0
220
0.0
230
1.0
  2
SOLID
 70
     1
 71
     0
 91
        1
 92
        1
 93
        3
 72
     1
 10
65.82513021357198
 20
26.19743887948817
 11
65.78332788565845
 21
26.36462784607681
 72
     1
 10
65.78332788565845
 20
26.36462784607681
 11
65.6161185740043
 21
26.36462784607681
 72
     1
 10
65.6161185740043
 20
26.36462784607681
 11
65.82513021357198
 21
26.19743887948817
 97
        0
 75
     2
 76
     1
 98
        0
  0
POLYLINE
  5
44C
330
1F
100
AcDbEntity
  8
Layer 1
370
     0
100
AcDb2dPolyline
 66
     1
 10
0.0
 20
0.0
 30
0.0
  0
VERTEX
  5
44D
330
44C
100
AcDbEntity
  8
Layer 1
370
     0
100
AcDbVertex
100
AcDb2dVertex
 10
65.82513021357198
 20
26.19743887948817
 30
0.0
  0
VERTEX
  5
44E
330
44C
100
AcDbEntity
  8
Layer 1
370
     0
100
AcDbVertex
100
AcDb2dVertex
 10
65.82513021357198
 20
26.19743887948817
 30
0.0
  0
VERTEX
  5
44F
330
44C
100
AcDbEntity
  8
Layer 1
370
     0
100
AcDbVertex
100
AcDb2dVertex
 10
65.78332788565845
 20
26.36462784607681
 30
0.0
  0
VERTEX
  5
450
330
44C
100
AcDbEntity
  8
Layer 1
370
     0
100
AcDbVertex
100
AcDb2dVertex
 10
65.6161185740043
 20
26.36462784607681
 30
0.0
  0
SEQEND
  5
451
330
44C
100
AcDbEntity
  8
Layer 1
370
     0
  0
POLYLINE
  5
452
330
1F
100
AcDbEntity
  8
Layer 1
370
     0
100
AcDb2dPolyline
 66
     1
 10
0.0
 20
0.0
 30
0.0
  0
VERTEX
  5
453
330
452
100
AcDbEntity
  8
Layer 1
370
     0
100
AcDbVertex
100
AcDb2dVertex
 10
65.40710693443664
 20
26.19743887948817
 30
0.0
  0
VERTEX
  5
454
330
452
100
AcDbEntity
  8
Layer 1
370
     0
100
AcDbVertex
100
AcDb2dVertex
 10
65.40710693443664
 20
26.19743887948817
 30
0.0
  0
VERTEX
  5
455
330
452
100
AcDbEntity
  8
Layer 1
370
     0
100
AcDbVertex
100
AcDb2dVertex
 10
65.6161185740043
 20
26.36462784607681
 30
0.0
  0
VERTEX
  5
456
330
452
100
AcDbEntity
  8
Layer 1
370
     0
100
AcDbVertex
100
AcDb2dVertex
 10
65.44890926235017
 20
26.36462784607681
 30
0.0
  0
SEQEND
  5
457
330
452
100
AcDbEntity
  8
Layer 1
370
     0
  0
HATCH
  5
458
330
1F
100
AcDbEntity
  8
Layer 1
 62
     5
420
      255
100
AcDbHatch
 10
0.0
 20
0.0
 30
0.0
210
0.0
220
0.0
230
1.0
  2
SOLID
 70
     1
 71
     0
 91
        1
 92
        1
 93
        3
 72
     1
 10
65.40710693443664
 20
26.19743887948817
 11
65.6161185740043
 21
26.36462784607681
 72
     1
 10
65.6161185740043
 20
26.36462784607681
 11
65.44890926235017
 21
26.36462784607681
 72
     1
 10
65.44890926235017
 20
26.36462784607681
 11
65.40710693443664
 21
26.19743887948817
 97
        0
 75
     2
 76
     1
 98
        0
  0
POLYLINE
  5
459
330
1F
100
AcDbEntity
  8
Layer 1
370
     0
100
AcDb2dPolyline
 66
     1
 10
0.0
 20
0.0
 30
0.0
  0
VERTEX
  5
45A
330
459
100
AcDbEntity
  8
Layer 1
370
     0
100
AcDbVertex
100
AcDb2dVertex
 10
65.40710693443664
 20
26.19743887948817
 30
0.0
  0
VERTEX
  5
45B
330
459
100
AcDbEntity
  8
Layer 1
370
     0
100
AcDbVertex
100
AcDb2dVertex
 10
65.40710693443664
 20
26.19743887948817
 30
0.0
  0
VERTEX
  5
45C
330
459
100
AcDbEntity
  8
Layer 1
370
     0
100
AcDbVertex
100
AcDb2dVertex
 10
65.6161185740043
 20
26.36462784607681
 30
0.0
  0
VERTEX
  5
45D
330
459
100
AcDbEntity
  8
Layer 1
370
     0
100
AcDbVertex
100
AcDb2dVertex
 10
65.44890926235017
 20
26.36462784607681
 30
0.0
  0
SEQEND
  5
45E
330
459
100
AcDbEntity
  8
Layer 1
370
     0
  0
POLYLINE
  5
45F
330
1F
100
AcDbEntity
  8
Layer 1
 62
     5
420
      255
370
     5
100
AcDb2dPolyline
 66
     1
 10
0.0
 20
0.0
 30
0.0
  0
VERTEX
  5
460
330
45F
100
AcDbEntity
  8
Layer 1
 62
     5
420
      255
370
     5
100
AcDbVertex
100
AcDb2dVertex
 10
65.6161185740043
 20
27.03340405749687
 30
0.0
  0
VERTEX
  5
461
330
45F
100
AcDbEntity
  8
Layer 1
 62
     5
420
      255
370
     5
100
AcDbVertex
100
AcDb2dVertex
 10
65.6161185740043
 20
15.7278613916161
 30
0.0
  0
SEQEND
  5
462
330
45F
100
AcDbEntity
  8
Layer 1
370
     5
  0
POLYLINE
  5
463
330
1F
100
AcDbEntity
  8
Layer 1
 62
     5
420
      255
370
     5
100
AcDb2dPolyline
 66
     1
 10
0.0
 20
0.0
 30
0.0
  0
VERTEX
  5
464
330
463
100
AcDbEntity
  8
Layer 1
 62
     5
420
      255
370
     5
100
AcDbVertex
100
AcDb2dVertex
 10
65.6161185740043
 20
2.471735570944513
 30
0.0
  0
VERTEX
  5
465
330
463
100
AcDbEntity
  8
Layer 1
 62
     5
420
      255
370
     5
100
AcDbVertex
100
AcDb2dVertex
 10
65.40710693443664
 20
3.307700748953216
 30
0.0
  0
SEQEND
  5
466
330
463
100
AcDbEntity
  8
Layer 1
370
     5
  0
POLYLINE
  5
467
330
1F
100
AcDbEntity
  8
Layer 1
 62
     5
420
      255
370
     5
100
AcDb2dPolyline
 66
     1
 10
0.0
 20
0.0
 30
0.0
  0
VERTEX
  5
468
330
467
100
AcDbEntity
  8
Layer 1
 62
     5
420
      255
370
     5
100
AcDbVertex
100
AcDb2dVertex
 10
65.40710693443664
 20
3.307700748953216
 30
0.0
  0
VERTEX
  5
469
330
467
100
AcDbEntity
  8
Layer 1
 62
     5
420
      255
370
     5
100
AcDbVertex
100
AcDb2dVertex
 10
65.6161185740043
 20
3.140505000676076
 30
0.0
  0
SEQEND
  5
46A
330
467
100
AcDbEntity
  8
Layer 1
370
     5
  0
POLYLINE
  5
46B
330
1F
100
AcDbEntity
  8
Layer 1
 62
     5
420
      255
370
     5
100
AcDb2dPolyline
 66
     1
 10
0.0
 20
0.0
 30
0.0
  0
VERTEX
  5
46C
330
46B
100
AcDbEntity
  8
Layer 1
 62
     5
420
      255
370
     5
100
AcDbVertex
100
AcDb2dVertex
 10
65.6161185740043
 20
3.140505000676076
 30
0.0
  0
VERTEX
  5
46D
330
46B
100
AcDbEntity
  8
Layer 1
 62
     5
420
      255
370
     5
100
AcDbVertex
100
AcDb2dVertex
 10
65.82513021357198
 20
3.307700748953216
 30
0.0
  0
SEQEND
  5
46E
330
46B
100
AcDbEntity
  8
Layer 1
370
     5
  0
POLYLINE
  5
46F
330
1F
100
AcDbEntity
  8
Layer 1
 62
     5
420
      255
370
     5
100
AcDb2dPolyline
 66
     1
 10
0.0
 20
0.0
 30
0.0
  0
VERTEX
  5
470
330
46F
100
AcDbEntity
  8
Layer 1
 62
     5
420
      255
370
     5
100
AcDbVertex
100
AcDb2dVertex
 10
65.82513021357198
 20
3.307700748953216
 30
0.0
  0
VERTEX
  5
471
330
46F
100
AcDbEntity
  8
Layer 1
 62
     5
420
      255
370
     5
100
AcDbVertex
100
AcDb2dVertex
 10
65.6161185740043
 20
2.471735570944513
 30
0.0
  0
SEQEND
  5
472
330
46F
100
AcDbEntity
  8
Layer 1
370
     5
  0
POLYLINE
  5
473
330
1F
100
AcDbEntity
  8
Layer 1
370
     0
100
AcDb2dPolyline
 66
     1
 10
0.0
 20
0.0
 30
0.0
  0
VERTEX
  5
474
330
473
100
AcDbEntity
  8
Layer 1
370
     0
100
AcDbVertex
100
AcDb2dVertex
 10
65.6161185740043
 20
3.140505000676076
 30
0.0
  0
VERTEX
  5
475
330
473
100
AcDbEntity
  8
Layer 1
370
     0
100
AcDbVertex
100
AcDb2dVertex
 10
65.78332788565845
 20
3.140505000676076
 30
0.0
  0
VERTEX
  5
476
330
473
100
AcDbEntity
  8
Layer 1
370
     0
100
AcDbVertex
100
AcDb2dVertex
 10
65.82513021357198
 20
3.307700748953216
 30
0.0
  0
SEQEND
  5
477
330
473
100
AcDbEntity
  8
Layer 1
370
     0
  0
HATCH
  5
478
330
1F
100
AcDbEntity
  8
Layer 1
 62
     5
420
      255
100
AcDbHatch
 10
0.0
 20
0.0
 30
0.0
210
0.0
220
0.0
230
1.0
  2
SOLID
 70
     1
 71
     0
 91
        1
 92
        1
 93
        3
 72
     1
 10
65.6161185740043
 20
3.140505000676076
 11
65.78332788565845
 21
3.140505000676076
 72
     1
 10
65.78332788565845
 20
3.140505000676076
 11
65.82513021357198
 21
3.307700748953216
 72
     1
 10
65.82513021357198
 20
3.307700748953216
 11
65.6161185740043
 21
3.140505000676076
 97
        0
 75
     2
 76
     1
 98
        0
  0
POLYLINE
  5
479
330
1F
100
AcDbEntity
  8
Layer 1
370
     0
100
AcDb2dPolyline
 66
     1
 10
0.0
 20
0.0
 30
0.0
  0
VERTEX
  5
47A
330
479
100
AcDbEntity
  8
Layer 1
370
     0
100
AcDbVertex
100
AcDb2dVertex
 10
65.6161185740043
 20
3.140505000676076
 30
0.0
  0
VERTEX
  5
47B
330
479
100
AcDbEntity
  8
Layer 1
370
     0
100
AcDbVertex
100
AcDb2dVertex
 10
65.78332788565845
 20
3.140505000676076
 30
0.0
  0
VERTEX
  5
47C
330
479
100
AcDbEntity
  8
Layer 1
370
     0
100
AcDbVertex
100
AcDb2dVertex
 10
65.82513021357198
 20
3.307700748953216
 30
0.0
  0
SEQEND
  5
47D
330
479
100
AcDbEntity
  8
Layer 1
370
     0
  0
POLYLINE
  5
47E
330
1F
100
AcDbEntity
  8
Layer 1
370
     0
100
AcDb2dPolyline
 66
     1
 10
0.0
 20
0.0
 30
0.0
  0
VERTEX
  5
47F
330
47E
100
AcDbEntity
  8
Layer 1
370
     0
100
AcDbVertex
100
AcDb2dVertex
 10
65.44890926235017
 20
3.140505000676076
 30
0.0
  0
VERTEX
  5
480
330
47E
100
AcDbEntity
  8
Layer 1
370
     0
100
AcDbVertex
100
AcDb2dVertex
 10
65.6161185740043
 20
3.140505000676076
 30
0.0
  0
VERTEX
  5
481
330
47E
100
AcDbEntity
  8
Layer 1
370
     0
100
AcDbVertex
100
AcDb2dVertex
 10
65.40710693443664
 20
3.307700748953216
 30
0.0
  0
SEQEND
  5
482
330
47E
100
AcDbEntity
  8
Layer 1
370
     0
  0
HATCH
  5
483
330
1F
100
AcDbEntity
  8
Layer 1
 62
     5
420
      255
100
AcDbHatch
 10
0.0
 20
0.0
 30
0.0
210
0.0
220
0.0
230
1.0
  2
SOLID
 70
     1
 71
     0
 91
        1
 92
        1
 93
        3
 72
     1
 10
65.44890926235017
 20
3.140505000676076
 11
65.6161185740043
 21
3.140505000676076
 72
     1
 10
65.6161185740043
 20
3.140505000676076
 11
65.40710693443664
 21
3.307700748953216
 72
     1
 10
65.40710693443664
 20
3.307700748953216
 11
65.44890926235017
 21
3.140505000676076
 97
        0
 75
     2
 76
     1
 98
        0
  0
POLYLINE
  5
484
330
1F
100
AcDbEntity
  8
Layer 1
370
     0
100
AcDb2dPolyline
 66
     1
 10
0.0
 20
0.0
 30
0.0
  0
VERTEX
  5
485
330
484
100
AcDbEntity
  8
Layer 1
370
     0
100
AcDbVertex
100
AcDb2dVertex
 10
65.44890926235017
 20
3.140505000676076
 30
0.0
  0
VERTEX
  5
486
330
484
100
AcDbEntity
  8
Layer 1
370
     0
100
AcDbVertex
100
AcDb2dVertex
 10
65.6161185740043
 20
3.140505000676076
 30
0.0
  0
VERTEX
  5
487
330
484
100
AcDbEntity
  8
Layer 1
370
     0
100
AcDbVertex
100
AcDb2dVertex
 10
65.40710693443664
 20
3.307700748953216
 30
0.0
  0
SEQEND
  5
488
330
484
100
AcDbEntity
  8
Layer 1
370
     0
  0
POLYLINE
  5
489
330
1F
100
AcDbEntity
  8
Layer 1
370
     0
100
AcDb2dPolyline
 66
     1
 10
0.0
 20
0.0
 30
0.0
  0
VERTEX
  5
48A
330
489
100
AcDbEntity
  8
Layer 1
370
     0
100
AcDbVertex
100
AcDb2dVertex
 10
65.6161185740043
 20
2.471735570944513
 30
0.0
  0
VERTEX
  5
48B
330
489
100
AcDbEntity
  8
Layer 1
370
     0
100
AcDbVertex
100
AcDb2dVertex
 10
65.6161185740043
 20
2.471735570944513
 30
0.0
  0
VERTEX
  5
48C
330
489
100
AcDbEntity
  8
Layer 1
370
     0
100
AcDbVertex
100
AcDb2dVertex
 10
65.78332788565845
 20
3.140505000676076
 30
0.0
  0
VERTEX
  5
48D
330
489
100
AcDbEntity
  8
Layer 1
370
     0
100
AcDbVertex
100
AcDb2dVertex
 10
65.44890926235017
 20
3.140505000676076
 30
0.0
  0
SEQEND
  5
48E
330
489
100
AcDbEntity
  8
Layer 1
370
     0
  0
HATCH
  5
48F
330
1F
100
AcDbEntity
  8
Layer 1
 62
     5
420
      255
100
AcDbHatch
 10
0.0
 20
0.0
 30
0.0
210
0.0
220
0.0
230
1.0
  2
SOLID
 70
     1
 71
     0
 91
        1
 92
        1
 93
        3
 72
     1
 10
65.6161185740043
 20
2.471735570944513
 11
65.78332788565845
 21
3.140505000676076
 72
     1
 10
65.78332788565845
 20
3.140505000676076
 11
65.44890926235017
 21
3.140505000676076
 72
     1
 10
65.44890926235017
 20
3.140505000676076
 11
65.6161185740043
 21
2.471735570944513
 97
        0
 75
     2
 76
     1
 98
        0
  0
POLYLINE
  5
490
330
1F
100
AcDbEntity
  8
Layer 1
370
     0
100
AcDb2dPolyline
 66
     1
 10
0.0
 20
0.0
 30
0.0
  0
VERTEX
  5
491
330
490
100
AcDbEntity
  8
Layer 1
370
     0
100
AcDbVertex
100
AcDb2dVertex
 10
65.6161185740043
 20
2.471735570944513
 30
0.0
  0
VERTEX
  5
492
330
490
100
AcDbEntity
  8
Layer 1
370
     0
100
AcDbVertex
100
AcDb2dVertex
 10
65.6161185740043
 20
2.471735570944513
 30
0.0
  0
VERTEX
  5
493
330
490
100
AcDbEntity
  8
Layer 1
370
     0
100
AcDbVertex
100
AcDb2dVertex
 10
65.78332788565845
 20
3.140505000676076
 30
0.0
  0
VERTEX
  5
494
330
490
100
AcDbEntity
  8
Layer 1
370
     0
100
AcDbVertex
100
AcDb2dVertex
 10
65.44890926235017
 20
3.140505000676076
 30
0.0
  0
SEQEND
  5
495
330
490
100
AcDbEntity
  8
Layer 1
370
     0
  0
POLYLINE
  5
496
330
1F
100
AcDbEntity
  8
Layer 1
 62
     5
420
      255
370
     5
100
AcDb2dPolyline
 66
     1
 10
0.0
 20
0.0
 30
0.0
  0
VERTEX
  5
497
330
496
100
AcDbEntity
  8
Layer 1
 62
     5
420
      255
370
     5
100
AcDbVertex
100
AcDb2dVertex
 10
65.6161185740043
 20
2.471735570944513
 30
0.0
  0
VERTEX
  5
498
330
496
100
AcDbEntity
  8
Layer 1
 62
     5
420
      255
370
     5
100
AcDbVertex
100
AcDb2dVertex
 10
65.6161185740043
 20
13.77727145513679
 30
0.0
  0
SEQEND
  5
499
330
496
100
AcDbEntity
  8
Layer 1
370
     5
  0
MTEXT
  5
49A
330
1F
100
AcDbEntity
  8
Layer 1
 62
     5
420
      255
100
AcDbMText
 10
62.75530397044212
 20
14.40845676720177
 30
0.0
 40
0.6545648779924884
 41
0.0
 71
     7
 72
     1
  1
\fArial|b0|i0|c0|p34;\W1;2
 73
     1
 44
1.0
  0
MTEXT
  5
49B
330
1F
100
AcDbEntity
  8
Layer 1
 62
     5
420
      255
100
AcDbMText
 10
63.30028045829606
 20
14.40845676720177
 30
0.0
 40
0.6545648779924884
 41
0.0
 71
     7
 72
     1
  1
\fArial|b0|i0|c0|p34;\W1;4
 73
     1
 44
1.0
  0
MTEXT
  5
49C
330
1F
100
AcDbEntity
  8
Layer 1
 62
     5
420
      255
100
AcDbMText
 10
63.84525694615
 20
14.6216866170164
 30
0.0
 40
0.6545648779924884
 41
0.0
 71
     7
 72
     1
  1
\fArial|b0|i0|c0|p34;\W1;9
 73
     1
 44
1.0
  0
POLYLINE
  5
49D
330
1F
100
AcDbEntity
  8
Layer 1
 62
     5
420
      255
370
    13
100
AcDb2dPolyline
 66
     1
 10
0.0
 20
0.0
 30
0.0
  0
VERTEX
  5
49E
330
49D
100
AcDbEntity
  8
Layer 1
 62
     5
420
      255
370
    13
100
AcDbVertex
100
AcDb2dVertex
 10
64.15328123781657
 20
14.41146783689574
 30
0.0
  0
VERTEX
  5
49F
330
49D
100
AcDbEntity
  8
Layer 1
 62
     5
420
      255
370
    13
100
AcDbVertex
100
AcDb2dVertex
 10
64.5827520071398
 20
15.31181158383422
 30
0.0
  0
SEQEND
  5
4A0
330
49D
100
AcDbEntity
  8
Layer 1
370
    13
  0
MTEXT
  5
4A1
330
1F
100
AcDbEntity
  8
Layer 1
 62
     5
420
      255
100
AcDbMText
 10
64.46427590904612
 20
14.40845676720177
 30
0.0
 40
0.6545648779924884
 41
0.0
 71
     7
 72
     1
  1
\fArial|b0|i0|c0|p34;\W1;1
 73
     1
 44
1.0
  0
MTEXT
  5
4A2
330
1F
100
AcDbEntity
  8
Layer 1
 62
     5
420
      255
100
AcDbMText
 10
64.86708107918764
 20
14.40845676720177
 30
0.0
 40
0.6545648779924884
 41
0.0
 71
     7
 72
     1
  1
\fArial|b0|i0|c0|p34;\W1;6
 73
     1
 44
1.0
  0
MTEXT
  5
4A3
330
1F
100
AcDbEntity
  8
Layer 1
 62
     5
420
      255
100
AcDbMText
 10
65.554228884754
 20
14.40845676720177
 30
0.0
 40
0.6545648779924884
 41
0.0
 71
     7
 72
     1
  1
\fArial|b0|i0|c0|p34;\W1;C
 73
     1
 44
1.0
  0
MTEXT
  5
4A4
330
1F
100
AcDbEntity
  8
Layer 1
 62
     5
420
      255
100
AcDbMText
 10
66.2650719099391
 20
14.40845676720177
 30
0.0
 40
0.6545648779924884
 41
0.0
 71
     7
 72
     1
  1
\fArial|b0|i0|c0|p34;\W1;O
 73
     1
 44
1.0
  0
MTEXT
  5
4A5
330
1F
100
AcDbEntity
  8
Layer 1
 62
     5
420
      255
100
AcDbMText
 10
67.04995741016637
 20
14.40845676720177
 30
0.0
 40
0.6545648779924884
 41
0.0
 71
     7
 72
     1
  1
\fArial|b0|i0|c0|p34;\W1;R
 73
     1
 44
1.0
  0
MTEXT
  5
4A6
330
1F
100
AcDbEntity
  8
Layer 1
 62
     5
420
      255
100
AcDbMText
 10
67.76078687197446
 20
14.40845676720177
 30
0.0
 40
0.6545648779924884
 41
0.0
 71
     7
 72
     1
  1
\fArial|b0|i0|c0|p34;\W1;R
 73
     1
 44
1.0
  0
POLYLINE
  5
4A7
330
1F
100
AcDbEntity
  8
Layer 1
 62
     5
420
      255
370
     5
100
AcDb2dPolyline
 66
     1
 10
0.0
 20
0.0
 30
0.0
  0
VERTEX
  5
4A8
330
4A7
100
AcDbEntity
  8
Layer 1
 62
     5
420
      255
370
     5
100
AcDbVertex
100
AcDb2dVertex
 10
60.18024259351276
 20
11.17114994487777
 30
0.0
  0
VERTEX
  5
4A9
330
4A7
100
AcDbEntity
  8
Layer 1
 62
     5
420
      255
370
     5
100
AcDbVertex
100
AcDb2dVertex
 10
60.18024259351276
 20
0.4875084595055786
 30
0.0
  0
SEQEND
  5
4AA
330
4A7
100
AcDbEntity
  8
Layer 1
370
     5
  0
POLYLINE
  5
4AB
330
1F
100
AcDbEntity
  8
Layer 1
 62
     5
420
      255
370
     5
100
AcDb2dPolyline
 66
     1
 10
0.0
 20
0.0
 30
0.0
  0
VERTEX
  5
4AC
330
4AB
100
AcDbEntity
  8
Layer 1
 62
     5
420
      255
370
     5
100
AcDbVertex
100
AcDb2dVertex
 10
43.99237927094678
 20
9.794643503294077
 30
0.0
  0
VERTEX
  5
4AD
330
4AB
100
AcDbEntity
  8
Layer 1
 62
     5
420
      255
370
     5
100
AcDbVertex
100
AcDb2dVertex
 10
43.99237927094678
 20
0.4875084595055786
 30
0.0
  0
SEQEND
  5
4AE
330
4AB
100
AcDbEntity
  8
Layer 1
370
     5
  0
POLYLINE
  5
4AF
330
1F
100
AcDbEntity
  8
Layer 1
 62
     5
420
      255
370
     5
100
AcDb2dPolyline
 66
     1
 10
0.0
 20
0.0
 30
0.0
  0
VERTEX
  5
4B0
330
4AF
100
AcDbEntity
  8
Layer 1
 62
     5
420
      255
370
     5
100
AcDbVertex
100
AcDb2dVertex
 10
43.99237927094678
 20
0.8054882698900425
 30
0.0
  0
VERTEX
  5
4B1
330
4AF
100
AcDbEntity
  8
Layer 1
 62
     5
420
      255
370
     5
100
AcDbVertex
100
AcDb2dVertex
 10
44.78735592366194
 20
1.004218869691832
 30
0.0
  0
SEQEND
  5
4B2
330
4AF
100
AcDbEntity
  8
Layer 1
370
     5
  0
POLYLINE
  5
4B3
330
1F
100
AcDbEntity
  8
Layer 1
 62
     5
420
      255
370
     5
100
AcDb2dPolyline
 66
     1
 10
0.0
 20
0.0
 30
0.0
  0
VERTEX
  5
4B4
330
4B3
100
AcDbEntity
  8
Layer 1
 62
     5
420
      255
370
     5
100
AcDbVertex
100
AcDb2dVertex
 10
44.78735592366194
 20
1.004218869691832
 30
0.0
  0
VERTEX
  5
4B5
330
4B3
100
AcDbEntity
  8
Layer 1
 62
     5
420
      255
370
     5
100
AcDbVertex
100
AcDb2dVertex
 10
44.62836601846971
 20
0.8054882698900425
 30
0.0
  0
SEQEND
  5
4B6
330
4B3
100
AcDbEntity
  8
Layer 1
370
     5
  0
POLYLINE
  5
4B7
330
1F
100
AcDbEntity
  8
Layer 1
 62
     5
420
      255
370
     5
100
AcDb2dPolyline
 66
     1
 10
0.0
 20
0.0
 30
0.0
  0
VERTEX
  5
4B8
330
4B7
100
AcDbEntity
  8
Layer 1
 62
     5
420
      255
370
     5
100
AcDbVertex
100
AcDb2dVertex
 10
44.62836601846971
 20
0.8054882698900425
 30
0.0
  0
VERTEX
  5
4B9
330
4B7
100
AcDbEntity
  8
Layer 1
 62
     5
420
      255
370
     5
100
AcDbVertex
100
AcDb2dVertex
 10
44.78735592366194
 20
0.6067576700882525
 30
0.0
  0
SEQEND
  5
4BA
330
4B7
100
AcDbEntity
  8
Layer 1
370
     5
  0
POLYLINE
  5
4BB
330
1F
100
AcDbEntity
  8
Layer 1
 62
     5
420
      255
370
     5
100
AcDb2dPolyline
 66
     1
 10
0.0
 20
0.0
 30
0.0
  0
VERTEX
  5
4BC
330
4BB
100
AcDbEntity
  8
Layer 1
 62
     5
420
      255
370
     5
100
AcDbVertex
100
AcDb2dVertex
 10
44.78735592366194
 20
0.6067576700882525
 30
0.0
  0
VERTEX
  5
4BD
330
4BB
100
AcDbEntity
  8
Layer 1
 62
     5
420
      255
370
     5
100
AcDbVertex
100
AcDb2dVertex
 10
43.99237927094678
 20
0.8054882698900425
 30
0.0
  0
SEQEND
  5
4BE
330
4BB
100
AcDbEntity
  8
Layer 1
370
     5
  0
POLYLINE
  5
4BF
330
1F
100
AcDbEntity
  8
Layer 1
370
     0
100
AcDb2dPolyline
 66
     1
 10
0.0
 20
0.0
 30
0.0
  0
VERTEX
  5
4C0
330
4BF
100
AcDbEntity
  8
Layer 1
370
     0
100
AcDbVertex
100
AcDb2dVertex
 10
43.99237927094678
 20
0.8054882698900425
 30
0.0
  0
VERTEX
  5
4C1
330
4BF
100
AcDbEntity
  8
Layer 1
370
     0
100
AcDbVertex
100
AcDb2dVertex
 10
44.62836601846971
 20
0.8054882698900425
 30
0.0
  0
VERTEX
  5
4C2
330
4BF
100
AcDbEntity
  8
Layer 1
370
     0
100
AcDbVertex
100
AcDb2dVertex
 10
44.78735592366194
 20
1.004218869691832
 30
0.0
  0
SEQEND
  5
4C3
330
4BF
100
AcDbEntity
  8
Layer 1
370
     0
  0
HATCH
  5
4C4
330
1F
100
AcDbEntity
  8
Layer 1
 62
     5
420
      255
100
AcDbHatch
 10
0.0
 20
0.0
 30
0.0
210
0.0
220
0.0
230
1.0
  2
SOLID
 70
     1
 71
     0
 91
        1
 92
        1
 93
        3
 72
     1
 10
43.99237927094678
 20
0.8054882698900425
 11
44.62836601846971
 21
0.8054882698900425
 72
     1
 10
44.62836601846971
 20
0.8054882698900425
 11
44.78735592366194
 21
1.004218869691832
 72
     1
 10
44.78735592366194
 20
1.004218869691832
 11
43.99237927094678
 21
0.8054882698900425
 97
        0
 75
     2
 76
     1
 98
        0
  0
POLYLINE
  5
4C5
330
1F
100
AcDbEntity
  8
Layer 1
370
     0
100
AcDb2dPolyline
 66
     1
 10
0.0
 20
0.0
 30
0.0
  0
VERTEX
  5
4C6
330
4C5
100
AcDbEntity
  8
Layer 1
370
     0
100
AcDbVertex
100
AcDb2dVertex
 10
43.99237927094678
 20
0.8054882698900425
 30
0.0
  0
VERTEX
  5
4C7
330
4C5
100
AcDbEntity
  8
Layer 1
370
     0
100
AcDbVertex
100
AcDb2dVertex
 10
44.62836601846971
 20
0.8054882698900425
 30
0.0
  0
VERTEX
  5
4C8
330
4C5
100
AcDbEntity
  8
Layer 1
370
     0
100
AcDbVertex
100
AcDb2dVertex
 10
44.78735592366194
 20
1.004218869691832
 30
0.0
  0
SEQEND
  5
4C9
330
4C5
100
AcDbEntity
  8
Layer 1
370
     0
  0
POLYLINE
  5
4CA
330
1F
100
AcDbEntity
  8
Layer 1
370
     0
100
AcDb2dPolyline
 66
     1
 10
0.0
 20
0.0
 30
0.0
  0
VERTEX
  5
4CB
330
4CA
100
AcDbEntity
  8
Layer 1
370
     0
100
AcDbVertex
100
AcDb2dVertex
 10
44.78735592366194
 20
0.6067576700882525
 30
0.0
  0
VERTEX
  5
4CC
330
4CA
100
AcDbEntity
  8
Layer 1
370
     0
100
AcDbVertex
100
AcDb2dVertex
 10
44.78735592366194
 20
0.6067576700882525
 30
0.0
  0
VERTEX
  5
4CD
330
4CA
100
AcDbEntity
  8
Layer 1
370
     0
100
AcDbVertex
100
AcDb2dVertex
 10
44.62836601846971
 20
0.8054882698900425
 30
0.0
  0
VERTEX
  5
4CE
330
4CA
100
AcDbEntity
  8
Layer 1
370
     0
100
AcDbVertex
100
AcDb2dVertex
 10
43.99237927094678
 20
0.8054882698900425
 30
0.0
  0
SEQEND
  5
4CF
330
4CA
100
AcDbEntity
  8
Layer 1
370
     0
  0
HATCH
  5
4D0
330
1F
100
AcDbEntity
  8
Layer 1
 62
     5
420
      255
100
AcDbHatch
 10
0.0
 20
0.0
 30
0.0
210
0.0
220
0.0
230
1.0
  2
SOLID
 70
     1
 71
     0
 91
        1
 92
        1
 93
        3
 72
     1
 10
44.78735592366194
 20
0.6067576700882525
 11
44.62836601846971
 21
0.8054882698900425
 72
     1
 10
44.62836601846971
 20
0.8054882698900425
 11
43.99237927094678
 21
0.8054882698900425
 72
     1
 10
43.99237927094678
 20
0.8054882698900425
 11
44.78735592366194
 21
0.6067576700882525
 97
        0
 75
     2
 76
     1
 98
        0
  0
POLYLINE
  5
4D1
330
1F
100
AcDbEntity
  8
Layer 1
370
     0
100
AcDb2dPolyline
 66
     1
 10
0.0
 20
0.0
 30
0.0
  0
VERTEX
  5
4D2
330
4D1
100
AcDbEntity
  8
Layer 1
370
     0
100
AcDbVertex
100
AcDb2dVertex
 10
44.78735592366194
 20
0.6067576700882525
 30
0.0
  0
VERTEX
  5
4D3
330
4D1
100
AcDbEntity
  8
Layer 1
370
     0
100
AcDbVertex
100
AcDb2dVertex
 10
44.78735592366194
 20
0.6067576700882525
 30
0.0
  0
VERTEX
  5
4D4
330
4D1
100
AcDbEntity
  8
Layer 1
370
     0
100
AcDbVertex
100
AcDb2dVertex
 10
44.62836601846971
 20
0.8054882698900425
 30
0.0
  0
VERTEX
  5
4D5
330
4D1
100
AcDbEntity
  8
Layer 1
370
     0
100
AcDbVertex
100
AcDb2dVertex
 10
43.99237927094678
 20
0.8054882698900425
 30
0.0
  0
SEQEND
  5
4D6
330
4D1
100
AcDbEntity
  8
Layer 1
370
     0
  0
POLYLINE
  5
4D7
330
1F
100
AcDbEntity
  8
Layer 1
 62
     5
420
      255
370
     5
100
AcDb2dPolyline
 66
     1
 10
0.0
 20
0.0
 30
0.0
  0
VERTEX
  5
4D8
330
4D7
100
AcDbEntity
  8
Layer 1
 62
     5
420
      255
370
     5
100
AcDbVertex
100
AcDb2dVertex
 10
43.99237927094678
 20
0.8054882698900425
 30
0.0
  0
VERTEX
  5
4D9
330
4D7
100
AcDbEntity
  8
Layer 1
 62
     5
420
      255
370
     5
100
AcDbVertex
100
AcDb2dVertex
 10
50.36103581447195
 20
0.8054882698900425
 30
0.0
  0
SEQEND
  5
4DA
330
4D7
100
AcDbEntity
  8
Layer 1
370
     5
  0
POLYLINE
  5
4DB
330
1F
100
AcDbEntity
  8
Layer 1
 62
     5
420
      255
370
     5
100
AcDb2dPolyline
 66
     1
 10
0.0
 20
0.0
 30
0.0
  0
VERTEX
  5
4DC
330
4DB
100
AcDbEntity
  8
Layer 1
 62
     5
420
      255
370
     5
100
AcDbVertex
100
AcDb2dVertex
 10
60.18024259351276
 20
0.8054882698900425
 30
0.0
  0
VERTEX
  5
4DD
330
4DB
100
AcDbEntity
  8
Layer 1
 62
     5
420
      255
370
     5
100
AcDbVertex
100
AcDb2dVertex
 10
59.3852659407976
 20
0.6067576700882525
 30
0.0
  0
SEQEND
  5
4DE
330
4DB
100
AcDbEntity
  8
Layer 1
370
     5
  0
POLYLINE
  5
4DF
330
1F
100
AcDbEntity
  8
Layer 1
 62
     5
420
      255
370
     5
100
AcDb2dPolyline
 66
     1
 10
0.0
 20
0.0
 30
0.0
  0
VERTEX
  5
4E0
330
4DF
100
AcDbEntity
  8
Layer 1
 62
     5
420
      255
370
     5
100
AcDbVertex
100
AcDb2dVertex
 10
59.3852659407976
 20
0.6067576700882525
 30
0.0
  0
VERTEX
  5
4E1
330
4DF
100
AcDbEntity
  8
Layer 1
 62
     5
420
      255
370
     5
100
AcDbVertex
100
AcDb2dVertex
 10
59.54425584598983
 20
0.8054882698900425
 30
0.0
  0
SEQEND
  5
4E2
330
4DF
100
AcDbEntity
  8
Layer 1
370
     5
  0
POLYLINE
  5
4E3
330
1F
100
AcDbEntity
  8
Layer 1
 62
     5
420
      255
370
     5
100
AcDb2dPolyline
 66
     1
 10
0.0
 20
0.0
 30
0.0
  0
VERTEX
  5
4E4
330
4E3
100
AcDbEntity
  8
Layer 1
 62
     5
420
      255
370
     5
100
AcDbVertex
100
AcDb2dVertex
 10
59.54425584598983
 20
0.8054882698900425
 30
0.0
  0
VERTEX
  5
4E5
330
4E3
100
AcDbEntity
  8
Layer 1
 62
     5
420
      255
370
     5
100
AcDbVertex
100
AcDb2dVertex
 10
59.3852659407976
 20
1.004218869691832
 30
0.0
  0
SEQEND
  5
4E6
330
4E3
100
AcDbEntity
  8
Layer 1
370
     5
  0
POLYLINE
  5
4E7
330
1F
100
AcDbEntity
  8
Layer 1
 62
     5
420
      255
370
     5
100
AcDb2dPolyline
 66
     1
 10
0.0
 20
0.0
 30
0.0
  0
VERTEX
  5
4E8
330
4E7
100
AcDbEntity
  8
Layer 1
 62
     5
420
      255
370
     5
100
AcDbVertex
100
AcDb2dVertex
 10
59.3852659407976
 20
1.004218869691832
 30
0.0
  0
VERTEX
  5
4E9
330
4E7
100
AcDbEntity
  8
Layer 1
 62
     5
420
      255
370
     5
100
AcDbVertex
100
AcDb2dVertex
 10
60.18024259351276
 20
0.8054882698900425
 30
0.0
  0
SEQEND
  5
4EA
330
4E7
100
AcDbEntity
  8
Layer 1
370
     5
  0
POLYLINE
  5
4EB
330
1F
100
AcDbEntity
  8
Layer 1
370
     0
100
AcDb2dPolyline
 66
     1
 10
0.0
 20
0.0
 30
0.0
  0
VERTEX
  5
4EC
330
4EB
100
AcDbEntity
  8
Layer 1
370
     0
100
AcDbVertex
100
AcDb2dVertex
 10
59.54425584598983
 20
0.8054882698900425
 30
0.0
  0
VERTEX
  5
4ED
330
4EB
100
AcDbEntity
  8
Layer 1
370
     0
100
AcDbVertex
100
AcDb2dVertex
 10
60.18024259351276
 20
0.8054882698900425
 30
0.0
  0
VERTEX
  5
4EE
330
4EB
100
AcDbEntity
  8
Layer 1
370
     0
100
AcDbVertex
100
AcDb2dVertex
 10
59.3852659407976
 20
1.004218869691832
 30
0.0
  0
SEQEND
  5
4EF
330
4EB
100
AcDbEntity
  8
Layer 1
370
     0
  0
HATCH
  5
4F0
330
1F
100
AcDbEntity
  8
Layer 1
 62
     5
420
      255
100
AcDbHatch
 10
0.0
 20
0.0
 30
0.0
210
0.0
220
0.0
230
1.0
  2
SOLID
 70
     1
 71
     0
 91
        1
 92
        1
 93
        3
 72
     1
 10
59.54425584598983
 20
0.8054882698900425
 11
60.18024259351276
 21
0.8054882698900425
 72
     1
 10
60.18024259351276
 20
0.8054882698900425
 11
59.3852659407976
 21
1.004218869691832
 72
     1
 10
59.3852659407976
 20
1.004218869691832
 11
59.54425584598983
 21
0.8054882698900425
 97
        0
 75
     2
 76
     1
 98
        0
  0
POLYLINE
  5
4F1
330
1F
100
AcDbEntity
  8
Layer 1
370
     0
100
AcDb2dPolyline
 66
     1
 10
0.0
 20
0.0
 30
0.0
  0
VERTEX
  5
4F2
330
4F1
100
AcDbEntity
  8
Layer 1
370
     0
100
AcDbVertex
100
AcDb2dVertex
 10
59.54425584598983
 20
0.8054882698900425
 30
0.0
  0
VERTEX
  5
4F3
330
4F1
100
AcDbEntity
  8
Layer 1
370
     0
100
AcDbVertex
100
AcDb2dVertex
 10
60.18024259351276
 20
0.8054882698900425
 30
0.0
  0
VERTEX
  5
4F4
330
4F1
100
AcDbEntity
  8
Layer 1
370
     0
100
AcDbVertex
100
AcDb2dVertex
 10
59.3852659407976
 20
1.004218869691832
 30
0.0
  0
SEQEND
  5
4F5
330
4F1
100
AcDbEntity
  8
Layer 1
370
     0
  0
POLYLINE
  5
4F6
330
1F
100
AcDbEntity
  8
Layer 1
370
     0
100
AcDb2dPolyline
 66
     1
 10
0.0
 20
0.0
 30
0.0
  0
VERTEX
  5
4F7
330
4F6
100
AcDbEntity
  8
Layer 1
370
     0
100
AcDbVertex
100
AcDb2dVertex
 10
59.3852659407976
 20
0.6067576700882525
 30
0.0
  0
VERTEX
  5
4F8
330
4F6
100
AcDbEntity
  8
Layer 1
370
     0
100
AcDbVertex
100
AcDb2dVertex
 10
59.3852659407976
 20
0.6067576700882525
 30
0.0
  0
VERTEX
  5
4F9
330
4F6
100
AcDbEntity
  8
Layer 1
370
     0
100
AcDbVertex
100
AcDb2dVertex
 10
60.18024259351276
 20
0.8054882698900425
 30
0.0
  0
VERTEX
  5
4FA
330
4F6
100
AcDbEntity
  8
Layer 1
370
     0
100
AcDbVertex
100
AcDb2dVertex
 10
59.54425584598983
 20
0.8054882698900425
 30
0.0
  0
SEQEND
  5
4FB
330
4F6
100
AcDbEntity
  8
Layer 1
370
     0
  0
HATCH
  5
4FC
330
1F
100
AcDbEntity
  8
Layer 1
 62
     5
420
      255
100
AcDbHatch
 10
0.0
 20
0.0
 30
0.0
210
0.0
220
0.0
230
1.0
  2
SOLID
 70
     1
 71
     0
 91
        1
 92
        1
 93
        3
 72
     1
 10
59.3852659407976
 20
0.6067576700882525
 11
60.18024259351276
 21
0.8054882698900425
 72
     1
 10
60.18024259351276
 20
0.8054882698900425
 11
59.54425584598983
 21
0.8054882698900425
 72
     1
 10
59.54425584598983
 20
0.8054882698900425
 11
59.3852659407976
 21
0.6067576700882525
 97
        0
 75
     2
 76
     1
 98
        0
  0
POLYLINE
  5
4FD
330
1F
100
AcDbEntity
  8
Layer 1
370
     0
100
AcDb2dPolyline
 66
     1
 10
0.0
 20
0.0
 30
0.0
  0
VERTEX
  5
4FE
330
4FD
100
AcDbEntity
  8
Layer 1
370
     0
100
AcDbVertex
100
AcDb2dVertex
 10
59.3852659407976
 20
0.6067576700882525
 30
0.0
  0
VERTEX
  5
4FF
330
4FD
100
AcDbEntity
  8
Layer 1
370
     0
100
AcDbVertex
100
AcDb2dVertex
 10
59.3852659407976
 20
0.6067576700882525
 30
0.0
  0
VERTEX
  5
500
330
4FD
100
AcDbEntity
  8
Layer 1
370
     0
100
AcDbVertex
100
AcDb2dVertex
 10
60.18024259351276
 20
0.8054882698900425
 30
0.0
  0
VERTEX
  5
501
330
4FD
100
AcDbEntity
  8
Layer 1
370
     0
100
AcDbVertex
100
AcDb2dVertex
 10
59.54425584598983
 20
0.8054882698900425
 30
0.0
  0
SEQEND
  5
502
330
4FD
100
AcDbEntity
  8
Layer 1
370
     0
  0
POLYLINE
  5
503
330
1F
100
AcDbEntity
  8
Layer 1
 62
     5
420
      255
370
     5
100
AcDb2dPolyline
 66
     1
 10
0.0
 20
0.0
 30
0.0
  0
VERTEX
  5
504
330
503
100
AcDbEntity
  8
Layer 1
 62
     5
420
      255
370
     5
100
AcDbVertex
100
AcDb2dVertex
 10
60.18024259351276
 20
0.8054882698900425
 30
0.0
  0
VERTEX
  5
505
330
503
100
AcDbEntity
  8
Layer 1
 62
     5
420
      255
370
     5
100
AcDbVertex
100
AcDb2dVertex
 10
53.81158604998758
 20
0.8054882698900425
 30
0.0
  0
SEQEND
  5
506
330
503
100
AcDbEntity
  8
Layer 1
370
     5
  0
MTEXT
  5
507
330
1F
100
AcDbEntity
  8
Layer 1
 62
     5
420
      255
100
AcDbMText
 10
50.89019740474407
 20
0.4767798282986979
 30
0.0
 40
0.6223401719208501
 41
0.0
 71
     7
 72
     1
  1
\fArial|b0|i0|c0|p34;\W1;1
 73
     1
 44
1.0
  0
MTEXT
  5
508
330
1F
100
AcDbEntity
  8
Layer 1
 62
     5
420
      255
100
AcDbMText
 10
51.40852185679331
 20
0.4767798282986979
 30
0.0
 40
0.6223401719208501
 41
0.0
 71
     7
 72
     1
  1
\fArial|b0|i0|c0|p34;\W1;6
 73
     1
 44
1.0
  0
MTEXT
  5
509
330
1F
100
AcDbEntity
  8
Layer 1
 62
     5
420
      255
100
AcDbMText
 10
51.92684630884254
 20
0.6811392295554253
 30
0.0
 40
0.6223401719208501
 41
0.0
 71
     7
 72
     1
  1
\fArial|b0|i0|c0|p34;\W1;3
 73
     1
 44
1.0
  0
POLYLINE
  5
50A
330
1F
100
AcDbEntity
  8
Layer 1
 62
     5
420
      255
370
    13
100
AcDb2dPolyline
 66
     1
 10
0.0
 20
0.0
 30
0.0
  0
VERTEX
  5
50B
330
50A
100
AcDbEntity
  8
Layer 1
 62
     5
420
      255
370
    13
100
AcDbVertex
100
AcDb2dVertex
 10
52.22005939282528
 20
0.4797908979926644
 30
0.0
  0
VERTEX
  5
50C
330
50A
100
AcDbEntity
  8
Layer 1
 62
     5
420
      255
370
    13
100
AcDbVertex
100
AcDb2dVertex
 10
52.62583494252977
 20
1.335707803568146
 30
0.0
  0
SEQEND
  5
50D
330
50A
100
AcDbEntity
  8
Layer 1
370
    13
  0
MTEXT
  5
50E
330
1F
100
AcDbEntity
  8
Layer 1
 62
     5
420
      255
100
AcDbMText
 10
52.51328604018502
 20
0.4767798282986979
 30
0.0
 40
0.6223401719208501
 41
0.0
 71
     7
 72
     1
  1
\fArial|b0|i0|c0|p34;\W1;1
 73
     1
 44
1.0
  0
MTEXT
  5
50F
330
1F
100
AcDbEntity
  8
Layer 1
 62
     5
420
      255
100
AcDbMText
 10
52.89535280689378
 20
0.4767798282986979
 30
0.0
 40
0.6223401719208501
 41
0.0
 71
     7
 72
     1
  1
\fArial|b0|i0|c0|p34;\W1;6
 73
     1
 44
1.0
  0
POLYLINE
  5
510
330
1F
100
AcDbEntity
  8
Layer 1
 62
     5
420
      255
370
     5
100
AcDb2dPolyline
 66
     1
 10
0.0
 20
0.0
 30
0.0
  0
VERTEX
  5
511
330
510
100
AcDbEntity
  8
Layer 1
 62
     5
420
      255
370
     5
100
AcDbVertex
100
AcDb2dVertex
 10
61.80527079186469
 20
11.17114994487777
 30
0.0
  0
VERTEX
  5
512
330
510
100
AcDbEntity
  8
Layer 1
 62
     5
420
      255
370
     5
100
AcDbVertex
100
AcDb2dVertex
 10
61.80527079186469
 20
0.4875084595055786
 30
0.0
  0
SEQEND
  5
513
330
510
100
AcDbEntity
  8
Layer 1
370
     5
  0
POLYLINE
  5
514
330
1F
100
AcDbEntity
  8
Layer 1
 62
     5
420
      255
370
     5
100
AcDb2dPolyline
 66
     1
 10
0.0
 20
0.0
 30
0.0
  0
VERTEX
  5
515
330
514
100
AcDbEntity
  8
Layer 1
 62
     5
420
      255
370
     5
100
AcDbVertex
100
AcDb2dVertex
 10
60.18024259351276
 20
11.17114994487777
 30
0.0
  0
VERTEX
  5
516
330
514
100
AcDbEntity
  8
Layer 1
 62
     5
420
      255
370
     5
100
AcDbVertex
100
AcDb2dVertex
 10
60.18024259351276
 20
0.4875084595055786
 30
0.0
  0
SEQEND
  5
517
330
514
100
AcDbEntity
  8
Layer 1
370
     5
  0
POLYLINE
  5
518
330
1F
100
AcDbEntity
  8
Layer 1
 62
     5
420
      255
370
     5
100
AcDb2dPolyline
 66
     1
 10
0.0
 20
0.0
 30
0.0
  0
VERTEX
  5
519
330
518
100
AcDbEntity
  8
Layer 1
 62
     5
420
      255
370
     5
100
AcDbVertex
100
AcDb2dVertex
 10
60.18024259351276
 20
0.8054882698900425
 30
0.0
  0
VERTEX
  5
51A
330
518
100
AcDbEntity
  8
Layer 1
 62
     5
420
      255
370
     5
100
AcDbVertex
100
AcDb2dVertex
 10
60.97521924622792
 20
1.004218869691832
 30
0.0
  0
SEQEND
  5
51B
330
518
100
AcDbEntity
  8
Layer 1
370
     5
  0
POLYLINE
  5
51C
330
1F
100
AcDbEntity
  8
Layer 1
 62
     5
420
      255
370
     5
100
AcDb2dPolyline
 66
     1
 10
0.0
 20
0.0
 30
0.0
  0
VERTEX
  5
51D
330
51C
100
AcDbEntity
  8
Layer 1
 62
     5
420
      255
370
     5
100
AcDbVertex
100
AcDb2dVertex
 10
60.97521924622792
 20
1.004218869691832
 30
0.0
  0
VERTEX
  5
51E
330
51C
100
AcDbEntity
  8
Layer 1
 62
     5
420
      255
370
     5
100
AcDbVertex
100
AcDb2dVertex
 10
60.81622934103569
 20
0.8054882698900425
 30
0.0
  0
SEQEND
  5
51F
330
51C
100
AcDbEntity
  8
Layer 1
370
     5
  0
POLYLINE
  5
520
330
1F
100
AcDbEntity
  8
Layer 1
 62
     5
420
      255
370
     5
100
AcDb2dPolyline
 66
     1
 10
0.0
 20
0.0
 30
0.0
  0
VERTEX
  5
521
330
520
100
AcDbEntity
  8
Layer 1
 62
     5
420
      255
370
     5
100
AcDbVertex
100
AcDb2dVertex
 10
60.81622934103569
 20
0.8054882698900425
 30
0.0
  0
VERTEX
  5
522
330
520
100
AcDbEntity
  8
Layer 1
 62
     5
420
      255
370
     5
100
AcDbVertex
100
AcDb2dVertex
 10
60.97521924622792
 20
0.6067576700882525
 30
0.0
  0
SEQEND
  5
523
330
520
100
AcDbEntity
  8
Layer 1
370
     5
  0
POLYLINE
  5
524
330
1F
100
AcDbEntity
  8
Layer 1
 62
     5
420
      255
370
     5
100
AcDb2dPolyline
 66
     1
 10
0.0
 20
0.0
 30
0.0
  0
VERTEX
  5
525
330
524
100
AcDbEntity
  8
Layer 1
 62
     5
420
      255
370
     5
100
AcDbVertex
100
AcDb2dVertex
 10
60.97521924622792
 20
0.6067576700882525
 30
0.0
  0
VERTEX
  5
526
330
524
100
AcDbEntity
  8
Layer 1
 62
     5
420
      255
370
     5
100
AcDbVertex
100
AcDb2dVertex
 10
60.18024259351276
 20
0.8054882698900425
 30
0.0
  0
SEQEND
  5
527
330
524
100
AcDbEntity
  8
Layer 1
370
     5
  0
POLYLINE
  5
528
330
1F
100
AcDbEntity
  8
Layer 1
370
     0
100
AcDb2dPolyline
 66
     1
 10
0.0
 20
0.0
 30
0.0
  0
VERTEX
  5
529
330
528
100
AcDbEntity
  8
Layer 1
370
     0
100
AcDbVertex
100
AcDb2dVertex
 10
60.18024259351276
 20
0.8054882698900425
 30
0.0
  0
VERTEX
  5
52A
330
528
100
AcDbEntity
  8
Layer 1
370
     0
100
AcDbVertex
100
AcDb2dVertex
 10
60.81622934103569
 20
0.8054882698900425
 30
0.0
  0
VERTEX
  5
52B
330
528
100
AcDbEntity
  8
Layer 1
370
     0
100
AcDbVertex
100
AcDb2dVertex
 10
60.97521924622792
 20
1.004218869691832
 30
0.0
  0
SEQEND
  5
52C
330
528
100
AcDbEntity
  8
Layer 1
370
     0
  0
HATCH
  5
52D
330
1F
100
AcDbEntity
  8
Layer 1
 62
     5
420
      255
100
AcDbHatch
 10
0.0
 20
0.0
 30
0.0
210
0.0
220
0.0
230
1.0
  2
SOLID
 70
     1
 71
     0
 91
        1
 92
        1
 93
        3
 72
     1
 10
60.18024259351276
 20
0.8054882698900425
 11
60.81622934103569
 21
0.8054882698900425
 72
     1
 10
60.81622934103569
 20
0.8054882698900425
 11
60.97521924622792
 21
1.004218869691832
 72
     1
 10
60.97521924622792
 20
1.004218869691832
 11
60.18024259351276
 21
0.8054882698900425
 97
        0
 75
     2
 76
     1
 98
        0
  0
POLYLINE
  5
52E
330
1F
100
AcDbEntity
  8
Layer 1
370
     0
100
AcDb2dPolyline
 66
     1
 10
0.0
 20
0.0
 30
0.0
  0
VERTEX
  5
52F
330
52E
100
AcDbEntity
  8
Layer 1
370
     0
100
AcDbVertex
100
AcDb2dVertex
 10
60.18024259351276
 20
0.8054882698900425
 30
0.0
  0
VERTEX
  5
530
330
52E
100
AcDbEntity
  8
Layer 1
370
     0
100
AcDbVertex
100
AcDb2dVertex
 10
60.81622934103569
 20
0.8054882698900425
 30
0.0
  0
VERTEX
  5
531
330
52E
100
AcDbEntity
  8
Layer 1
370
     0
100
AcDbVertex
100
AcDb2dVertex
 10
60.97521924622792
 20
1.004218869691832
 30
0.0
  0
SEQEND
  5
532
330
52E
100
AcDbEntity
  8
Layer 1
370
     0
  0
POLYLINE
  5
533
330
1F
100
AcDbEntity
  8
Layer 1
370
     0
100
AcDb2dPolyline
 66
     1
 10
0.0
 20
0.0
 30
0.0
  0
VERTEX
  5
534
330
533
100
AcDbEntity
  8
Layer 1
370
     0
100
AcDbVertex
100
AcDb2dVertex
 10
60.97521924622792
 20
0.6067576700882525
 30
0.0
  0
VERTEX
  5
535
330
533
100
AcDbEntity
  8
Layer 1
370
     0
100
AcDbVertex
100
AcDb2dVertex
 10
60.97521924622792
 20
0.6067576700882525
 30
0.0
  0
VERTEX
  5
536
330
533
100
AcDbEntity
  8
Layer 1
370
     0
100
AcDbVertex
100
AcDb2dVertex
 10
60.81622934103569
 20
0.8054882698900425
 30
0.0
  0
VERTEX
  5
537
330
533
100
AcDbEntity
  8
Layer 1
370
     0
100
AcDbVertex
100
AcDb2dVertex
 10
60.18024259351276
 20
0.8054882698900425
 30
0.0
  0
SEQEND
  5
538
330
533
100
AcDbEntity
  8
Layer 1
370
     0
  0
HATCH
  5
539
330
1F
100
AcDbEntity
  8
Layer 1
 62
     5
420
      255
100
AcDbHatch
 10
0.0
 20
0.0
 30
0.0
210
0.0
220
0.0
230
1.0
  2
SOLID
 70
     1
 71
     0
 91
        1
 92
        1
 93
        3
 72
     1
 10
60.97521924622792
 20
0.6067576700882525
 11
60.81622934103569
 21
0.8054882698900425
 72
     1
 10
60.81622934103569
 20
0.8054882698900425
 11
60.18024259351276
 21
0.8054882698900425
 72
     1
 10
60.18024259351276
 20
0.8054882698900425
 11
60.97521924622792
 21
0.6067576700882525
 97
        0
 75
     2
 76
     1
 98
        0
  0
POLYLINE
  5
53A
330
1F
100
AcDbEntity
  8
Layer 1
370
     0
100
AcDb2dPolyline
 66
     1
 10
0.0
 20
0.0
 30
0.0
  0
VERTEX
  5
53B
330
53A
100
AcDbEntity
  8
Layer 1
370
     0
100
AcDbVertex
100
AcDb2dVertex
 10
60.97521924622792
 20
0.6067576700882525
 30
0.0
  0
VERTEX
  5
53C
330
53A
100
AcDbEntity
  8
Layer 1
370
     0
100
AcDbVertex
100
AcDb2dVertex
 10
60.97521924622792
 20
0.6067576700882525
 30
0.0
  0
VERTEX
  5
53D
330
53A
100
AcDbEntity
  8
Layer 1
370
     0
100
AcDbVertex
100
AcDb2dVertex
 10
60.81622934103569
 20
0.8054882698900425
 30
0.0
  0
VERTEX
  5
53E
330
53A
100
AcDbEntity
  8
Layer 1
370
     0
100
AcDbVertex
100
AcDb2dVertex
 10
60.18024259351276
 20
0.8054882698900425
 30
0.0
  0
SEQEND
  5
53F
330
53A
100
AcDbEntity
  8
Layer 1
370
     0
  0
POLYLINE
  5
540
330
1F
100
AcDbEntity
  8
Layer 1
 62
     5
420
      255
370
     5
100
AcDb2dPolyline
 66
     1
 10
0.0
 20
0.0
 30
0.0
  0
VERTEX
  5
541
330
540
100
AcDbEntity
  8
Layer 1
 62
     5
420
      255
370
     5
100
AcDbVertex
100
AcDb2dVertex
 10
60.18024259351276
 20
0.8054882698900425
 30
0.0
  0
VERTEX
  5
542
330
540
100
AcDbEntity
  8
Layer 1
 62
     5
420
      255
370
     5
100
AcDbVertex
100
AcDb2dVertex
 10
62.78064035867784
 20
0.8054882698900425
 30
0.0
  0
SEQEND
  5
543
330
540
100
AcDbEntity
  8
Layer 1
370
     5
  0
POLYLINE
  5
544
330
1F
100
AcDbEntity
  8
Layer 1
 62
     5
420
      255
370
     5
100
AcDb2dPolyline
 66
     1
 10
0.0
 20
0.0
 30
0.0
  0
VERTEX
  5
545
330
544
100
AcDbEntity
  8
Layer 1
 62
     5
420
      255
370
     5
100
AcDbVertex
100
AcDb2dVertex
 10
61.80527079186469
 20
0.8054882698900425
 30
0.0
  0
VERTEX
  5
546
330
544
100
AcDbEntity
  8
Layer 1
 62
     5
420
      255
370
     5
100
AcDbVertex
100
AcDb2dVertex
 10
61.01029413914953
 20
0.6067576700882525
 30
0.0
  0
SEQEND
  5
547
330
544
100
AcDbEntity
  8
Layer 1
370
     5
  0
POLYLINE
  5
548
330
1F
100
AcDbEntity
  8
Layer 1
 62
     5
420
      255
370
     5
100
AcDb2dPolyline
 66
     1
 10
0.0
 20
0.0
 30
0.0
  0
VERTEX
  5
549
330
548
100
AcDbEntity
  8
Layer 1
 62
     5
420
      255
370
     5
100
AcDbVertex
100
AcDb2dVertex
 10
61.01029413914953
 20
0.6067576700882525
 30
0.0
  0
VERTEX
  5
54A
330
548
100
AcDbEntity
  8
Layer 1
 62
     5
420
      255
370
     5
100
AcDbVertex
100
AcDb2dVertex
 10
61.16928404434176
 20
0.8054882698900425
 30
0.0
  0
SEQEND
  5
54B
330
548
100
AcDbEntity
  8
Layer 1
370
     5
  0
POLYLINE
  5
54C
330
1F
100
AcDbEntity
  8
Layer 1
 62
     5
420
      255
370
     5
100
AcDb2dPolyline
 66
     1
 10
0.0
 20
0.0
 30
0.0
  0
VERTEX
  5
54D
330
54C
100
AcDbEntity
  8
Layer 1
 62
     5
420
      255
370
     5
100
AcDbVertex
100
AcDb2dVertex
 10
61.16928404434176
 20
0.8054882698900425
 30
0.0
  0
VERTEX
  5
54E
330
54C
100
AcDbEntity
  8
Layer 1
 62
     5
420
      255
370
     5
100
AcDbVertex
100
AcDb2dVertex
 10
61.01029413914953
 20
1.004218869691832
 30
0.0
  0
SEQEND
  5
54F
330
54C
100
AcDbEntity
  8
Layer 1
370
     5
  0
POLYLINE
  5
550
330
1F
100
AcDbEntity
  8
Layer 1
 62
     5
420
      255
370
     5
100
AcDb2dPolyline
 66
     1
 10
0.0
 20
0.0
 30
0.0
  0
VERTEX
  5
551
330
550
100
AcDbEntity
  8
Layer 1
 62
     5
420
      255
370
     5
100
AcDbVertex
100
AcDb2dVertex
 10
61.01029413914953
 20
1.004218869691832
 30
0.0
  0
VERTEX
  5
552
330
550
100
AcDbEntity
  8
Layer 1
 62
     5
420
      255
370
     5
100
AcDbVertex
100
AcDb2dVertex
 10
61.80527079186469
 20
0.8054882698900425
 30
0.0
  0
SEQEND
  5
553
330
550
100
AcDbEntity
  8
Layer 1
370
     5
  0
POLYLINE
  5
554
330
1F
100
AcDbEntity
  8
Layer 1
370
     0
100
AcDb2dPolyline
 66
     1
 10
0.0
 20
0.0
 30
0.0
  0
VERTEX
  5
555
330
554
100
AcDbEntity
  8
Layer 1
370
     0
100
AcDbVertex
100
AcDb2dVertex
 10
61.16928404434176
 20
0.8054882698900425
 30
0.0
  0
VERTEX
  5
556
330
554
100
AcDbEntity
  8
Layer 1
370
     0
100
AcDbVertex
100
AcDb2dVertex
 10
61.80527079186469
 20
0.8054882698900425
 30
0.0
  0
VERTEX
  5
557
330
554
100
AcDbEntity
  8
Layer 1
370
     0
100
AcDbVertex
100
AcDb2dVertex
 10
61.01029413914953
 20
1.004218869691832
 30
0.0
  0
SEQEND
  5
558
330
554
100
AcDbEntity
  8
Layer 1
370
     0
  0
HATCH
  5
559
330
1F
100
AcDbEntity
  8
Layer 1
 62
     5
420
      255
100
AcDbHatch
 10
0.0
 20
0.0
 30
0.0
210
0.0
220
0.0
230
1.0
  2
SOLID
 70
     1
 71
     0
 91
        1
 92
        1
 93
        3
 72
     1
 10
61.16928404434176
 20
0.8054882698900425
 11
61.80527079186469
 21
0.8054882698900425
 72
     1
 10
61.80527079186469
 20
0.8054882698900425
 11
61.01029413914953
 21
1.004218869691832
 72
     1
 10
61.01029413914953
 20
1.004218869691832
 11
61.16928404434176
 21
0.8054882698900425
 97
        0
 75
     2
 76
     1
 98
        0
  0
POLYLINE
  5
55A
330
1F
100
AcDbEntity
  8
Layer 1
370
     0
100
AcDb2dPolyline
 66
     1
 10
0.0
 20
0.0
 30
0.0
  0
VERTEX
  5
55B
330
55A
100
AcDbEntity
  8
Layer 1
370
     0
100
AcDbVertex
100
AcDb2dVertex
 10
61.16928404434176
 20
0.8054882698900425
 30
0.0
  0
VERTEX
  5
55C
330
55A
100
AcDbEntity
  8
Layer 1
370
     0
100
AcDbVertex
100
AcDb2dVertex
 10
61.80527079186469
 20
0.8054882698900425
 30
0.0
  0
VERTEX
  5
55D
330
55A
100
AcDbEntity
  8
Layer 1
370
     0
100
AcDbVertex
100
AcDb2dVertex
 10
61.01029413914953
 20
1.004218869691832
 30
0.0
  0
SEQEND
  5
55E
330
55A
100
AcDbEntity
  8
Layer 1
370
     0
  0
POLYLINE
  5
55F
330
1F
100
AcDbEntity
  8
Layer 1
370
     0
100
AcDb2dPolyline
 66
     1
 10
0.0
 20
0.0
 30
0.0
  0
VERTEX
  5
560
330
55F
100
AcDbEntity
  8
Layer 1
370
     0
100
AcDbVertex
100
AcDb2dVertex
 10
61.01029413914953
 20
0.6067576700882525
 30
0.0
  0
VERTEX
  5
561
330
55F
100
AcDbEntity
  8
Layer 1
370
     0
100
AcDbVertex
100
AcDb2dVertex
 10
61.01029413914953
 20
0.6067576700882525
 30
0.0
  0
VERTEX
  5
562
330
55F
100
AcDbEntity
  8
Layer 1
370
     0
100
AcDbVertex
100
AcDb2dVertex
 10
61.80527079186469
 20
0.8054882698900425
 30
0.0
  0
VERTEX
  5
563
330
55F
100
AcDbEntity
  8
Layer 1
370
     0
100
AcDbVertex
100
AcDb2dVertex
 10
61.16928404434176
 20
0.8054882698900425
 30
0.0
  0
SEQEND
  5
564
330
55F
100
AcDbEntity
  8
Layer 1
370
     0
  0
HATCH
  5
565
330
1F
100
AcDbEntity
  8
Layer 1
 62
     5
420
      255
100
AcDbHatch
 10
0.0
 20
0.0
 30
0.0
210
0.0
220
0.0
230
1.0
  2
SOLID
 70
     1
 71
     0
 91
        1
 92
        1
 93
        3
 72
     1
 10
61.01029413914953
 20
0.6067576700882525
 11
61.80527079186469
 21
0.8054882698900425
 72
     1
 10
61.80527079186469
 20
0.8054882698900425
 11
61.16928404434176
 21
0.8054882698900425
 72
     1
 10
61.16928404434176
 20
0.8054882698900425
 11
61.01029413914953
 21
0.6067576700882525
 97
        0
 75
     2
 76
     1
 98
        0
  0
POLYLINE
  5
566
330
1F
100
AcDbEntity
  8
Layer 1
370
     0
100
AcDb2dPolyline
 66
     1
 10
0.0
 20
0.0
 30
0.0
  0
VERTEX
  5
567
330
566
100
AcDbEntity
  8
Layer 1
370
     0
100
AcDbVertex
100
AcDb2dVertex
 10
61.01029413914953
 20
0.6067576700882525
 30
0.0
  0
VERTEX
  5
568
330
566
100
AcDbEntity
  8
Layer 1
370
     0
100
AcDbVertex
100
AcDb2dVertex
 10
61.01029413914953
 20
0.6067576700882525
 30
0.0
  0
VERTEX
  5
569
330
566
100
AcDbEntity
  8
Layer 1
370
     0
100
AcDbVertex
100
AcDb2dVertex
 10
61.80527079186469
 20
0.8054882698900425
 30
0.0
  0
VERTEX
  5
56A
330
566
100
AcDbEntity
  8
Layer 1
370
     0
100
AcDbVertex
100
AcDb2dVertex
 10
61.16928404434176
 20
0.8054882698900425
 30
0.0
  0
SEQEND
  5
56B
330
566
100
AcDbEntity
  8
Layer 1
370
     0
  0
POLYLINE
  5
56C
330
1F
100
AcDbEntity
  8
Layer 1
 62
     5
420
      255
370
     5
100
AcDb2dPolyline
 66
     1
 10
0.0
 20
0.0
 30
0.0
  0
VERTEX
  5
56D
330
56C
100
AcDbEntity
  8
Layer 1
 62
     5
420
      255
370
     5
100
AcDbVertex
100
AcDb2dVertex
 10
61.80527079186469
 20
0.8054882698900425
 30
0.0
  0
VERTEX
  5
56E
330
56C
100
AcDbEntity
  8
Layer 1
 62
     5
420
      255
370
     5
100
AcDbVertex
100
AcDb2dVertex
 10
60.18024259351276
 20
0.8054882698900425
 30
0.0
  0
SEQEND
  5
56F
330
56C
100
AcDbEntity
  8
Layer 1
370
     5
  0
MTEXT
  5
570
330
1F
100
AcDbEntity
  8
Layer 1
 62
     5
420
      255
100
AcDbMText
 10
63.30915090685397
 20
0.4767798282986979
 30
0.0
 40
0.6223401719208501
 41
0.0
 71
     7
 72
     1
  1
\fArial|b0|i0|c0|p34;\W1;1
 73
     1
 44
1.0
  0
MTEXT
  5
571
330
1F
100
AcDbEntity
  8
Layer 1
 62
     5
420
      255
100
AcDbMText
 10
63.8274889222802
 20
0.6811392295554253
 30
0.0
 40
0.6223401719208501
 41
0.0
 71
     7
 72
     1
  1
\fArial|b0|i0|c0|p34;\W1;5
 73
     1
 44
1.0
  0
POLYLINE
  5
572
330
1F
100
AcDbEntity
  8
Layer 1
 62
     5
420
      255
370
    13
100
AcDb2dPolyline
 66
     1
 10
0.0
 20
0.0
 30
0.0
  0
VERTEX
  5
573
330
572
100
AcDbEntity
  8
Layer 1
 62
     5
420
      255
370
    13
100
AcDbVertex
100
AcDb2dVertex
 10
64.12070200626295
 20
0.4797908979926644
 30
0.0
  0
VERTEX
  5
574
330
572
100
AcDbEntity
  8
Layer 1
 62
     5
420
      255
370
    13
100
AcDbVertex
100
AcDb2dVertex
 10
64.52646399259042
 20
1.335707803568146
 30
0.0
  0
SEQEND
  5
575
330
572
100
AcDbEntity
  8
Layer 1
370
    13
  0
MTEXT
  5
576
330
1F
100
AcDbEntity
  8
Layer 1
 62
     5
420
      255
100
AcDbMText
 10
64.41391509024568
 20
0.4767798282986979
 30
0.0
 40
0.6223401719208501
 41
0.0
 71
     7
 72
     1
  1
\fArial|b0|i0|c0|p34;\W1;8
 73
     1
 44
1.0
  0
ENDSEC
  0
SECTION
  2
OBJECTS
  0
DICTIONARY
  5
C
330
0
100
AcDbDictionary
281
     1
  3
ACAD_GROUP
350
D
  3
ACAD_LAYOUT
350
1A
  3
ACAD_MLINESTYLE
350
17
  3
ACAD_PLOTSETTINGS
350
19
  3
ACAD_PLOTSTYLENAME
350
E
  3
ACAD_TABLESTYLE
350
577
  3
ACAD_VISUALSTYLE
350
2A
  0
DICTIONARY
  5
D
102
{ACAD_REACTORS
330
C
102
}
330
C
100
AcDbDictionary
281
     1
  0
DICTIONARY
  5
1A
102
{ACAD_REACTORS
330
C
102
}
330
C
100
AcDbDictionary
281
     1
  3
Layout1
350
1E
  3
Layout2
350
26
  3
Model
350
22
  0
DICTIONARY
  5
17
102
{ACAD_REACTORS
330
C
102
}
330
C
100
AcDbDictionary
281
     1
  3
Standard
350
18
  0
DICTIONARY
  5
19
102
{ACAD_REACTORS
330
C
102
}
330
C
100
AcDbDictionary
281
     1
  0
ACDBDICTIONARYWDFLT
  5
E
102
{ACAD_REACTORS
330
C
102
}
330
C
100
AcDbDictionary
281
     1
  3
Normal
350
F
100
AcDbDictionaryWithDefault
340
F
  0
DICTIONARY
  5
577
102
{ACAD_REACTORS
330
C
102
}
330
C
100
AcDbDictionary
281
     1
  0
DICTIONARY
  5
2A
102
{ACAD_REACTORS
330
C
102
}
330
C
100
AcDbDictionary
281
     1
  3
2dWireframe
350
2F
  3
3D Hidden
350
31
  3
3dWireframe
350
30
  3
Basic
350
32
  3
Brighten
350
36
  3
ColorChange
350
3A
  3
Conceptual
350
34
  3
Dim
350
35
  3
Facepattern
350
39
  3
Flat
350
2B
  3
FlatWithEdges
350
2C
  3
Gouraud
350
2D
  3
GouraudWithEdges
350
2E
  3
Linepattern
350
38
  3
Realistic
350
33
  3
Thicken
350
37
  0
LAYOUT
  5
1E
102
{ACAD_REACTORS
330
1A
102
}
330
1A
100
AcDbPlotSettings
  1

  2
none_device
  4

  6

 40
0.0
 41
0.0
 42
0.0
 43
0.0
 44
0.0
 45
0.0
 46
0.0
 47
0.0
 48
0.0
 49
0.0
140
0.0
141
0.0
142
1.0
143
1.0
 70
   688
 72
     0
 73
     0
 74
     5
  7

 75
    16
 76
     0
 77
     2
 78
   300
147
1.0
148
0.0
149
0.0
100
AcDbLayout
  1
Layout1
 70
     1
 71
     1
 10
0.0
 20
0.0
 11
12.0
 21
9.0
 12
0.0
 22
0.0
 32
0.0
 14
1.000000000000000E+20
 24
1.000000000000000E+20
 34
1.000000000000000E+20
 15
-1.000000000000000E+20
 25
-1.000000000000000E+20
 35
-1.000000000000000E+20
146
0.0
 13
0.0
 23
0.0
 33
0.0
 16
1.0
 26
0.0
 36
0.0
 17
0.0
 27
1.0
 37
0.0
 76
     0
330
1B
  0
LAYOUT
  5
26
102
{ACAD_REACTORS
330
1A
102
}
330
1A
100
AcDbPlotSettings
  1

  2
none_device
  4

  6

 40
0.0
 41
0.0
 42
0.0
 43
0.0
 44
0.0
 45
0.0
 46
0.0
 47
0.0
 48
0.0
 49
0.0
140
0.0
141
0.0
142
1.0
143
1.0
 70
   688
 72
     0
 73
     0
 74
     5
  7

 75
    16
 76
     0
 77
     2
 78
   300
147
1.0
148
0.0
149
0.0
100
AcDbLayout
  1
Layout2
 70
     1
 71
     2
 10
0.0
 20
0.0
 11
0.0
 21
0.0
 12
0.0
 22
0.0
 32
0.0
 14
0.0
 24
0.0
 34
0.0
 15
0.0
 25
0.0
 35
0.0
146
0.0
 13
0.0
 23
0.0
 33
0.0
 16
1.0
 26
0.0
 36
0.0
 17
0.0
 27
1.0
 37
0.0
 76
     0
330
23
  0
LAYOUT
  5
22
102
{ACAD_REACTORS
330
1A
102
}
330
1A
100
AcDbPlotSettings
  1

  2
none_device
  4

  6

 40
0.0
 41
0.0
 42
0.0
 43
0.0
 44
0.0
 45
0.0
 46
0.0
 47
0.0
 48
0.0
 49
0.0
140
0.0
141
0.0
142
1.0
143
1.0
 70
  1712
 72
     0
 73
     0
 74
     0
  7

 75
     0
 76
     0
 77
     2
 78
   300
147
1.0
148
0.0
149
0.0
100
AcDbLayout
  1
Model
 70
     1
 71
     0
 10
0.0
 20
0.0
 11
12.0
 21
9.0
 12
0.0
 22
0.0
 32
0.0
 14
1.000000000000000E+20
 24
1.000000000000000E+20
 34
1.000000000000000E+20
 15
-1.000000000000000E+20
 25
-1.000000000000000E+20
 35
-1.000000000000000E+20
146
0.0
 13
0.0
 23
0.0
 33
0.0
 16
1.0
 26
0.0
 36
0.0
 17
0.0
 27
1.0
 37
0.0
 76
     0
330
1F
331
29
  0
MLINESTYLE
  5
18
102
{ACAD_REACTORS
330
17
102
}
330
17
100
AcDbMlineStyle
  2
Standard
 70
     0
  3

 62
   256
 51
90.0
 52
90.0
 71
     2
 49
0.5
 62
   256
  6
BYLAYER
 49
-0.5
 62
   256
  6
BYLAYER
  0
ACDBPLACEHOLDER
  5
F
102
{ACAD_REACTORS
330
E
102
}
330
E
  0
VISUALSTYLE
  5
2F
102
{ACAD_REACTORS
330
2A
102
}
330
2A
100
AcDbVisualStyle
  2
2dWireframe
 70
     4
 71
     0
 72
     2
 73
     0
 90
        0
 40
-0.6
 41
-30.0
 62
     5
 63
     7
421
 16777215
 74
     1
 91
        4
 64
     7
 65
   257
 75
     1
175
     1
 42
1.0
 92
        0
 66
   257
 43
1.0
 76
     1
 77
     6
 78
     2
 67
     7
 79
     5
170
     0
171
     0
290
     0
174
     0
 93
        1
 44
0.0
173
     0
291
     0
 45
0.0
1001
ACAD
1000
AcDbSavedByObjectVersion
1070
     0
  0
VISUALSTYLE
  5
31
102
{ACAD_REACTORS
330
2A
102
}
330
2A
100
AcDbVisualStyle
  2
3D Hidden
 70
     6
 71
     1
 72
     2
 73
     2
 90
        0
 40
-0.6
 41
-30.0
 62
     5
 63
     7
421
 16777215
 74
     2
 91
        2
 64
     7
 65
   257
 75
     2
175
     1
 42
40.0
 92
        0
 66
   257
 43
1.0
 76
     1
 77
     6
 78
     2
 67
     7
 79
     3
170
     0
171
     0
290
     0
174
     0
 93
        1
 44
0.0
173
     0
291
     0
 45
0.0
1001
ACAD
1000
AcDbSavedByObjectVersion
1070
     0
  0
VISUALSTYLE
  5
30
102
{ACAD_REACTORS
330
2A
102
}
330
2A
100
AcDbVisualStyle
  2
3dWireframe
 70
     5
 71
     0
 72
     2
 73
     0
 90
        0
 40
-0.6
 41
-30.0
 62
     5
 63
     7
421
 16777215
 74
     1
 91
        4
 64
     7
 65
   257
 75
     1
175
     1
 42
1.0
 92
        0
 66
   257
 43
1.0
 76
     1
 77
     6
 78
     2
 67
     7
 79
     5
170
     0
171
     0
290
     0
174
     0
 93
        1
 44
0.0
173
     0
291
     0
 45
0.0
1001
ACAD
1000
AcDbSavedByObjectVersion
1070
     0
  0
VISUALSTYLE
  5
32
102
{ACAD_REACTORS
330
2A
102
}
330
2A
100
AcDbVisualStyle
  2
Basic
 70
     7
 71
     1
 72
     0
 73
     1
 90
        0
 40
-0.6
 41
-30.0
 62
     5
 63
     7
421
 16777215
 74
     0
 91
        4
 64
     7
 65
   257
 75
     1
175
     1
 42
1.0
 92
        8
 66
     7
 43
1.0
 76
     1
 77
     6
 78
     2
 67
     7
 79
     5
170
     0
171
     0
290
     0
174
     0
 93
        1
 44
0.0
173
     0
291
     1
 45
0.0
1001
ACAD
1000
AcDbSavedByObjectVersion
1070
     0
  0
VISUALSTYLE
  5
36
102
{ACAD_REACTORS
330
2A
102
}
330
2A
100
AcDbVisualStyle
  2
Brighten
 70
    12
 71
     2
 72
     2
 73
     0
 90
        0
 40
-0.6
 41
-30.0
 62
     5
 63
     7
421
 16777215
 74
     1
 91
        4
 64
     7
 65
   257
 75
     1
175
     1
 42
1.0
 92
        8
 66
     7
 43
1.0
 76
     1
 77
     6
 78
     2
 67
     7
 79
     5
170
     0
171
     0
290
     0
174
     0
 93
        1
 44
50.0
173
     0
291
     1
 45
0.0
1001
ACAD
1000
AcDbSavedByObjectVersion
1070
     0
  0
VISUALSTYLE
  5
3A
102
{ACAD_REACTORS
330
2A
102
}
330
2A
100
AcDbVisualStyle
  2
ColorChange
 70
    16
 71
     2
 72
     2
 73
     3
 90
        0
 40
-0.6
 41
-30.0
 62
     5
 63
     8
421
  8421504
 74
     1
 91
        4
 64
     7
 65
   257
 75
     1
175
     1
 42
1.0
 92
        8
 66
     8
424
  8421504
 43
1.0
 76
     1
 77
     6
 78
     2
 67
     7
 79
     5
170
     0
171
     0
290
     0
174
     0
 93
        1
 44
0.0
173
     0
291
     1
 45
0.0
1001
ACAD
1000
AcDbSavedByObjectVersion
1070
     0
  0
VISUALSTYLE
  5
34
102
{ACAD_REACTORS
330
2A
102
}
330
2A
100
AcDbVisualStyle
  2
Conceptual
 70
     9
 71
     3
 72
     2
 73
     0
 90
        0
 40
-0.6
 41
-30.0
 62
     5
 63
     7
421
 16777215
 74
     2
 91
        2
 64
     7
 65
   257
 75
     1
175
     1
 42
40.0
 92
        8
 66
     7
 43
1.0
 76
     1
 77
     6
 78
     2
 67
     7
 79
     3
170
     0
171
     0
290
     0
174
     0
 93
        1
 44
0.0
173
     0
291
     0
 45
0.0
1001
ACAD
1000
AcDbSavedByObjectVersion
1070
     0
  0
VISUALSTYLE
  5
35
102
{ACAD_REACTORS
330
2A
102
}
330
2A
100
AcDbVisualStyle
  2
Dim
 70
    11
 71
     2
 72
     2
 73
     0
 90
        0
 40
-0.6
 41
-30.0
 62
     5
 63
     7
421
 16777215
 74
     1
 91
        4
 64
     7
 65
   257
 75
     1
175
     1
 42
1.0
 92
        8
 66
     7
 43
1.0
 76
     1
 77
     6
 78
     2
 67
     7
 79
     5
170
     0
171
     0
290
     0
174
     0
 93
        1
 44
-50.0
173
     0
291
     1
 45
0.0
1001
ACAD
1000
AcDbSavedByObjectVersion
1070
     0
  0
VISUALSTYLE
  5
39
102
{ACAD_REACTORS
330
2A
102
}
330
2A
100
AcDbVisualStyle
  2
Facepattern
 70
    15
 71
     2
 72
     2
 73
     0
 90
        0
 40
-0.6
 41
-30.0
 62
     5
 63
     7
421
 16777215
 74
     1
 91
        4
 64
     7
 65
   257
 75
     1
175
     1
 42
1.0
 92
        8
 66
     7
 43
1.0
 76
     1
 77
     6
 78
     2
 67
     7
 79
     5
170
     0
171
     0
290
     0
174
     0
 93
        1
 44
0.0
173
     0
291
     1
 45
0.0
1001
ACAD
1000
AcDbSavedByObjectVersion
1070
     0
  0
VISUALSTYLE
  5
2B
102
{ACAD_REACTORS
330
2A
102
}
330
2A
100
AcDbVisualStyle
  2
Flat
 70
     0
 71
     2
 72
     1
 73
     1
 90
        2
 40
-0.6
 41
30.0
 62
     5
 63
     7
421
 16777215
 74
     0
 91
        4
 64
     7
 65
   257
 75
     1
175
     1
 42
1.0
 92
        8
 66
     7
 43
1.0
 76
     1
 77
     6
 78
     2
 67
     7
 79
     5
170
     0
171
     0
290
     0
174
     0
 93
       13
 44
0.0
173
     0
291
     1
 45
0.0
1001
ACAD
1000
AcDbSavedByObjectVersion
1070
     0
  0
VISUALSTYLE
  5
2C
102
{ACAD_REACTORS
330
2A
102
}
330
2A
100
AcDbVisualStyle
  2
FlatWithEdges
 70
     1
 71
     2
 72
     1
 73
     1
 90
        2
 40
-0.6
 41
30.0
 62
     5
 63
     7
421
 16777215
 74
     1
 91
        4
 64
     7
 65
   257
 75
     1
175
     1
 42
1.0
 92
        0
 66
   257
 43
1.0
 76
     1
 77
     6
 78
     2
 67
     7
 79
     5
170
     0
171
     0
290
     0
174
     0
 93
       13
 44
0.0
173
     0
291
     1
 45
0.0
1001
ACAD
1000
AcDbSavedByObjectVersion
1070
     0
  0
VISUALSTYLE
  5
2D
102
{ACAD_REACTORS
330
2A
102
}
330
2A
100
AcDbVisualStyle
  2
Gouraud
 70
     2
 71
     2
 72
     2
 73
     1
 90
        2
 40
-0.6
 41
30.0
 62
     5
 63
     7
421
 16777215
 74
     0
 91
        4
 64
     7
 65
   257
 75
     1
175
     1
 42
1.0
 92
        0
 66
     7
 43
1.0
 76
     1
 77
     6
 78
     2
 67
     7
 79
     5
170
     0
171
     0
290
     0
174
     0
 93
       13
 44
0.0
173
     0
291
     1
 45
0.0
1001
ACAD
1000
AcDbSavedByObjectVersion
1070
     0
  0
VISUALSTYLE
  5
2E
102
{ACAD_REACTORS
330
2A
102
}
330
2A
100
AcDbVisualStyle
  2
GouraudWithEdges
 70
     3
 71
     2
 72
     2
 73
     1
 90
        2
 40
-0.6
 41
30.0
 62
     5
 63
     7
421
 16777215
 74
     1
 91
        4
 64
     7
 65
   257
 75
     1
175
     1
 42
1.0
 92
        0
 66
   257
 43
1.0
 76
     1
 77
     6
 78
     2
 67
     7
 79
     5
170
     0
171
     0
290
     0
174
     0
 93
       13
 44
0.0
173
     0
291
     1
 45
0.0
1001
ACAD
1000
AcDbSavedByObjectVersion
1070
     0
  0
VISUALSTYLE
  5
38
102
{ACAD_REACTORS
330
2A
102
}
330
2A
100
AcDbVisualStyle
  2
Linepattern
 70
    14
 71
     2
 72
     2
 73
     0
 90
        0
 40
-0.6
 41
-30.0
 62
     5
 63
     7
421
 16777215
 74
     1
 91
        4
 64
     7
 65
   257
 75
     7
175
     7
 42
1.0
 92
        8
 66
     7
 43
1.0
 76
     1
 77
     6
 78
     2
 67
     7
 79
     5
170
     0
171
     0
290
     0
174
     0
 93
        1
 44
0.0
173
     0
291
     1
 45
0.0
1001
ACAD
1000
AcDbSavedByObjectVersion
1070
     0
  0
VISUALSTYLE
  5
33
102
{ACAD_REACTORS
330
2A
102
}
330
2A
100
AcDbVisualStyle
  2
Realistic
 70
     8
 71
     2
 72
     2
 73
     0
 90
        0
 40
-0.6
 41
-30.0
 62
     5
 63
     7
421
 16777215
 74
     1
 91
        0
 64
     7
 65
   257
 75
     1
175
     1
 42
1.0
 92
        8
 66
     8
424
  7895160
 43
1.0
 76
     1
 77
     6
 78
     2
 67
     7
 79
     5
170
     0
171
     0
290
     0
174
     0
 93
       13
 44
0.0
173
     0
291
     0
 45
0.0
1001
ACAD
1000
AcDbSavedByObjectVersion
1070
     0
  0
VISUALSTYLE
  5
37
102
{ACAD_REACTORS
330
2A
102
}
330
2A
100
AcDbVisualStyle
  2
Thicken
 70
    13
 71
     2
 72
     2
 73
     0
 90
        0
 40
-0.6
 41
-30.0
 62
     5
 63
     7
421
 16777215
 74
     1
 91
        4
 64
     7
 65
   257
 75
     1
175
     1
 42
1.0
 92
       12
 66
     7
 43
1.0
 76
     1
 77
     6
 78
     2
 67
     7
 79
     5
170
     0
171
     0
290
     0
174
     0
 93
        1
 44
0.0
173
     0
291
     1
 45
0.0
1001
ACAD
1000
AcDbSavedByObjectVersion
1070
     0
  0
ENDSEC
  0
EOF
