999
"DXF R12 Output" (www.mydxf.blogspot.com)
 0 
SECTION
 2 
HEADER
 9 
$ACADVER
 1 
AC1009
 9 
$EXTMIN
 10 
 0 
 20 
 0 
 9 
$EXTMAX
 10 
 8.5 
 20 
 11 
 0 
ENDSEC
 0 
SECTION
 2 
ENTITIES
0
POLYLINE
8
Image
62
7
70
0
10
0.000000
20
0.000000
66
1
0
VERTEX
8
Image
10
13.994748
20
9.001095
70
0
0
VERTEX
8
Image
10
14.215338
20
8.946476
70
0
0
VERTEX
8
Image
10
14.501866
20
8.980219
70
0
0
VERTEX
8
Image
10
14.465796
20
8.873460
70
0
0
VERTEX
8
Image
10
14.154601
20
8.841255
70
0
0
VERTEX
8
Image
10
13.959091
20
9.011194
70
0
0
VERTEX
8
Image
10
13.976381
20
9.073823
70
0
0
VERTEX
8
Image
10
13.994748
20
9.001106
70
0
0
VERTEX
8
Image
10
13.994748
20
9.001095
70
0
0
SEQEND
8
Image
0
POLYLINE
8
Image
62
7
70
0
10
0.000000
20
0.000000
66
1
0
VERTEX
8
Image
10
15.764147
20
9.406232
70
0
0
VERTEX
8
Image
10
43.412115
20
15.959067
70
0
0
VERTEX
8
Image
10
50.493618
20
17.812995
70
0
0
VERTEX
8
Image
10
52.383101
20
18.524133
70
0
0
VERTEX
8
Image
10
53.340891
20
19.145676
70
0
0
VERTEX
8
Image
10
53.605046
20
19.544164
70
0
0
VERTEX
8
Image
10
53.584869
20
19.894001
70
0
0
VERTEX
8
Image
10
53.255118
20
20.245795
70
0
0
VERTEX
8
Image
10
52.590552
20
20.650158
70
0
0
VERTEX
8
Image
10
50.960114
20
21.007773
70
0
0
VERTEX
8
Image
10
48.169809
20
21.208128
70
0
0
VERTEX
8
Image
10
44.963965
20
21.224338
70
0
0
VERTEX
8
Image
10
42.086908
20
21.029522
70
0
0
VERTEX
8
Image
10
31.406766
20
19.736163
70
0
0
VERTEX
8
Image
10
26.612049
20
19.324378
70
0
0
VERTEX
8
Image
10
24.896366
20
19.290124
70
0
0
VERTEX
8
Image
10
24.596226
20
19.338169
70
0
0
VERTEX
8
Image
10
24.694916
20
19.441542
70
0
0
VERTEX
8
Image
10
29.483391
20
20.586526
70
0
0
VERTEX
8
Image
10
37.156298
20
22.497450
70
0
0
VERTEX
8
Image
10
43.408229
20
24.117486
70
0
0
VERTEX
8
Image
10
49.878084
20
25.252298
70
0
0
VERTEX
8
Image
10
57.470889
20
26.024622
70
0
0
VERTEX
8
Image
10
67.091666
20
26.557193
70
0
0
VERTEX
8
Image
10
75.925573
20
26.721832
70
0
0
VERTEX
8
Image
10
86.302274
20
26.408478
70
0
0
VERTEX
8
Image
10
100.503467
20
25.504077
70
0
0
VERTEX
8
Image
10
120.810847
20
23.895575
70
0
0
VERTEX
8
Image
10
142.242070
20
22.320502
70
0
0
VERTEX
8
Image
10
148.717104
20
22.011710
70
0
0
VERTEX
8
Image
10
148.867895
20
21.977532
70
0
0
VERTEX
8
Image
10
148.593907
20
21.921017
70
0
0
VERTEX
8
Image
10
146.997314
20
21.772384
70
0
0
VERTEX
8
Image
10
142.783663
20
21.592835
70
0
0
VERTEX
8
Image
10
137.837082
20
21.563104
70
0
0
VERTEX
8
Image
10
132.966793
20
21.676311
70
0
0
VERTEX
8
Image
10
128.982019
20
21.925575
70
0
0
VERTEX
8
Image
10
115.273447
20
22.996644
70
0
0
VERTEX
8
Image
10
109.221023
20
23.234797
70
0
0
VERTEX
8
Image
10
103.424009
20
23.271546
70
0
0
VERTEX
8
Image
10
97.673034
20
23.104530
70
0
0
VERTEX
8
Image
10
91.758724
20
22.731388
70
0
0
VERTEX
8
Image
10
85.471706
20
22.149757
70
0
0
VERTEX
8
Image
10
78.602609
20
21.357275
70
0
0
VERTEX
8
Image
10
70.116908
20
20.142109
70
0
0
VERTEX
8
Image
10
61.409834
20
18.662102
70
0
0
VERTEX
8
Image
10
54.618426
20
17.308036
70
0
0
VERTEX
8
Image
10
52.608922
20
16.800351
70
0
0
VERTEX
8
Image
10
51.879726
20
16.470694
70
0
0
VERTEX
8
Image
10
52.287332
20
16.214373
70
0
0
VERTEX
8
Image
10
53.455592
20
15.974222
70
0
0
VERTEX
8
Image
10
57.746703
20
15.563725
70
0
0
VERTEX
8
Image
10
64.098330
20
15.281802
70
0
0
VERTEX
8
Image
10
71.855742
20
15.171049
70
0
0
VERTEX
8
Image
10
76.628450
20
15.100663
70
0
0
VERTEX
8
Image
10
78.814706
20
14.943801
70
0
0
VERTEX
8
Image
10
78.572670
20
14.844292
70
0
0
VERTEX
8
Image
10
77.646035
20
14.737528
70
0
0
VERTEX
8
Image
10
74.276087
20
14.548964
70
0
0
VERTEX
8
Image
10
64.185461
20
14.034770
70
0
0
VERTEX
8
Image
10
53.599515
20
13.305823
70
0
0
VERTEX
8
Image
10
34.950714
20
11.436526
70
0
0
VERTEX
8
Image
10
17.483936
20
9.344148
70
0
0
VERTEX
8
Image
10
15.288299
20
9.126755
70
0
0
VERTEX
8
Image
10
15.145703
20
9.206066
70
0
0
VERTEX
8
Image
10
15.764147
20
9.406232
70
0
0
VERTEX
8
Image
10
15.764147
20
9.406232
70
0
0
SEQEND
8
Image
0
POLYLINE
8
Image
62
7
70
0
10
0.000000
20
0.000000
66
1
0
VERTEX
8
Image
10
234.706568
20
22.600725
70
0
0
VERTEX
8
Image
10
220.740859
20
23.143124
70
0
0
VERTEX
8
Image
10
206.263896
20
24.063818
70
0
0
VERTEX
8
Image
10
197.754588
20
24.607910
70
0
0
VERTEX
8
Image
10
190.690634
20
24.877850
70
0
0
VERTEX
8
Image
10
184.931030
20
24.876592
70
0
0
VERTEX
8
Image
10
180.334772
20
24.607092
70
0
0
VERTEX
8
Image
10
172.428093
20
23.976437
70
0
0
VERTEX
8
Image
10
165.177836
20
24.062144
70
0
0
VERTEX
8
Image
10
161.212926
20
24.217924
70
0
0
VERTEX
8
Image
10
160.327037
20
24.278724
70
0
0
VERTEX
8
Image
10
160.215550
20
24.337126
70
0
0
VERTEX
8
Image
10
168.163954
20
24.681691
70
0
0
VERTEX
8
Image
10
175.051906
20
25.043153
70
0
0
VERTEX
8
Image
10
180.996230
20
25.594452
70
0
0
VERTEX
8
Image
10
193.431620
20
26.936819
70
0
0
VERTEX
8
Image
10
202.270851
20
27.971401
70
0
0
VERTEX
8
Image
10
204.774901
20
28.454496
70
0
0
VERTEX
8
Image
10
206.396187
20
28.976834
70
0
0
VERTEX
8
Image
10
207.586811
20
29.495996
70
0
0
VERTEX
8
Image
10
206.886750
20
29.867812
70
0
0
VERTEX
8
Image
10
206.213898
20
30.135816
70
0
0
VERTEX
8
Image
10
205.186437
20
30.359103
70
0
0
VERTEX
8
Image
10
201.378216
20
30.711684
70
0
0
VERTEX
8
Image
10
181.922260
20
31.322026
70
0
0
VERTEX
8
Image
10
154.008764
20
32.230488
70
0
0
VERTEX
8
Image
10
130.987586
20
33.003755
70
0
0
VERTEX
8
Image
10
111.723904
20
33.435677
70
0
0
VERTEX
8
Image
10
98.167745
20
33.496949
70
0
0
VERTEX
8
Image
10
94.139371
20
33.379433
70
0
0
VERTEX
8
Image
10
92.269138
20
33.158266
70
0
0
VERTEX
8
Image
10
91.539435
20
32.802884
70
0
0
VERTEX
8
Image
10
91.214328
20
32.500534
70
0
0
VERTEX
8
Image
10
91.627093
20
32.141825
70
0
0
VERTEX
8
Image
10
93.046333
20
31.732327
70
0
0
VERTEX
8
Image
10
99.420946
20
30.690525
70
0
0
VERTEX
8
Image
10
111.371596
20
29.234250
70
0
0
VERTEX
8
Image
10
129.931711
20
27.222627
70
0
0
VERTEX
8
Image
10
141.970237
20
25.914307
70
0
0
VERTEX
8
Image
10
142.141086
20
25.876253
70
0
0
VERTEX
8
Image
10
142.074511
20
25.854413
70
0
0
VERTEX
8
Image
10
141.277615
20
25.856423
70
0
0
VERTEX
8
Image
10
137.368525
20
26.022564
70
0
0
VERTEX
8
Image
10
123.006601
20
26.838191
70
0
0
VERTEX
8
Image
10
89.847386
20
29.081743
70
0
0
VERTEX
8
Image
10
83.617652
20
29.461791
70
0
0
VERTEX
8
Image
10
77.178120
20
29.633838
70
0
0
VERTEX
8
Image
10
70.673965
20
29.605139
70
0
0
VERTEX
8
Image
10
64.250359
20
29.382947
70
0
0
VERTEX
8
Image
10
58.052477
20
28.974516
70
0
0
VERTEX
8
Image
10
52.225491
20
28.387098
70
0
0
VERTEX
8
Image
10
46.914575
20
27.627949
70
0
0
VERTEX
8
Image
10
42.264904
20
26.704320
70
0
0
VERTEX
8
Image
10
41.241928
20
26.500995
70
0
0
VERTEX
8
Image
10
41.008436
20
26.553419
70
0
0
VERTEX
8
Image
10
42.883904
20
27.396445
70
0
0
VERTEX
8
Image
10
45.901177
20
28.362548
70
0
0
VERTEX
8
Image
10
49.810857
20
29.320645
70
0
0
VERTEX
8
Image
10
54.225805
20
30.185938
70
0
0
VERTEX
8
Image
10
58.758884
20
30.873632
70
0
0
VERTEX
8
Image
10
61.017045
20
31.210638
70
0
0
VERTEX
8
Image
10
60.932974
20
31.312891
70
0
0
VERTEX
8
Image
10
60.219887
20
31.440752
70
0
0
VERTEX
8
Image
10
57.714114
20
31.545753
70
0
0
VERTEX
8
Image
10
53.539166
20
31.500604
70
0
0
VERTEX
8
Image
10
48.175564
20
31.433463
70
0
0
VERTEX
8
Image
10
51.339794
20
32.101675
70
0
0
VERTEX
8
Image
10
53.413982
20
32.543541
70
0
0
VERTEX
8
Image
10
54.613054
20
32.958844
70
0
0
VERTEX
8
Image
10
55.005568
20
33.383776
70
0
0
VERTEX
8
Image
10
54.660083
20
33.854532
70
0
0
VERTEX
8
Image
10
53.875217
20
34.265938
70
0
0
VERTEX
8
Image
10
52.594405
20
34.601898
70
0
0
VERTEX
8
Image
10
47.279400
20
35.294367
70
0
0
VERTEX
8
Image
10
41.540593
20
36.021617
70
0
0
VERTEX
8
Image
10
37.667782
20
36.714173
70
0
0
VERTEX
8
Image
10
36.686026
20
36.988896
70
0
0
VERTEX
8
Image
10
36.476648
20
37.184692
70
0
0
VERTEX
8
Image
10
37.141608
20
37.278143
70
0
0
VERTEX
8
Image
10
38.782867
20
37.245830
70
0
0
VERTEX
8
Image
10
42.175238
20
37.218616
70
0
0
VERTEX
8
Image
10
46.667346
20
37.367114
70
0
0
VERTEX
8
Image
10
56.377637
20
38.070628
70
0
0
VERTEX
8
Image
10
64.873576
20
39.230262
70
0
0
VERTEX
8
Image
10
75.295321
20
41.093126
70
0
0
VERTEX
8
Image
10
82.946144
20
42.472343
70
0
0
VERTEX
8
Image
10
89.394159
20
43.299152
70
0
0
VERTEX
8
Image
10
95.636140
20
43.667423
70
0
0
VERTEX
8
Image
10
102.668861
20
43.671027
70
0
0
VERTEX
8
Image
10
110.358171
20
43.378728
70
0
0
VERTEX
8
Image
10
118.398006
20
42.708099
70
0
0
VERTEX
8
Image
10
126.658861
20
41.971767
70
0
0
VERTEX
8
Image
10
124.931628
20
42.366209
70
0
0
VERTEX
8
Image
10
120.440847
20
43.072634
70
0
0
VERTEX
8
Image
10
109.278362
20
44.524183
70
0
0
VERTEX
8
Image
10
101.885913
20
45.347235
70
0
0
VERTEX
8
Image
10
98.380084
20
45.636141
70
0
0
VERTEX
8
Image
10
94.264238
20
45.788002
70
0
0
VERTEX
8
Image
10
90.321213
20
45.788061
70
0
0
VERTEX
8
Image
10
87.333848
20
45.621560
70
0
0
VERTEX
8
Image
10
79.264066
20
44.278941
70
0
0
VERTEX
8
Image
10
70.978110
20
42.848907
70
0
0
VERTEX
8
Image
10
62.066171
20
41.887693
70
0
0
VERTEX
8
Image
10
52.570115
20
40.948468
70
0
0
VERTEX
8
Image
10
49.079144
20
40.636872
70
0
0
VERTEX
8
Image
10
53.261304
20
41.693079
70
0
0
VERTEX
8
Image
10
57.731320
20
42.876408
70
0
0
VERTEX
8
Image
10
56.307898
20
43.003683
70
0
0
VERTEX
8
Image
10
52.594190
20
43.018378
70
0
0
VERTEX
8
Image
10
47.249523
20
42.952901
70
0
0
VERTEX
8
Image
10
50.854858
20
43.722539
70
0
0
VERTEX
8
Image
10
57.424800
20
45.291101
70
0
0
VERTEX
8
Image
10
62.233189
20
46.740415
70
0
0
VERTEX
8
Image
10
63.856260
20
47.347403
70
0
0
VERTEX
8
Image
10
61.983907
20
48.459747
70
0
0
VERTEX
8
Image
10
58.022195
20
51.145497
70
0
0
VERTEX
8
Image
10
53.864219
20
54.540315
70
0
0
VERTEX
8
Image
10
49.885523
20
58.313370
70
0
0
VERTEX
8
Image
10
46.461651
20
62.133830
70
0
0
VERTEX
8
Image
10
41.713164
20
68.616114
70
0
0
VERTEX
8
Image
10
38.506436
20
73.183195
70
0
0
VERTEX
8
Image
10
38.121410
20
73.766439
70
0
0
VERTEX
8
Image
10
36.444221
20
76.475390
70
0
0
VERTEX
8
Image
10
31.600806
20
84.395242
70
0
0
VERTEX
8
Image
10
27.547107
20
91.352575
70
0
0
VERTEX
8
Image
10
27.145211
20
92.379922
70
0
0
VERTEX
8
Image
10
27.021228
20
93.313437
70
0
0
VERTEX
8
Image
10
27.174467
20
94.112163
70
0
0
VERTEX
8
Image
10
27.604235
20
94.735144
70
0
0
VERTEX
8
Image
10
28.412917
20
95.273195
70
0
0
VERTEX
8
Image
10
29.464708
20
95.458660
70
0
0
VERTEX
8
Image
10
31.034057
20
95.293684
70
0
0
VERTEX
8
Image
10
33.395415
20
94.780412
70
0
0
VERTEX
8
Image
10
36.672808
20
94.117945
70
0
0
VERTEX
8
Image
10
39.337579
20
93.906007
70
0
0
VERTEX
8
Image
10
41.744371
20
93.883782
70
0
0
VERTEX
8
Image
10
42.827497
20
94.861001
70
0
0
VERTEX
8
Image
10
43.881516
20
95.717612
70
0
0
VERTEX
8
Image
10
44.855799
20
96.302693
70
0
0
VERTEX
8
Image
10
45.789147
20
96.634901
70
0
0
VERTEX
8
Image
10
46.720357
20
96.732891
70
0
0
VERTEX
8
Image
10
49.488557
20
96.132269
70
0
0
VERTEX
8
Image
10
54.657847
20
94.708551
70
0
0
VERTEX
8
Image
10
73.046366
20
89.372759
70
0
0
VERTEX
8
Image
10
81.677387
20
86.784332
70
0
0
VERTEX
8
Image
10
85.503095
20
85.427154
70
0
0
VERTEX
8
Image
10
87.238556
20
83.854651
70
0
0
VERTEX
8
Image
10
89.777608
20
80.786924
70
0
0
VERTEX
8
Image
10
91.140181
20
79.365478
70
0
0
VERTEX
8
Image
10
92.920966
20
78.332130
70
0
0
VERTEX
8
Image
10
95.561836
20
77.500506
70
0
0
VERTEX
8
Image
10
99.504666
20
76.684231
70
0
0
VERTEX
8
Image
10
110.881735
20
74.265397
70
0
0
VERTEX
8
Image
10
115.109426
20
73.318287
70
0
0
VERTEX
8
Image
10
117.895271
20
72.840464
70
0
0
VERTEX
8
Image
10
119.511007
20
72.799927
70
0
0
VERTEX
8
Image
10
119.965002
20
72.933640
70
0
0
VERTEX
8
Image
10
120.228373
20
73.164674
70
0
0
VERTEX
8
Image
10
120.364659
20
73.618854
70
0
0
VERTEX
8
Image
10
120.096280
20
74.090714
70
0
0
VERTEX
8
Image
10
119.870385
20
74.666493
70
0
0
VERTEX
8
Image
10
119.694393
20
76.074267
70
0
0
VERTEX
8
Image
10
119.354227
20
83.050836
70
0
0
VERTEX
8
Image
10
119.180002
20
89.475669
70
0
0
VERTEX
8
Image
10
119.284365
20
93.643207
70
0
0
VERTEX
8
Image
10
119.722608
20
96.243039
70
0
0
VERTEX
8
Image
10
120.084212
20
97.170561
70
0
0
VERTEX
8
Image
10
120.550021
20
97.964753
70
0
0
VERTEX
8
Image
10
122.309642
20
101.022689
70
0
0
VERTEX
8
Image
10
124.369097
20
105.506009
70
0
0
VERTEX
8
Image
10
126.690000
20
110.136211
70
0
0
VERTEX
8
Image
10
129.808215
20
114.637407
70
0
0
VERTEX
8
Image
10
133.805330
20
119.886507
70
0
0
VERTEX
8
Image
10
134.353417
20
120.776698
70
0
0
VERTEX
8
Image
10
134.204689
20
121.769285
70
0
0
VERTEX
8
Image
10
133.964316
20
123.024755
70
0
0
VERTEX
8
Image
10
133.937553
20
124.591366
70
0
0
VERTEX
8
Image
10
134.553277
20
129.269600
70
0
0
VERTEX
8
Image
10
135.203850
20
132.905457
70
0
0
VERTEX
8
Image
10
134.029128
20
138.866652
70
0
0
VERTEX
8
Image
10
132.597019
20
145.308780
70
0
0
VERTEX
8
Image
10
132.411172
20
145.565033
70
0
0
VERTEX
8
Image
10
132.111143
20
145.662146
70
0
0
VERTEX
8
Image
10
130.540360
20
145.409805
70
0
0
VERTEX
8
Image
10
128.023332
20
145.155648
70
0
0
VERTEX
8
Image
10
125.242040
20
145.319738
70
0
0
VERTEX
8
Image
10
122.552673
20
145.856445
70
0
0
VERTEX
8
Image
10
120.311423
20
146.720142
70
0
0
VERTEX
8
Image
10
116.342678
20
147.484208
70
0
0
VERTEX
8
Image
10
113.486599
20
147.955282
70
0
0
VERTEX
8
Image
10
111.478226
20
148.455306
70
0
0
VERTEX
8
Image
10
110.039235
20
149.074654
70
0
0
VERTEX
8
Image
10
108.891301
20
149.903697
70
0
0
VERTEX
8
Image
10
107.926990
20
150.656879
70
0
0
VERTEX
8
Image
10
107.752316
20
150.654004
70
0
0
VERTEX
8
Image
10
107.706739
20
150.431998
70
0
0
VERTEX
8
Image
10
108.017624
20
149.715517
70
0
0
VERTEX
8
Image
10
108.765071
20
148.715267
70
0
0
VERTEX
8
Image
10
109.434041
20
147.883681
70
0
0
VERTEX
8
Image
10
109.755500
20
147.271519
70
0
0
VERTEX
8
Image
10
109.750749
20
146.806315
70
0
0
VERTEX
8
Image
10
109.441091
20
146.415602
70
0
0
VERTEX
8
Image
10
108.817661
20
146.105280
70
0
0
VERTEX
8
Image
10
108.238375
20
146.299714
70
0
0
VERTEX
8
Image
10
107.653629
20
147.038677
70
0
0
VERTEX
8
Image
10
107.013822
20
148.361946
70
0
0
VERTEX
8
Image
10
106.222376
20
150.021013
70
0
0
VERTEX
8
Image
10
105.552305
20
151.073922
70
0
0
VERTEX
8
Image
10
105.058231
20
151.478276
70
0
0
VERTEX
8
Image
10
104.574255
20
151.669654
70
0
0
VERTEX
8
Image
10
104.169534
20
151.635797
70
0
0
VERTEX
8
Image
10
103.913222
20
151.364447
70
0
0
VERTEX
8
Image
10
103.809424
20
151.441755
70
0
0
VERTEX
8
Image
10
103.747267
20
152.092050
70
0
0
VERTEX
8
Image
10
103.437150
20
153.895616
70
0
0
VERTEX
8
Image
10
102.688350
20
155.576022
70
0
0
VERTEX
8
Image
10
101.606795
20
156.956145
70
0
0
VERTEX
8
Image
10
100.298415
20
157.858862
70
0
0
VERTEX
8
Image
10
99.035417
20
158.438484
70
0
0
VERTEX
8
Image
10
99.003160
20
158.661337
70
0
0
VERTEX
8
Image
10
99.200118
20
159.001636
70
0
0
VERTEX
8
Image
10
100.042129
20
159.727770
70
0
0
VERTEX
8
Image
10
100.596854
20
160.144930
70
0
0
VERTEX
8
Image
10
100.827581
20
160.496347
70
0
0
VERTEX
8
Image
10
97.876499
20
166.236070
70
0
0
VERTEX
8
Image
10
89.618899
20
180.952951
70
0
0
VERTEX
8
Image
10
80.891047
20
195.638724
70
0
0
VERTEX
8
Image
10
72.320381
20
209.266425
70
0
0
VERTEX
8
Image
10
64.534339
20
220.809089
70
0
0
VERTEX
8
Image
10
62.879474
20
222.976152
70
0
0
VERTEX
8
Image
10
62.466589
20
223.193562
70
0
0
VERTEX
8
Image
10
62.059977
20
223.081622
70
0
0
VERTEX
8
Image
10
61.404277
20
222.782865
70
0
0
VERTEX
8
Image
10
62.264389
20
221.265378
70
0
0
VERTEX
8
Image
10
80.983856
20
188.905438
70
0
0
VERTEX
8
Image
10
96.151037
20
162.896833
70
0
0
VERTEX
8
Image
10
98.728644
20
158.796579
70
0
0
VERTEX
8
Image
10
99.329250
20
158.034807
70
0
0
VERTEX
8
Image
10
99.685648
20
157.774735
70
0
0
VERTEX
8
Image
10
100.930431
20
157.002450
70
0
0
VERTEX
8
Image
10
102.064381
20
155.718457
70
0
0
VERTEX
8
Image
10
102.889759
20
154.205071
70
0
0
VERTEX
8
Image
10
103.208828
20
152.744612
70
0
0
VERTEX
8
Image
10
103.495567
20
151.389193
70
0
0
VERTEX
8
Image
10
103.622548
20
150.955467
70
0
0
VERTEX
8
Image
10
103.590879
20
150.470181
70
0
0
VERTEX
8
Image
10
103.133199
20
149.461964
70
0
0
VERTEX
8
Image
10
102.285745
20
148.598601
70
0
0
VERTEX
8
Image
10
101.211737
20
148.114153
70
0
0
VERTEX
8
Image
10
100.380462
20
148.133828
70
0
0
VERTEX
8
Image
10
99.455268
20
148.469896
70
0
0
VERTEX
8
Image
10
98.479830
20
148.975225
70
0
0
VERTEX
8
Image
10
98.170032
20
148.227307
70
0
0
VERTEX
8
Image
10
97.802520
20
147.507947
70
0
0
VERTEX
8
Image
10
97.427227
20
147.125312
70
0
0
VERTEX
8
Image
10
97.028151
20
147.070360
70
0
0
VERTEX
8
Image
10
96.589289
20
147.334049
70
0
0
VERTEX
8
Image
10
96.219071
20
147.851349
70
0
0
VERTEX
8
Image
10
96.065087
20
148.428896
70
0
0
VERTEX
8
Image
10
96.102829
20
148.865152
70
0
0
VERTEX
8
Image
10
96.230837
20
149.016628
70
0
0
VERTEX
8
Image
10
96.846350
20
148.469896
70
0
0
VERTEX
8
Image
10
97.315562
20
147.890446
70
0
0
VERTEX
8
Image
10
97.639477
20
148.495690
70
0
0
VERTEX
8
Image
10
97.779635
20
148.865509
70
0
0
VERTEX
8
Image
10
97.760057
20
149.269953
70
0
0
VERTEX
8
Image
10
97.126551
20
150.671017
70
0
0
VERTEX
8
Image
10
96.518283
20
152.091706
70
0
0
VERTEX
8
Image
10
96.170360
20
153.523985
70
0
0
VERTEX
8
Image
10
96.101460
20
154.844508
70
0
0
VERTEX
8
Image
10
96.330260
20
155.929930
70
0
0
VERTEX
8
Image
10
96.838946
20
156.727919
70
0
0
VERTEX
8
Image
10
97.588386
20
157.503177
70
0
0
VERTEX
8
Image
10
98.509270
20
158.262245
70
0
0
VERTEX
8
Image
10
79.907556
20
190.366688
70
0
0
VERTEX
8
Image
10
61.090696
20
222.559322
70
0
0
VERTEX
8
Image
10
60.875548
20
222.879393
70
0
0
VERTEX
8
Image
10
56.306395
20
229.541911
70
0
0
VERTEX
8
Image
10
51.468220
20
236.164796
70
0
0
VERTEX
8
Image
10
50.616018
20
236.115077
70
0
0
VERTEX
8
Image
10
48.944262
20
235.751043
70
0
0
VERTEX
8
Image
10
46.534104
20
235.092803
70
0
0
VERTEX
8
Image
10
45.769319
20
233.139979
70
0
0
VERTEX
8
Image
10
43.295535
20
227.931108
70
0
0
VERTEX
8
Image
10
40.588724
20
222.596125
70
0
0
VERTEX
8
Image
10
37.951457
20
217.707022
70
0
0
VERTEX
8
Image
10
35.686309
20
213.835790
70
0
0
VERTEX
8
Image
10
30.623357
20
205.819233
70
0
0
VERTEX
8
Image
10
26.434285
20
199.497548
70
0
0
VERTEX
8
Image
10
22.930501
20
194.706949
70
0
0
VERTEX
8
Image
10
19.923415
20
191.283651
70
0
0
VERTEX
8
Image
10
18.547199
20
190.033557
70
0
0
VERTEX
8
Image
10
17.224435
20
189.063868
70
0
0
VERTEX
8
Image
10
15.931551
20
188.354112
70
0
0
VERTEX
8
Image
10
14.644971
20
187.883815
70
0
0
VERTEX
8
Image
10
13.341122
20
187.632504
70
0
0
VERTEX
8
Image
10
11.996430
20
187.579706
70
0
0
VERTEX
8
Image
10
10.587322
20
187.704948
70
0
0
VERTEX
8
Image
10
9.090223
20
187.987756
70
0
0
VERTEX
8
Image
10
7.864950
20
188.350383
70
0
0
VERTEX
8
Image
10
6.751830
20
188.849094
70
0
0
VERTEX
8
Image
10
5.755172
20
189.479575
70
0
0
VERTEX
8
Image
10
4.879281
20
190.237512
70
0
0
VERTEX
8
Image
10
4.128466
20
191.118591
70
0
0
VERTEX
8
Image
10
3.507033
20
192.118498
70
0
0
VERTEX
8
Image
10
3.019289
20
193.232919
70
0
0
VERTEX
8
Image
10
2.669542
20
194.457541
70
0
0
VERTEX
8
Image
10
2.462099
20
195.788050
70
0
0
VERTEX
8
Image
10
2.401266
20
197.220131
70
0
0
VERTEX
8
Image
10
2.736662
20
200.371755
70
0
0
VERTEX
8
Image
10
3.710186
20
203.877904
70
0
0
VERTEX
8
Image
10
5.356296
20
207.704066
70
0
0
VERTEX
8
Image
10
7.558564
20
211.399584
70
0
0
VERTEX
8
Image
10
10.419257
20
215.152161
70
0
0
VERTEX
8
Image
10
13.718819
20
218.724554
70
0
0
VERTEX
8
Image
10
17.237694
20
221.879515
70
0
0
VERTEX
8
Image
10
19.996658
20
223.966969
70
0
0
VERTEX
8
Image
10
22.971688
20
225.954964
70
0
0
VERTEX
8
Image
10
26.135216
20
227.823150
70
0
0
VERTEX
8
Image
10
29.459671
20
229.551173
70
0
0
VERTEX
8
Image
10
32.917485
20
231.118684
70
0
0
VERTEX
8
Image
10
36.481088
20
232.505330
70
0
0
VERTEX
8
Image
10
40.122911
20
233.690760
70
0
0
VERTEX
8
Image
10
43.815384
20
234.654623
70
0
0
VERTEX
8
Image
10
46.292037
20
235.219789
70
0
0
VERTEX
8
Image
10
47.325750
20
238.039728
70
0
0
VERTEX
8
Image
10
48.007791
20
239.928932
70
0
0
VERTEX
8
Image
10
48.130603
20
240.425452
70
0
0
VERTEX
8
Image
10
48.076850
20
240.650191
70
0
0
VERTEX
8
Image
10
47.929215
20
240.872282
70
0
0
VERTEX
8
Image
10
48.120242
20
241.174739
70
0
0
VERTEX
8
Image
10
48.335326
20
241.286838
70
0
0
VERTEX
8
Image
10
48.609959
20
241.187068
70
0
0
VERTEX
8
Image
10
49.572207
20
240.193571
70
0
0
VERTEX
8
Image
10
51.616175
20
237.865289
70
0
0
VERTEX
8
Image
10
52.701095
20
236.721771
70
0
0
VERTEX
8
Image
10
55.718240
20
237.289268
70
0
0
VERTEX
8
Image
10
59.092277
20
237.693287
70
0
0
VERTEX
8
Image
10
62.992212
20
237.865728
70
0
0
VERTEX
8
Image
10
66.194846
20
237.761955
70
0
0
VERTEX
8
Image
10
69.385087
20
237.447941
70
0
0
VERTEX
8
Image
10
71.378143
20
237.200349
70
0
0
VERTEX
8
Image
10
73.311740
20
236.716779
70
0
0
VERTEX
8
Image
10
77.614339
20
234.910144
70
0
0
VERTEX
8
Image
10
81.478336
20
232.843232
70
0
0
VERTEX
8
Image
10
85.591384
20
230.033622
70
0
0
VERTEX
8
Image
10
90.641135
20
225.998895
70
0
0
VERTEX
8
Image
10
98.249586
20
219.771292
70
0
0
VERTEX
8
Image
10
104.103710
20
215.359452
70
0
0
VERTEX
8
Image
10
109.031637
20
212.180341
70
0
0
VERTEX
8
Image
10
113.861500
20
209.650926
70
0
0
VERTEX
8
Image
10
117.387150
20
208.118500
70
0
0
VERTEX
8
Image
10
120.779386
20
206.935733
70
0
0
VERTEX
8
Image
10
124.063033
20
206.100121
70
0
0
VERTEX
8
Image
10
127.262915
20
205.609158
70
0
0
VERTEX
8
Image
10
130.403856
20
205.460340
70
0
0
VERTEX
8
Image
10
133.510681
20
205.651163
70
0
0
VERTEX
8
Image
10
136.608215
20
206.179120
70
0
0
VERTEX
8
Image
10
139.721282
20
207.041709
70
0
0
VERTEX
8
Image
10
141.013604
20
207.535314
70
0
0
VERTEX
8
Image
10
141.705654
20
207.927839
70
0
0
VERTEX
8
Image
10
142.102317
20
208.231199
70
0
0
VERTEX
8
Image
10
142.583734
20
208.393403
70
0
0
VERTEX
8
Image
10
142.989914
20
208.386464
70
0
0
VERTEX
8
Image
10
143.160861
20
208.182395
70
0
0
VERTEX
8
Image
10
143.442223
20
207.652823
70
0
0
VERTEX
8
Image
10
144.217870
20
206.973094
70
0
0
VERTEX
8
Image
10
146.841380
20
205.466212
70
0
0
VERTEX
8
Image
10
149.028118
20
204.607119
70
0
0
VERTEX
8
Image
10
151.414522
20
203.902762
70
0
0
VERTEX
8
Image
10
153.549926
20
203.466792
70
0
0
VERTEX
8
Image
10
154.983662
20
203.412860
70
0
0
VERTEX
8
Image
10
155.690578
20
203.657556
70
0
0
VERTEX
8
Image
10
156.431581
20
204.114852
70
0
0
VERTEX
8
Image
10
157.909130
20
205.539530
70
0
0
VERTEX
8
Image
10
159.202875
20
207.431463
70
0
0
VERTEX
8
Image
10
160.099385
20
209.535221
70
0
0
VERTEX
8
Image
10
160.250635
20
210.216912
70
0
0
VERTEX
8
Image
10
160.159962
20
210.930189
70
0
0
VERTEX
8
Image
10
158.801907
20
214.004954
70
0
0
VERTEX
8
Image
10
157.183760
20
217.746602
70
0
0
VERTEX
8
Image
10
157.340497
20
218.000080
70
0
0
VERTEX
8
Image
10
157.717334
20
218.105509
70
0
0
VERTEX
8
Image
10
158.834996
20
217.724005
70
0
0
VERTEX
8
Image
10
161.000050
20
216.722564
70
0
0
VERTEX
8
Image
10
166.712314
20
213.718299
70
0
0
VERTEX
8
Image
10
169.132561
20
212.522633
70
0
0
VERTEX
8
Image
10
171.302475
20
211.903083
70
0
0
VERTEX
8
Image
10
175.113132
20
211.048076
70
0
0
VERTEX
8
Image
10
179.047181
20
209.925883
70
0
0
VERTEX
8
Image
10
183.051040
20
208.559113
70
0
0
VERTEX
8
Image
10
187.071128
20
206.970374
70
0
0
VERTEX
8
Image
10
191.053863
20
205.182272
70
0
0
VERTEX
8
Image
10
194.945662
20
203.217417
70
0
0
VERTEX
8
Image
10
198.692944
20
201.098416
70
0
0
VERTEX
8
Image
10
202.242128
20
198.847877
70
0
0
VERTEX
8
Image
10
204.570326
20
197.281779
70
0
0
VERTEX
8
Image
10
206.343165
20
197.787045
70
0
0
VERTEX
8
Image
10
208.491103
20
198.200035
70
0
0
VERTEX
8
Image
10
211.129306
20
198.437665
70
0
0
VERTEX
8
Image
10
213.721659
20
198.472052
70
0
0
VERTEX
8
Image
10
215.732051
20
198.275314
70
0
0
VERTEX
8
Image
10
217.016661
20
197.874548
70
0
0
VERTEX
8
Image
10
217.955792
20
197.359651
70
0
0
VERTEX
8
Image
10
218.338956
20
196.957586
70
0
0
VERTEX
8
Image
10
218.574294
20
196.408751
70
0
0
VERTEX
8
Image
10
218.859898
20
193.874614
70
0
0
VERTEX
8
Image
10
219.480425
20
189.050226
70
0
0
VERTEX
8
Image
10
219.868945
20
186.707130
70
0
0
VERTEX
8
Image
10
219.811746
20
186.229550
70
0
0
VERTEX
8
Image
10
219.591550
20
186.090966
70
0
0
VERTEX
8
Image
10
218.630135
20
186.809887
70
0
0
VERTEX
8
Image
10
216.737652
20
188.538358
70
0
0
VERTEX
8
Image
10
214.639367
20
190.417134
70
0
0
VERTEX
8
Image
10
212.365610
20
192.226275
70
0
0
VERTEX
8
Image
10
210.089381
20
193.835794
70
0
0
VERTEX
8
Image
10
207.983685
20
195.115704
70
0
0
VERTEX
8
Image
10
207.147844
20
195.536520
70
0
0
VERTEX
8
Image
10
207.042918
20
195.555278
70
0
0
VERTEX
8
Image
10
207.181734
20
195.432412
70
0
0
VERTEX
8
Image
10
212.348878
20
191.382918
70
0
0
VERTEX
8
Image
10
216.719157
20
187.413881
70
0
0
VERTEX
8
Image
10
219.807444
20
184.177143
70
0
0
VERTEX
8
Image
10
222.425459
20
181.049341
70
0
0
VERTEX
8
Image
10
224.750441
20
177.801884
70
0
0
VERTEX
8
Image
10
226.959631
20
174.206180
70
0
0
VERTEX
8
Image
10
227.975540
20
172.580936
70
0
0
VERTEX
8
Image
10
228.626662
20
171.790424
70
0
0
VERTEX
8
Image
10
231.040718
20
170.639890
70
0
0
VERTEX
8
Image
10
232.622447
20
169.750641
70
0
0
VERTEX
8
Image
10
234.152654
20
168.667381
70
0
0
VERTEX
8
Image
10
235.307938
20
167.643824
70
0
0
VERTEX
8
Image
10
235.764900
20
166.933680
70
0
0
VERTEX
8
Image
10
235.524808
20
166.477390
70
0
0
VERTEX
8
Image
10
234.947550
20
165.833721
70
0
0
VERTEX
8
Image
10
233.750127
20
164.329014
70
0
0
VERTEX
8
Image
10
233.385277
20
163.836818
70
0
0
VERTEX
8
Image
10
232.949105
20
163.640808
70
0
0
VERTEX
8
Image
10
232.424952
20
163.739291
70
0
0
VERTEX
8
Image
10
231.796155
20
164.130577
70
0
0
VERTEX
8
Image
10
230.924880
20
164.626543
70
0
0
VERTEX
8
Image
10
230.956085
20
164.411822
70
0
0
VERTEX
8
Image
10
231.327711
20
163.902821
70
0
0
VERTEX
8
Image
10
232.088445
20
162.208974
70
0
0
VERTEX
8
Image
10
232.951166
20
159.174499
70
0
0
VERTEX
8
Image
10
233.727427
20
155.563461
70
0
0
VERTEX
8
Image
10
234.228784
20
152.139929
70
0
0
VERTEX
8
Image
10
234.402652
20
149.119441
70
0
0
VERTEX
8
Image
10
234.226138
20
146.381299
70
0
0
VERTEX
8
Image
10
233.917396
20
143.749788
70
0
0
VERTEX
8
Image
10
235.915686
20
140.143662
70
0
0
VERTEX
8
Image
10
238.484073
20
135.353166
70
0
0
VERTEX
8
Image
10
240.291046
20
131.575008
70
0
0
VERTEX
8
Image
10
241.491546
20
128.453698
70
0
0
VERTEX
8
Image
10
242.240516
20
125.633750
70
0
0
VERTEX
8
Image
10
242.519989
20
123.643049
70
0
0
VERTEX
8
Image
10
242.432848
20
122.192221
70
0
0
VERTEX
8
Image
10
241.984443
20
121.304606
70
0
0
VERTEX
8
Image
10
241.626437
20
121.079299
70
0
0
VERTEX
8
Image
10
241.180120
20
121.003548
70
0
0
VERTEX
8
Image
10
240.806223
20
121.119913
70
0
0
VERTEX
8
Image
10
240.313353
20
121.488738
70
0
0
VERTEX
8
Image
10
238.838614
20
123.102138
70
0
0
VERTEX
8
Image
10
237.047059
20
125.005149
70
0
0
VERTEX
8
Image
10
236.176971
20
125.613265
70
0
0
VERTEX
8
Image
10
235.058278
20
126.210988
70
0
0
VERTEX
8
Image
10
233.862303
20
126.773652
70
0
0
VERTEX
8
Image
10
232.944730
20
127.075151
70
0
0
VERTEX
8
Image
10
230.486893
20
127.214784
70
0
0
VERTEX
8
Image
10
228.557587
20
127.117931
70
0
0
VERTEX
8
Image
10
227.035378
20
126.756359
70
0
0
VERTEX
8
Image
10
225.589959
20
126.006343
70
0
0
VERTEX
8
Image
10
223.891024
20
124.744161
70
0
0
VERTEX
8
Image
10
222.507981
20
123.756300
70
0
0
VERTEX
8
Image
10
221.515217
20
123.364959
70
0
0
VERTEX
8
Image
10
221.145164
20
123.390646
70
0
0
VERTEX
8
Image
10
220.848649
20
123.562659
70
0
0
VERTEX
8
Image
10
220.444195
20
124.341921
70
0
0
VERTEX
8
Image
10
220.301147
20
125.280725
70
0
0
VERTEX
8
Image
10
220.363322
20
126.349094
70
0
0
VERTEX
8
Image
10
220.638506
20
127.565871
70
0
0
VERTEX
8
Image
10
221.134482
20
128.949895
70
0
0
VERTEX
8
Image
10
222.819947
20
132.295046
70
0
0
VERTEX
8
Image
10
225.481988
20
136.535271
70
0
0
VERTEX
8
Image
10
227.479238
20
139.677652
70
0
0
VERTEX
8
Image
10
228.926911
20
142.221043
70
0
0
VERTEX
8
Image
10
229.983206
20
144.337877
70
0
0
VERTEX
8
Image
10
229.668723
20
146.230590
70
0
0
VERTEX
8
Image
10
229.024590
20
149.071459
70
0
0
VERTEX
8
Image
10
228.079192
20
151.917159
70
0
0
VERTEX
8
Image
10
226.948028
20
154.467567
70
0
0
VERTEX
8
Image
10
225.746597
20
156.422557
70
0
0
VERTEX
8
Image
10
225.221893
20
156.858620
70
0
0
VERTEX
8
Image
10
224.600351
20
156.798462
70
0
0
VERTEX
8
Image
10
223.770996
20
156.191018
70
0
0
VERTEX
8
Image
10
222.622851
20
154.985223
70
0
0
VERTEX
8
Image
10
221.428189
20
153.782798
70
0
0
VERTEX
8
Image
10
220.668006
20
153.282674
70
0
0
VERTEX
8
Image
10
220.051544
20
153.591065
70
0
0
VERTEX
8
Image
10
219.327786
20
154.442387
70
0
0
VERTEX
8
Image
10
217.757394
20
157.330722
70
0
0
VERTEX
8
Image
10
216.354861
20
161.061474
70
0
0
VERTEX
8
Image
10
215.840925
20
162.965817
70
0
0
VERTEX
8
Image
10
215.518215
20
164.748436
70
0
0
VERTEX
8
Image
10
215.216928
20
166.097002
70
0
0
VERTEX
8
Image
10
214.631359
20
166.950423
70
0
0
VERTEX
8
Image
10
212.905892
20
168.273816
70
0
0
VERTEX
8
Image
10
210.066998
20
170.179949
70
0
0
VERTEX
8
Image
10
206.935668
20
172.137514
70
0
0
VERTEX
8
Image
10
204.332889
20
173.615200
70
0
0
VERTEX
8
Image
10
202.357695
20
174.748675
70
0
0
VERTEX
8
Image
10
201.302673
20
175.576435
70
0
0
VERTEX
8
Image
10
200.840283
20
176.043218
70
0
0
VERTEX
8
Image
10
200.076359
20
176.553027
70
0
0
VERTEX
8
Image
10
197.969172
20
177.569418
70
0
0
VERTEX
8
Image
10
195.631629
20
178.360999
70
0
0
VERTEX
8
Image
10
193.714248
20
178.663163
70
0
0
VERTEX
8
Image
10
193.316117
20
178.634125
70
0
0
VERTEX
8
Image
10
193.308675
20
178.556897
70
0
0
VERTEX
8
Image
10
194.622164
20
178.173592
70
0
0
VERTEX
8
Image
10
197.020408
20
177.451166
70
0
0
VERTEX
8
Image
10
199.052081
20
176.623453
70
0
0
VERTEX
8
Image
10
200.521149
20
175.783821
70
0
0
VERTEX
8
Image
10
201.231580
20
175.025639
70
0
0
VERTEX
8
Image
10
201.181596
20
174.591903
70
0
0
VERTEX
8
Image
10
200.825733
20
173.981761
70
0
0
VERTEX
8
Image
10
199.467863
20
172.486943
70
0
0
VERTEX
8
Image
10
197.700964
20
171.050544
70
0
0
VERTEX
8
Image
10
196.068031
20
170.181926
70
0
0
VERTEX
8
Image
10
195.260636
20
170.033244
70
0
0
VERTEX
8
Image
10
194.657073
20
170.198133
70
0
0
VERTEX
8
Image
10
194.152009
20
170.744138
70
0
0
VERTEX
8
Image
10
193.640112
20
171.738801
70
0
0
VERTEX
8
Image
10
192.798638
20
174.705773
70
0
0
VERTEX
8
Image
10
192.373288
20
177.779877
70
0
0
VERTEX
8
Image
10
192.292197
20
178.417455
70
0
0
VERTEX
8
Image
10
192.097222
20
178.682642
70
0
0
VERTEX
8
Image
10
188.205504
20
180.136186
70
0
0
VERTEX
8
Image
10
182.879680
20
182.503339
70
0
0
VERTEX
8
Image
10
178.425080
20
184.983402
70
0
0
VERTEX
8
Image
10
174.304021
20
187.911077
70
0
0
VERTEX
8
Image
10
172.329255
20
189.551582
70
0
0
VERTEX
8
Image
10
172.121409
20
189.877791
70
0
0
VERTEX
8
Image
10
172.319648
20
189.993882
70
0
0
VERTEX
8
Image
10
174.540585
20
190.401688
70
0
0
VERTEX
8
Image
10
176.595722
20
191.085118
70
0
0
VERTEX
8
Image
10
178.312498
20
191.972318
70
0
0
VERTEX
8
Image
10
179.518354
20
192.991436
70
0
0
VERTEX
8
Image
10
180.352103
20
194.116304
70
0
0
VERTEX
8
Image
10
180.888686
20
195.206028
70
0
0
VERTEX
8
Image
10
181.175717
20
196.392184
70
0
0
VERTEX
8
Image
10
181.260813
20
197.806346
70
0
0
VERTEX
8
Image
10
181.160628
20
199.505665
70
0
0
VERTEX
8
Image
10
180.851658
20
201.040551
70
0
0
VERTEX
8
Image
10
180.321279
20
202.455368
70
0
0
VERTEX
8
Image
10
179.556866
20
203.794481
70
0
0
VERTEX
8
Image
10
178.993091
20
204.786050
70
0
0
VERTEX
8
Image
10
178.903939
20
205.288296
70
0
0
VERTEX
8
Image
10
179.089388
20
205.508784
70
0
0
VERTEX
8
Image
10
178.926799
20
205.696145
70
0
0
VERTEX
8
Image
10
177.716258
20
205.890931
70
0
0
VERTEX
8
Image
10
176.438480
20
206.065335
70
0
0
VERTEX
8
Image
10
175.014524
20
206.451556
70
0
0
VERTEX
8
Image
10
173.974646
20
206.772780
70
0
0
VERTEX
8
Image
10
173.785236
20
206.731543
70
0
0
VERTEX
8
Image
10
175.704570
20
205.800592
70
0
0
VERTEX
8
Image
10
177.926061
20
204.651574
70
0
0
VERTEX
8
Image
10
178.695646
20
203.770856
70
0
0
VERTEX
8
Image
10
179.482619
20
202.526353
70
0
0
VERTEX
8
Image
10
180.168072
20
201.131234
70
0
0
VERTEX
8
Image
10
180.633095
20
199.798667
70
0
0
VERTEX
8
Image
10
180.892848
20
198.334186
70
0
0
VERTEX
8
Image
10
180.898897
20
196.968050
70
0
0
VERTEX
8
Image
10
180.653661
20
195.704573
70
0
0
VERTEX
8
Image
10
180.159560
20
194.548069
70
0
0
VERTEX
8
Image
10
179.419012
20
193.502853
70
0
0
VERTEX
8
Image
10
178.434438
20
192.573238
70
0
0
VERTEX
8
Image
10
177.208256
20
191.763540
70
0
0
VERTEX
8
Image
10
175.742887
20
191.078072
70
0
0
VERTEX
8
Image
10
173.970030
20
190.603865
70
0
0
VERTEX
8
Image
10
171.338950
20
190.474161
70
0
0
VERTEX
8
Image
10
168.653876
20
190.573842
70
0
0
VERTEX
8
Image
10
167.831005
20
190.790289
70
0
0
VERTEX
8
Image
10
166.948592
20
191.183389
70
0
0
VERTEX
8
Image
10
165.220595
20
192.221548
70
0
0
VERTEX
8
Image
10
163.144267
20
193.696928
70
0
0
VERTEX
8
Image
10
159.525573
20
196.345673
70
0
0
VERTEX
8
Image
10
158.428279
20
196.891490
70
0
0
VERTEX
8
Image
10
157.098389
20
197.345059
70
0
0
VERTEX
8
Image
10
152.696521
20
198.971005
70
0
0
VERTEX
8
Image
10
148.981687
20
200.713431
70
0
0
VERTEX
8
Image
10
146.031658
20
202.518699
70
0
0
VERTEX
8
Image
10
143.588667
20
204.285385
70
0
0
VERTEX
8
Image
10
141.923959
20
205.797012
70
0
0
VERTEX
8
Image
10
141.468225
20
206.389527
70
0
0
VERTEX
8
Image
10
141.308780
20
206.837099
70
0
0
VERTEX
8
Image
10
141.226059
20
206.976405
70
0
0
VERTEX
8
Image
10
140.948252
20
206.984884
70
0
0
VERTEX
8
Image
10
139.629498
20
206.582382
70
0
0
VERTEX
8
Image
10
137.218204
20
205.858676
70
0
0
VERTEX
8
Image
10
134.765381
20
205.390906
70
0
0
VERTEX
8
Image
10
132.287098
20
205.136780
70
0
0
VERTEX
8
Image
10
129.799419
20
205.054005
70
0
0
VERTEX
8
Image
10
126.303739
20
205.310900
70
0
0
VERTEX
8
Image
10
122.878296
20
206.066355
70
0
0
VERTEX
8
Image
10
118.590040
20
207.423245
70
0
0
VERTEX
8
Image
10
114.492262
20
209.017247
70
0
0
VERTEX
8
Image
10
110.349689
20
211.046606
70
0
0
VERTEX
8
Image
10
105.927048
20
213.709568
70
0
0
VERTEX
8
Image
10
102.735180
20
215.946563
70
0
0
VERTEX
8
Image
10
99.525404
20
218.402627
70
0
0
VERTEX
8
Image
10
93.112708
20
223.469162
70
0
0
VERTEX
8
Image
10
87.918016
20
227.740300
70
0
0
VERTEX
8
Image
10
85.288927
20
229.829367
70
0
0
VERTEX
8
Image
10
82.529388
20
231.731672
70
0
0
VERTEX
8
Image
10
77.773569
20
234.384403
70
0
0
VERTEX
8
Image
10
75.290958
20
235.502217
70
0
0
VERTEX
8
Image
10
72.739817
20
236.436198
70
0
0
VERTEX
8
Image
10
70.710932
20
236.897047
70
0
0
VERTEX
8
Image
10
68.638781
20
237.156978
70
0
0
VERTEX
8
Image
10
65.072287
20
237.470576
70
0
0
VERTEX
8
Image
10
61.495040
20
237.532154
70
0
0
VERTEX
8
Image
10
58.685145
20
237.317298
70
0
0
VERTEX
8
Image
10
56.095914
20
236.944851
70
0
0
VERTEX
8
Image
10
52.912965
20
236.463879
70
0
0
VERTEX
8
Image
10
53.926176
20
235.174239
70
0
0
VERTEX
8
Image
10
56.166698
20
232.618547
70
0
0
VERTEX
8
Image
10
59.980409
20
227.961696
70
0
0
VERTEX
8
Image
10
63.628423
20
223.211506
70
0
0
VERTEX
8
Image
10
67.471241
20
217.882932
70
0
0
VERTEX
8
Image
10
71.869360
20
211.490934
70
0
0
VERTEX
8
Image
10
78.172438
20
201.878192
70
0
0
VERTEX
8
Image
10
84.847502
20
191.160482
70
0
0
VERTEX
8
Image
10
91.476399
20
180.024679
70
0
0
VERTEX
8
Image
10
97.640975
20
169.157654
70
0
0
VERTEX
8
Image
10
101.348279
20
162.627038
70
0
0
VERTEX
8
Image
10
102.118750
20
161.559774
70
0
0
VERTEX
8
Image
10
102.529090
20
161.382051
70
0
0
VERTEX
8
Image
10
103.163806
20
161.242364
70
0
0
VERTEX
8
Image
10
104.259606
20
160.684403
70
0
0
VERTEX
8
Image
10
106.766186
20
158.931508
70
0
0
VERTEX
8
Image
10
107.834319
20
158.199249
70
0
0
VERTEX
8
Image
10
108.886567
20
158.095190
70
0
0
VERTEX
8
Image
10
109.934102
20
158.177459
70
0
0
VERTEX
8
Image
10
109.893639
20
156.854544
70
0
0
VERTEX
8
Image
10
109.894371
20
155.878044
70
0
0
VERTEX
8
Image
10
110.076323
20
156.425107
70
0
0
VERTEX
8
Image
10
110.424301
20
157.246508
70
0
0
VERTEX
8
Image
10
110.947571
20
157.966687
70
0
0
VERTEX
8
Image
10
111.336399
20
158.329303
70
0
0
VERTEX
8
Image
10
111.645891
20
158.472368
70
0
0
VERTEX
8
Image
10
112.627763
20
158.173975
70
0
0
VERTEX
8
Image
10
114.018884
20
157.849865
70
0
0
VERTEX
8
Image
10
116.570269
20
157.902899
70
0
0
VERTEX
8
Image
10
119.220909
20
157.946866
70
0
0
VERTEX
8
Image
10
121.200472
20
157.665938
70
0
0
VERTEX
8
Image
10
122.881063
20
157.327799
70
0
0
VERTEX
8
Image
10
124.038775
20
157.271958
70
0
0
VERTEX
8
Image
10
124.854846
20
157.515669
70
0
0
VERTEX
8
Image
10
125.510516
20
158.076182
70
0
0
VERTEX
8
Image
10
126.234235
20
158.900948
70
0
0
VERTEX
8
Image
10
128.448887
20
158.716468
70
0
0
VERTEX
8
Image
10
130.488726
20
158.659208
70
0
0
VERTEX
8
Image
10
131.818976
20
159.118364
70
0
0
VERTEX
8
Image
10
133.768164
20
160.348905
70
0
0
VERTEX
8
Image
10
136.678192
20
162.327524
70
0
0
VERTEX
8
Image
10
139.258261
20
163.652036
70
0
0
VERTEX
8
Image
10
139.836853
20
163.920923
70
0
0
VERTEX
8
Image
10
140.038193
20
164.225744
70
0
0
VERTEX
8
Image
10
140.055736
20
164.918719
70
0
0
VERTEX
8
Image
10
140.032350
20
166.327048
70
0
0
VERTEX
8
Image
10
139.667267
20
167.802717
70
0
0
VERTEX
8
Image
10
139.230904
20
169.135618
70
0
0
VERTEX
8
Image
10
138.993678
20
170.115643
70
0
0
VERTEX
8
Image
10
138.992117
20
170.800246
70
0
0
VERTEX
8
Image
10
138.829816
20
171.032772
70
0
0
VERTEX
8
Image
10
138.423865
20
171.225783
70
0
0
VERTEX
8
Image
10
137.659352
20
171.480310
70
0
0
VERTEX
8
Image
10
137.422342
20
171.779126
70
0
0
VERTEX
8
Image
10
137.663182
20
172.213277
70
0
0
VERTEX
8
Image
10
138.332221
20
172.873812
70
0
0
VERTEX
8
Image
10
139.145355
20
173.461576
70
0
0
VERTEX
8
Image
10
140.101486
20
173.933186
70
0
0
VERTEX
8
Image
10
141.950545
20
174.578824
70
0
0
VERTEX
8
Image
10
142.895005
20
174.912484
70
0
0
VERTEX
8
Image
10
141.950478
20
175.035923
70
0
0
VERTEX
8
Image
10
138.038615
20
175.102952
70
0
0
VERTEX
8
Image
10
137.079278
20
175.251737
70
0
0
VERTEX
8
Image
10
136.077495
20
175.634138
70
0
0
VERTEX
8
Image
10
134.166129
20
176.693492
70
0
0
VERTEX
8
Image
10
133.753099
20
177.124655
70
0
0
VERTEX
8
Image
10
133.700019
20
177.485468
70
0
0
VERTEX
8
Image
10
134.005522
20
177.772428
70
0
0
VERTEX
8
Image
10
134.668242
20
177.982031
70
0
0
VERTEX
8
Image
10
137.059876
20
178.155148
70
0
0
VERTEX
8
Image
10
139.317527
20
178.253632
70
0
0
VERTEX
8
Image
10
139.727832
20
178.477307
70
0
0
VERTEX
8
Image
10
140.016379
20
178.908254
70
0
0
VERTEX
8
Image
10
140.640492
20
179.723253
70
0
0
VERTEX
8
Image
10
141.510877
20
180.437214
70
0
0
VERTEX
8
Image
10
142.585439
20
181.022028
70
0
0
VERTEX
8
Image
10
143.822080
20
181.449585
70
0
0
VERTEX
8
Image
10
145.403531
20
181.775036
70
0
0
VERTEX
8
Image
10
146.734587
20
181.825994
70
0
0
VERTEX
8
Image
10
147.979434
20
181.590711
70
0
0
VERTEX
8
Image
10
149.302261
20
181.057438
70
0
0
VERTEX
8
Image
10
151.183051
20
179.956147
70
0
0
VERTEX
8
Image
10
152.516105
20
178.659200
70
0
0
VERTEX
8
Image
10
153.446550
20
176.975486
70
0
0
VERTEX
8
Image
10
154.119513
20
174.713897
70
0
0
VERTEX
8
Image
10
154.799253
20
172.300458
70
0
0
VERTEX
8
Image
10
154.893773
20
171.919881
70
0
0
VERTEX
8
Image
10
154.773880
20
171.616090
70
0
0
VERTEX
8
Image
10
154.383316
20
170.660010
70
0
0
VERTEX
8
Image
10
154.222441
20
169.356091
70
0
0
VERTEX
8
Image
10
154.165308
20
169.115025
70
0
0
VERTEX
8
Image
10
153.900538
20
168.974608
70
0
0
VERTEX
8
Image
10
152.328130
20
168.893071
70
0
0
VERTEX
8
Image
10
150.709806
20
168.799477
70
0
0
VERTEX
8
Image
10
149.078021
20
168.522400
70
0
0
VERTEX
8
Image
10
147.457470
20
168.067399
70
0
0
VERTEX
8
Image
10
145.872847
20
167.440034
70
0
0
VERTEX
8
Image
10
144.515138
20
166.673042
70
0
0
VERTEX
8
Image
10
144.638042
20
166.616291
70
0
0
VERTEX
8
Image
10
145.386551
20
166.881922
70
0
0
VERTEX
8
Image
10
147.860360
20
167.647069
70
0
0
VERTEX
8
Image
10
150.438867
20
167.994038
70
0
0
VERTEX
8
Image
10
152.814082
20
167.906689
70
0
0
VERTEX
8
Image
10
153.829207
20
167.695101
70
0
0
VERTEX
8
Image
10
154.678013
20
167.368879
70
0
0
VERTEX
8
Image
10
156.136879
20
166.356273
70
0
0
VERTEX
8
Image
10
156.571757
20
165.905812
70
0
0
VERTEX
8
Image
10
156.631474
20
165.768532
70
0
0
VERTEX
8
Image
10
156.554010
20
165.718075
70
0
0
VERTEX
8
Image
10
156.508235
20
165.562632
70
0
0
VERTEX
8
Image
10
156.654604
20
165.188909
70
0
0
VERTEX
8
Image
10
156.776495
20
164.831611
70
0
0
VERTEX
8
Image
10
156.696085
20
164.673861
70
0
0
VERTEX
8
Image
10
156.468660
20
164.733312
70
0
0
VERTEX
8
Image
10
156.149505
20
165.027619
70
0
0
VERTEX
8
Image
10
154.478314
20
165.983081
70
0
0
VERTEX
8
Image
10
153.059569
20
166.415234
70
0
0
VERTEX
8
Image
10
151.526319
20
166.558226
70
0
0
VERTEX
8
Image
10
149.940938
20
166.412117
70
0
0
VERTEX
8
Image
10
148.365804
20
165.976969
70
0
0
VERTEX
8
Image
10
146.966929
20
165.322686
70
0
0
VERTEX
8
Image
10
148.332585
20
165.619240
70
0
0
VERTEX
8
Image
10
149.781250
20
165.913912
70
0
0
VERTEX
8
Image
10
151.423833
20
166.045319
70
0
0
VERTEX
8
Image
10
153.191029
20
165.900042
70
0
0
VERTEX
8
Image
10
154.913222
20
165.219267
70
0
0
VERTEX
8
Image
10
156.261401
20
164.453894
70
0
0
VERTEX
8
Image
10
157.217066
20
163.600880
70
0
0
VERTEX
8
Image
10
157.949112
20
162.460765
70
0
0
VERTEX
8
Image
10
158.626436
20
160.834089
70
0
0
VERTEX
8
Image
10
159.132489
20
159.194763
70
0
0
VERTEX
8
Image
10
159.131421
20
158.736024
70
0
0
VERTEX
8
Image
10
158.919175
20
158.501886
70
0
0
VERTEX
8
Image
10
158.464415
20
158.480336
70
0
0
VERTEX
8
Image
10
157.735805
20
158.659361
70
0
0
VERTEX
8
Image
10
155.331689
20
159.571089
70
0
0
VERTEX
8
Image
10
150.767633
20
161.583214
70
0
0
VERTEX
8
Image
10
148.187948
20
162.697114
70
0
0
VERTEX
8
Image
10
151.561382
20
160.600931
70
0
0
VERTEX
8
Image
10
155.001816
20
158.654789
70
0
0
VERTEX
8
Image
10
157.348628
20
157.595900
70
0
0
VERTEX
8
Image
10
158.195041
20
157.370766
70
0
0
VERTEX
8
Image
10
158.867787
20
157.333353
70
0
0
VERTEX
8
Image
10
159.400112
20
157.472297
70
0
0
VERTEX
8
Image
10
159.825264
20
157.776235
70
0
0
VERTEX
8
Image
10
160.196724
20
158.310341
70
0
0
VERTEX
8
Image
10
160.235545
20
158.778380
70
0
0
VERTEX
8
Image
10
160.191159
20
159.048260
70
0
0
VERTEX
8
Image
10
160.582974
20
158.743151
70
0
0
VERTEX
8
Image
10
161.196485
20
157.960712
70
0
0
VERTEX
8
Image
10
161.921040
20
156.702566
70
0
0
VERTEX
8
Image
10
163.233947
20
153.659207
70
0
0
VERTEX
8
Image
10
165.113270
20
148.698191
70
0
0
VERTEX
8
Image
10
166.164302
20
145.806002
70
0
0
VERTEX
8
Image
10
167.101044
20
142.750357
70
0
0
VERTEX
8
Image
10
167.817189
20
139.910441
70
0
0
VERTEX
8
Image
10
168.206428
20
137.665437
70
0
0
VERTEX
8
Image
10
168.230544
20
136.329813
70
0
0
VERTEX
8
Image
10
167.931878
20
135.353858
70
0
0
VERTEX
8
Image
10
167.628626
20
134.487719
70
0
0
VERTEX
8
Image
10
167.502497
20
133.571240
70
0
0
VERTEX
8
Image
10
167.402012
20
132.682189
70
0
0
VERTEX
8
Image
10
167.060802
20
131.842193
70
0
0
VERTEX
8
Image
10
166.419231
20
130.945893
70
0
0
VERTEX
8
Image
10
165.417665
20
129.887933
70
0
0
VERTEX
8
Image
10
164.427975
20
128.747339
70
0
0
VERTEX
8
Image
10
163.919815
20
127.833485
70
0
0
VERTEX
8
Image
10
163.492264
20
126.908869
70
0
0
VERTEX
8
Image
10
162.696378
20
125.742393
70
0
0
VERTEX
8
Image
10
161.267064
20
123.515459
70
0
0
VERTEX
8
Image
10
160.642375
20
122.470520
70
0
0
VERTEX
8
Image
10
160.495184
20
121.814654
70
0
0
VERTEX
8
Image
10
160.499469
20
120.447958
70
0
0
VERTEX
8
Image
10
160.719549
20
118.792487
70
0
0
VERTEX
8
Image
10
161.278264
20
117.788063
70
0
0
VERTEX
8
Image
10
161.788978
20
117.038957
70
0
0
VERTEX
8
Image
10
162.078622
20
116.352954
70
0
0
VERTEX
8
Image
10
162.348168
20
115.050430
70
0
0
VERTEX
8
Image
10
162.365681
20
114.580856
70
0
0
VERTEX
8
Image
10
162.209778
20
114.388973
70
0
0
VERTEX
8
Image
10
162.120830
20
114.220304
70
0
0
VERTEX
8
Image
10
162.317548
20
113.793661
70
0
0
VERTEX
8
Image
10
163.121642
20
111.556276
70
0
0
VERTEX
8
Image
10
164.484356
20
107.455239
70
0
0
VERTEX
8
Image
10
166.783722
20
101.039200
70
0
0
VERTEX
8
Image
10
168.831703
20
94.606628
70
0
0
VERTEX
8
Image
10
169.843174
20
91.621305
70
0
0
VERTEX
8
Image
10
170.826559
20
89.373446
70
0
0
VERTEX
8
Image
10
171.590484
20
87.757734
70
0
0
VERTEX
8
Image
10
171.676470
20
87.175040
70
0
0
VERTEX
8
Image
10
171.623673
20
86.533944
70
0
0
VERTEX
8
Image
10
171.493658
20
84.572619
70
0
0
VERTEX
8
Image
10
171.998841
20
81.580681
70
0
0
VERTEX
8
Image
10
173.201374
20
75.278208
70
0
0
VERTEX
8
Image
10
173.789937
20
72.607009
70
0
0
VERTEX
8
Image
10
174.513154
20
70.268069
70
0
0
VERTEX
8
Image
10
175.389989
20
68.209268
70
0
0
VERTEX
8
Image
10
176.439407
20
66.378482
70
0
0
VERTEX
8
Image
10
177.152713
20
65.404393
70
0
0
VERTEX
8
Image
10
177.585170
20
65.105897
70
0
0
VERTEX
8
Image
10
178.219612
20
64.900337
70
0
0
VERTEX
8
Image
10
180.548798
20
64.669738
70
0
0
VERTEX
8
Image
10
185.048969
20
64.516024
70
0
0
VERTEX
8
Image
10
190.027733
20
64.363162
70
0
0
VERTEX
8
Image
10
191.653543
20
65.959015
70
0
0
VERTEX
8
Image
10
193.112755
20
67.215436
70
0
0
VERTEX
8
Image
10
194.207377
20
67.728970
70
0
0
VERTEX
8
Image
10
203.635793
20
67.719947
70
0
0
VERTEX
8
Image
10
212.136183
20
67.536827
70
0
0
VERTEX
8
Image
10
211.626490
20
69.862405
70
0
0
VERTEX
8
Image
10
211.334908
20
71.487191
70
0
0
VERTEX
8
Image
10
211.212955
20
72.974828
70
0
0
VERTEX
8
Image
10
211.269263
20
74.358018
70
0
0
VERTEX
8
Image
10
211.512464
20
75.669463
70
0
0
VERTEX
8
Image
10
211.951188
20
76.941867
70
0
0
VERTEX
8
Image
10
212.594069
20
78.207930
70
0
0
VERTEX
8
Image
10
214.526823
20
80.851844
70
0
0
VERTEX
8
Image
10
215.953208
20
82.401127
70
0
0
VERTEX
8
Image
10
217.403544
20
83.732063
70
0
0
VERTEX
8
Image
10
218.900811
20
84.856597
70
0
0
VERTEX
8
Image
10
220.467988
20
85.786676
70
0
0
VERTEX
8
Image
10
222.128056
20
86.534246
70
0
0
VERTEX
8
Image
10
223.903995
20
87.111253
70
0
0
VERTEX
8
Image
10
225.818785
20
87.529644
70
0
0
VERTEX
8
Image
10
227.895408
20
87.801366
70
0
0
VERTEX
8
Image
10
229.947752
20
87.993186
70
0
0
VERTEX
8
Image
10
230.820955
20
87.039875
70
0
0
VERTEX
8
Image
10
231.943551
20
85.620482
70
0
0
VERTEX
8
Image
10
232.979383
20
83.931357
70
0
0
VERTEX
8
Image
10
233.909087
20
82.028388
70
0
0
VERTEX
8
Image
10
234.713299
20
79.967462
70
0
0
VERTEX
8
Image
10
235.372654
20
77.804467
70
0
0
VERTEX
8
Image
10
235.867786
20
75.595290
70
0
0
VERTEX
8
Image
10
236.179333
20
73.395820
70
0
0
VERTEX
8
Image
10
236.287928
20
71.261944
70
0
0
VERTEX
8
Image
10
236.127759
20
68.726014
70
0
0
VERTEX
8
Image
10
235.340033
20
66.102575
70
0
0
VERTEX
8
Image
10
233.882832
20
61.765097
70
0
0
VERTEX
8
Image
10
232.942458
20
58.244377
70
0
0
VERTEX
8
Image
10
232.453206
20
55.240520
70
0
0
VERTEX
8
Image
10
232.349372
20
52.453627
70
0
0
VERTEX
8
Image
10
232.312796
20
50.880585
70
0
0
VERTEX
8
Image
10
232.152972
20
50.081694
70
0
0
VERTEX
8
Image
10
231.755965
20
49.909284
70
0
0
VERTEX
8
Image
10
230.690780
20
49.712828
70
0
0
VERTEX
8
Image
10
225.181580
20
49.043025
70
0
0
VERTEX
8
Image
10
217.734131
20
47.956714
70
0
0
VERTEX
8
Image
10
212.481596
20
47.001902
70
0
0
VERTEX
8
Image
10
214.676451
20
46.980200
70
0
0
VERTEX
8
Image
10
220.014509
20
47.237116
70
0
0
VERTEX
8
Image
10
225.984803
20
47.628663
70
0
0
VERTEX
8
Image
10
230.076366
20
48.010853
70
0
0
VERTEX
8
Image
10
231.954162
20
48.346883
70
0
0
VERTEX
8
Image
10
233.074230
20
48.760610
70
0
0
VERTEX
8
Image
10
233.590305
20
49.345898
70
0
0
VERTEX
8
Image
10
233.656121
20
50.196613
70
0
0
VERTEX
8
Image
10
233.751063
20
50.569641
70
0
0
VERTEX
8
Image
10
234.353270
20
50.513665
70
0
0
VERTEX
8
Image
10
238.789428
20
50.178473
70
0
0
VERTEX
8
Image
10
242.475413
20
50.024411
70
0
0
VERTEX
8
Image
10
240.937074
20
49.548442
70
0
0
VERTEX
8
Image
10
239.154605
20
48.828337
70
0
0
VERTEX
8
Image
10
239.097870
20
48.685432
70
0
0
VERTEX
8
Image
10
239.198675
20
48.534548
70
0
0
VERTEX
8
Image
10
239.842445
20
48.219359
70
0
0
VERTEX
8
Image
10
242.685412
20
47.608935
70
0
0
VERTEX
8
Image
10
244.893014
20
47.282887
70
0
0
VERTEX
8
Image
10
242.535870
20
46.936008
70
0
0
VERTEX
8
Image
10
240.434327
20
46.739390
70
0
0
VERTEX
8
Image
10
238.699417
20
46.758301
70
0
0
VERTEX
8
Image
10
236.690941
20
46.990033
70
0
0
VERTEX
8
Image
10
236.280556
20
46.901342
70
0
0
VERTEX
8
Image
10
236.234165
20
46.349105
70
0
0
VERTEX
8
Image
10
236.120824
20
45.674307
70
0
0
VERTEX
8
Image
10
235.572707
20
45.066692
70
0
0
VERTEX
8
Image
10
234.691861
20
44.617504
70
0
0
VERTEX
8
Image
10
233.251362
20
44.662171
70
0
0
VERTEX
8
Image
10
229.887738
20
45.233899
70
0
0
VERTEX
8
Image
10
226.636787
20
45.975810
70
0
0
VERTEX
8
Image
10
226.522302
20
45.993165
70
0
0
VERTEX
8
Image
10
226.601776
20
45.923994
70
0
0
VERTEX
8
Image
10
227.260779
20
45.578253
70
0
0
VERTEX
8
Image
10
228.944565
20
44.941158
70
0
0
VERTEX
8
Image
10
231.228142
20
44.330451
70
0
0
VERTEX
8
Image
10
233.921581
20
43.790059
70
0
0
VERTEX
8
Image
10
236.834953
20
43.363910
70
0
0
VERTEX
8
Image
10
241.519580
20
42.796112
70
0
0
VERTEX
8
Image
10
242.313743
20
42.630432
70
0
0
VERTEX
8
Image
10
242.644058
20
42.430874
70
0
0
VERTEX
8
Image
10
242.024314
20
41.977114
70
0
0
VERTEX
8
Image
10
240.517151
20
41.336954
70
0
0
VERTEX
8
Image
10
238.650673
20
40.708917
70
0
0
VERTEX
8
Image
10
236.952984
20
40.291527
70
0
0
VERTEX
8
Image
10
235.007134
20
39.889750
70
0
0
VERTEX
8
Image
10
235.097334
20
39.484850
70
0
0
VERTEX
8
Image
10
235.568036
20
38.767439
70
0
0
VERTEX
8
Image
10
236.201827
20
38.024892
70
0
0
VERTEX
8
Image
10
236.781296
20
37.544587
70
0
0
VERTEX
8
Image
10
237.484690
20
37.173136
70
0
0
VERTEX
8
Image
10
236.739862
20
36.887352
70
0
0
VERTEX
8
Image
10
234.275899
20
36.703509
70
0
0
VERTEX
8
Image
10
229.324818
20
36.634468
70
0
0
VERTEX
8
Image
10
223.670336
20
36.683581
70
0
0
VERTEX
8
Image
10
219.096171
20
36.854200
70
0
0
VERTEX
8
Image
10
218.427506
20
36.940657
70
0
0
VERTEX
8
Image
10
219.313414
20
37.007259
70
0
0
VERTEX
8
Image
10
225.909183
20
37.086363
70
0
0
VERTEX
8
Image
10
232.676820
20
37.175989
70
0
0
VERTEX
8
Image
10
235.479521
20
37.329174
70
0
0
VERTEX
8
Image
10
234.739826
20
38.709130
70
0
0
VERTEX
8
Image
10
234.306990
20
39.357410
70
0
0
VERTEX
8
Image
10
233.884744
20
39.760965
70
0
0
VERTEX
8
Image
10
232.445521
20
40.256422
70
0
0
VERTEX
8
Image
10
225.975329
20
41.810644
70
0
0
VERTEX
8
Image
10
216.847216
20
43.908768
70
0
0
VERTEX
8
Image
10
213.846305
20
44.602869
70
0
0
VERTEX
8
Image
10
213.686104
20
44.669454
70
0
0
VERTEX
8
Image
10
213.740793
20
44.699941
70
0
0
VERTEX
8
Image
10
214.452607
20
44.665979
70
0
0
VERTEX
8
Image
10
219.352284
20
43.915795
70
0
0
VERTEX
8
Image
10
226.769078
20
42.245928
70
0
0
VERTEX
8
Image
10
231.400299
20
41.261648
70
0
0
VERTEX
8
Image
10
235.022883
20
40.865132
70
0
0
VERTEX
8
Image
10
236.546011
20
40.884321
70
0
0
VERTEX
8
Image
10
237.925070
20
41.046893
70
0
0
VERTEX
8
Image
10
239.196091
20
41.351663
70
0
0
VERTEX
8
Image
10
240.395103
20
41.797444
70
0
0
VERTEX
8
Image
10
241.453435
20
42.262104
70
0
0
VERTEX
8
Image
10
240.130520
20
42.464357
70
0
0
VERTEX
8
Image
10
235.368026
20
43.071488
70
0
0
VERTEX
8
Image
10
227.165953
20
44.127391
70
0
0
VERTEX
8
Image
10
221.903772
20
44.787039
70
0
0
VERTEX
8
Image
10
217.530382
20
45.160885
70
0
0
VERTEX
8
Image
10
213.180487
20
45.299788
70
0
0
VERTEX
8
Image
10
207.988792
20
45.254610
70
0
0
VERTEX
8
Image
10
203.543402
20
45.130592
70
0
0
VERTEX
8
Image
10
199.521170
20
44.889525
70
0
0
VERTEX
8
Image
10
186.684754
20
43.579696
70
0
0
VERTEX
8
Image
10
180.491172
20
43.228159
70
0
0
VERTEX
8
Image
10
171.185819
20
43.025357
70
0
0
VERTEX
8
Image
10
161.361717
20
43.001953
70
0
0
VERTEX
8
Image
10
153.611889
20
43.188611
70
0
0
VERTEX
8
Image
10
144.370845
20
43.892643
70
0
0
VERTEX
8
Image
10
139.880476
20
44.452894
70
0
0
VERTEX
8
Image
10
135.157936
20
45.208184
70
0
0
VERTEX
8
Image
10
124.059518
20
47.472513
70
0
0
VERTEX
8
Image
10
109.161945
20
51.022911
70
0
0
VERTEX
8
Image
10
92.160743
20
55.426712
70
0
0
VERTEX
8
Image
10
85.398550
20
57.365223
70
0
0
VERTEX
8
Image
10
79.424179
20
59.230569
70
0
0
VERTEX
8
Image
10
73.134705
20
61.253424
70
0
0
VERTEX
8
Image
10
72.852294
20
61.311899
70
0
0
VERTEX
8
Image
10
72.947600
20
61.229326
70
0
0
VERTEX
8
Image
10
73.994843
20
60.716726
70
0
0
VERTEX
8
Image
10
78.224406
20
58.878469
70
0
0
VERTEX
8
Image
10
83.770518
20
56.718870
70
0
0
VERTEX
8
Image
10
89.852436
20
54.529904
70
0
0
VERTEX
8
Image
10
95.689419
20
52.603548
70
0
0
VERTEX
8
Image
10
106.454947
20
49.527702
70
0
0
VERTEX
8
Image
10
118.271371
20
46.623174
70
0
0
VERTEX
8
Image
10
130.201658
20
44.103980
70
0
0
VERTEX
8
Image
10
141.308780
20
42.184137
70
0
0
VERTEX
8
Image
10
148.425039
20
41.239751
70
0
0
VERTEX
8
Image
10
155.945461
20
40.726761
70
0
0
VERTEX
8
Image
10
167.359245
20
40.510842
70
0
0
VERTEX
8
Image
10
186.155588
20
40.457672
70
0
0
VERTEX
8
Image
10
209.315318
20
40.367958
70
0
0
VERTEX
8
Image
10
214.400578
20
40.248038
70
0
0
VERTEX
8
Image
10
216.913361
20
40.055077
70
0
0
VERTEX
8
Image
10
219.205278
20
39.623040
70
0
0
VERTEX
8
Image
10
219.584653
20
39.440290
70
0
0
VERTEX
8
Image
10
219.463644
20
39.283839
70
0
0
VERTEX
8
Image
10
217.752490
20
39.062193
70
0
0
VERTEX
8
Image
10
214.135848
20
38.982818
70
0
0
VERTEX
8
Image
10
208.951870
20
38.745180
70
0
0
VERTEX
8
Image
10
201.270500
20
38.067321
70
0
0
VERTEX
8
Image
10
187.577607
20
36.809189
70
0
0
VERTEX
8
Image
10
175.704570
20
36.055500
70
0
0
VERTEX
8
Image
10
166.944238
20
35.920909
70
0
0
VERTEX
8
Image
10
157.246403
20
36.367922
70
0
0
VERTEX
8
Image
10
146.194330
20
37.426784
70
0
0
VERTEX
8
Image
10
133.371290
20
39.127738
70
0
0
VERTEX
8
Image
10
123.978593
20
40.460971
70
0
0
VERTEX
8
Image
10
123.768810
20
40.442733
70
0
0
VERTEX
8
Image
10
124.467933
20
40.259527
70
0
0
VERTEX
8
Image
10
127.981642
20
39.520738
70
0
0
VERTEX
8
Image
10
139.192116
20
37.411359
70
0
0
VERTEX
8
Image
10
150.071759
20
35.618614
70
0
0
VERTEX
8
Image
10
159.679307
20
34.373649
70
0
0
VERTEX
8
Image
10
169.461215
20
33.519896
70
0
0
VERTEX
8
Image
10
180.863938
20
32.900793
70
0
0
VERTEX
8
Image
10
193.935525
20
32.272301
70
0
0
VERTEX
8
Image
10
202.773650
20
31.690716
70
0
0
VERTEX
8
Image
10
208.201097
20
31.087713
70
0
0
VERTEX
8
Image
10
209.892937
20
30.756829
70
0
0
VERTEX
8
Image
10
211.040651
20
30.394969
70
0
0
VERTEX
8
Image
10
211.899011
20
29.868746
70
0
0
VERTEX
8
Image
10
211.889011
20
29.627791
70
0
0
VERTEX
8
Image
10
211.551190
20
29.384541
70
0
0
VERTEX
8
Image
10
209.786984
20
28.839965
70
0
0
VERTEX
8
Image
10
206.396187
20
28.132629
70
0
0
VERTEX
8
Image
10
201.567547
20
27.342139
70
0
0
VERTEX
8
Image
10
200.887277
20
27.264576
70
0
0
VERTEX
8
Image
10
200.820696
20
27.179704
70
0
0
VERTEX
8
Image
10
200.920979
20
27.073917
70
0
0
VERTEX
8
Image
10
201.575621
20
26.829040
70
0
0
VERTEX
8
Image
10
202.758171
20
26.588821
70
0
0
VERTEX
8
Image
10
208.197789
20
25.908475
70
0
0
VERTEX
8
Image
10
215.788884
20
25.352750
70
0
0
VERTEX
8
Image
10
223.493177
20
24.765571
70
0
0
VERTEX
8
Image
10
231.779566
20
23.764781
70
0
0
VERTEX
8
Image
10
239.156563
20
22.979798
70
0
0
VERTEX
8
Image
10
243.649024
20
22.455656
70
0
0
VERTEX
8
Image
10
243.483464
20
22.368010
70
0
0
VERTEX
8
Image
10
242.886601
20
22.356083
70
0
0
VERTEX
8
Image
10
234.706568
20
22.600725
70
0
0
VERTEX
8
Image
10
234.706568
20
22.600725
70
0
0
SEQEND
8
Image
0
POLYLINE
8
Image
62
7
70
0
10
0.000000
20
0.000000
66
1
0
VERTEX
8
Image
10
69.871370
20
44.831033
70
0
0
VERTEX
8
Image
10
76.105234
20
46.129832
70
0
0
VERTEX
8
Image
10
83.226644
20
47.567736
70
0
0
VERTEX
8
Image
10
86.248746
20
47.971917
70
0
0
VERTEX
8
Image
10
89.108869
20
48.173348
70
0
0
VERTEX
8
Image
10
91.954830
20
48.177349
70
0
0
VERTEX
8
Image
10
94.934446
20
47.989242
70
0
0
VERTEX
8
Image
10
101.885913
20
47.057991
70
0
0
VERTEX
8
Image
10
108.210493
20
46.165561
70
0
0
VERTEX
8
Image
10
111.331719
20
45.959181
70
0
0
VERTEX
8
Image
10
110.879938
20
46.222647
70
0
0
VERTEX
8
Image
10
109.452873
20
46.679226
70
0
0
VERTEX
8
Image
10
104.892999
20
47.819250
70
0
0
VERTEX
8
Image
10
98.430906
20
49.018883
70
0
0
VERTEX
8
Image
10
92.712041
20
49.587709
70
0
0
VERTEX
8
Image
10
90.037786
20
49.640002
70
0
0
VERTEX
8
Image
10
87.437098
20
49.539913
70
0
0
VERTEX
8
Image
10
82.306771
20
48.889681
70
0
0
VERTEX
8
Image
10
75.841837
20
47.456052
70
0
0
VERTEX
8
Image
10
69.606787
20
45.725745
70
0
0
VERTEX
8
Image
10
67.083777
20
44.875030
70
0
0
VERTEX
8
Image
10
66.279695
20
44.466605
70
0
0
VERTEX
8
Image
10
67.205305
20
44.464072
70
0
0
VERTEX
8
Image
10
69.871370
20
44.831033
70
0
0
VERTEX
8
Image
10
69.871370
20
44.831033
70
0
0
SEQEND
8
Image
0
POLYLINE
8
Image
62
7
70
0
10
0.000000
20
0.000000
66
1
0
VERTEX
8
Image
10
195.812867
20
54.590643
70
0
0
VERTEX
8
Image
10
204.493398
20
55.120405
70
0
0
VERTEX
8
Image
10
210.505141
20
55.566082
70
0
0
VERTEX
8
Image
10
213.157129
20
55.857972
70
0
0
VERTEX
8
Image
10
207.672139
20
55.619286
70
0
0
VERTEX
8
Image
10
198.746033
20
55.311799
70
0
0
VERTEX
8
Image
10
188.019305
20
55.382427
70
0
0
VERTEX
8
Image
10
176.216689
20
55.814986
70
0
0
VERTEX
8
Image
10
164.062918
20
56.593288
70
0
0
VERTEX
8
Image
10
150.888894
20
57.835792
70
0
0
VERTEX
8
Image
10
138.210364
20
59.470625
70
0
0
VERTEX
8
Image
10
125.861753
20
61.522175
70
0
0
VERTEX
8
Image
10
113.677491
20
64.014830
70
0
0
VERTEX
8
Image
10
107.243692
20
65.330847
70
0
0
VERTEX
8
Image
10
113.220251
20
63.761198
70
0
0
VERTEX
8
Image
10
123.581719
20
61.369752
70
0
0
VERTEX
8
Image
10
130.240881
20
60.022501
70
0
0
VERTEX
8
Image
10
136.929629
20
58.832272
70
0
0
VERTEX
8
Image
10
143.704757
20
57.792365
70
0
0
VERTEX
8
Image
10
150.623061
20
56.896081
70
0
0
VERTEX
8
Image
10
157.741336
20
56.136721
70
0
0
VERTEX
8
Image
10
165.116377
20
55.507586
70
0
0
VERTEX
8
Image
10
180.863938
20
54.613193
70
0
0
VERTEX
8
Image
10
190.629147
20
54.274931
70
0
0
VERTEX
8
Image
10
193.937414
20
54.282699
70
0
0
VERTEX
8
Image
10
195.613528
20
54.496227
70
0
0
VERTEX
8
Image
10
195.812867
20
54.590643
70
0
0
SEQEND
8
Image
0
POLYLINE
8
Image
62
7
70
0
10
0.000000
20
0.000000
66
1
0
VERTEX
8
Image
10
211.063193
20
62.010159
70
0
0
VERTEX
8
Image
10
209.203864
20
62.072642
70
0
0
VERTEX
8
Image
10
209.192046
20
62.146738
70
0
0
VERTEX
8
Image
10
209.686847
20
62.245842
70
0
0
VERTEX
8
Image
10
215.153068
20
62.838904
70
0
0
VERTEX
8
Image
10
222.408497
20
63.618362
70
0
0
VERTEX
8
Image
10
225.127989
20
64.024558
70
0
0
VERTEX
8
Image
10
226.399773
20
64.413234
70
0
0
VERTEX
8
Image
10
226.704825
20
64.959840
70
0
0
VERTEX
8
Image
10
226.591004
20
65.417347
70
0
0
VERTEX
8
Image
10
226.086821
20
65.749327
70
0
0
VERTEX
8
Image
10
225.220791
20
65.919351
70
0
0
VERTEX
8
Image
10
224.421941
20
65.899658
70
0
0
VERTEX
8
Image
10
224.151936
20
65.732967
70
0
0
VERTEX
8
Image
10
224.412522
20
65.494194
70
0
0
VERTEX
8
Image
10
225.205445
20
65.258251
70
0
0
VERTEX
8
Image
10
226.093371
20
64.983433
70
0
0
VERTEX
8
Image
10
226.259646
20
64.831347
70
0
0
VERTEX
8
Image
10
226.250555
20
64.671835
70
0
0
VERTEX
8
Image
10
225.735558
20
64.337611
70
0
0
VERTEX
8
Image
10
224.606939
20
63.994915
70
0
0
VERTEX
8
Image
10
220.743078
20
63.340719
70
0
0
VERTEX
8
Image
10
215.127453
20
62.822476
70
0
0
VERTEX
8
Image
10
205.960933
20
62.426447
70
0
0
VERTEX
8
Image
10
196.243372
20
62.391501
70
0
0
VERTEX
8
Image
10
186.024268
20
62.713767
70
0
0
VERTEX
8
Image
10
175.353117
20
63.389374
70
0
0
VERTEX
8
Image
10
164.279417
20
64.414451
70
0
0
VERTEX
8
Image
10
152.852664
20
65.785126
70
0
0
VERTEX
8
Image
10
141.122354
20
67.497528
70
0
0
VERTEX
8
Image
10
129.137985
20
69.547787
70
0
0
VERTEX
8
Image
10
116.166804
20
72.129458
70
0
0
VERTEX
8
Image
10
102.531866
20
75.268352
70
0
0
VERTEX
8
Image
10
87.515631
20
79.140042
70
0
0
VERTEX
8
Image
10
70.400559
20
83.920100
70
0
0
VERTEX
8
Image
10
50.159960
20
89.739923
70
0
0
VERTEX
8
Image
10
38.763018
20
92.981466
70
0
0
VERTEX
8
Image
10
32.407205
20
94.633207
70
0
0
VERTEX
8
Image
10
30.596845
20
94.979718
70
0
0
VERTEX
8
Image
10
29.419317
20
95.068959
70
0
0
VERTEX
8
Image
10
28.665470
20
94.947657
70
0
0
VERTEX
8
Image
10
28.126152
20
94.662537
70
0
0
VERTEX
8
Image
10
27.679249
20
94.292116
70
0
0
VERTEX
8
Image
10
27.576118
20
94.049426
70
0
0
VERTEX
8
Image
10
27.815968
20
93.936526
70
0
0
VERTEX
8
Image
10
28.398008
20
93.955471
70
0
0
VERTEX
8
Image
10
31.405924
20
93.397081
70
0
0
VERTEX
8
Image
10
39.882330
20
91.239162
70
0
0
VERTEX
8
Image
10
79.925547
20
80.361062
70
0
0
VERTEX
8
Image
10
93.401752
20
76.785960
70
0
0
VERTEX
8
Image
10
106.239531
20
73.640994
70
0
0
VERTEX
8
Image
10
118.550353
20
70.905642
70
0
0
VERTEX
8
Image
10
130.445686
20
68.559382
70
0
0
VERTEX
8
Image
10
142.036996
20
66.581694
70
0
0
VERTEX
8
Image
10
153.435751
20
64.952055
70
0
0
VERTEX
8
Image
10
164.753419
20
63.649945
70
0
0
VERTEX
8
Image
10
176.101468
20
62.654842
70
0
0
VERTEX
8
Image
10
181.441134
20
62.368704
70
0
0
VERTEX
8
Image
10
187.917626
20
62.174367
70
0
0
VERTEX
8
Image
10
201.453467
20
61.994951
70
0
0
VERTEX
8
Image
10
211.053747
20
61.984309
70
0
0
VERTEX
8
Image
10
212.610787
20
62.000941
70
0
0
VERTEX
8
Image
10
211.063220
20
62.010159
70
0
0
VERTEX
8
Image
10
211.063193
20
62.010159
70
0
0
SEQEND
8
Image
0
POLYLINE
8
Image
62
7
70
0
10
0.000000
20
0.000000
66
1
0
VERTEX
8
Image
10
210.497224
20
64.230336
70
0
0
VERTEX
8
Image
10
217.343686
20
64.892734
70
0
0
VERTEX
8
Image
10
218.008227
20
65.054799
70
0
0
VERTEX
8
Image
10
217.640965
20
65.215434
70
0
0
VERTEX
8
Image
10
209.557947
20
65.650824
70
0
0
VERTEX
8
Image
10
196.738908
20
66.047857
70
0
0
VERTEX
8
Image
10
195.821399
20
66.023799
70
0
0
VERTEX
8
Image
10
195.018902
20
65.862565
70
0
0
VERTEX
8
Image
10
192.770163
20
64.823533
70
0
0
VERTEX
8
Image
10
190.388916
20
63.570519
70
0
0
VERTEX
8
Image
10
198.194114
20
63.698272
70
0
0
VERTEX
8
Image
10
205.027797
20
63.907264
70
0
0
VERTEX
8
Image
10
210.497224
20
64.230336
70
0
0
VERTEX
8
Image
10
210.497224
20
64.230336
70
0
0
SEQEND
8
Image
0
POLYLINE
8
Image
62
7
70
0
10
0.000000
20
0.000000
66
1
0
VERTEX
8
Image
10
162.499722
20
66.966941
70
0
0
VERTEX
8
Image
10
162.306896
20
67.111622
70
0
0
VERTEX
8
Image
10
162.347492
20
67.434950
70
0
0
VERTEX
8
Image
10
162.477682
20
67.953264
70
0
0
VERTEX
8
Image
10
162.099963
20
69.205562
70
0
0
VERTEX
8
Image
10
158.768903
20
84.755677
70
0
0
VERTEX
8
Image
10
156.955067
20
90.576503
70
0
0
VERTEX
8
Image
10
154.986127
20
96.026750
70
0
0
VERTEX
8
Image
10
153.141106
20
100.438984
70
0
0
VERTEX
8
Image
10
151.355126
20
103.954869
70
0
0
VERTEX
8
Image
10
149.563304
20
106.716066
70
0
0
VERTEX
8
Image
10
148.051143
20
108.761565
70
0
0
VERTEX
8
Image
10
145.455803
20
107.466711
70
0
0
VERTEX
8
Image
10
144.036352
20
106.669068
70
0
0
VERTEX
8
Image
10
142.888081
20
105.873045
70
0
0
VERTEX
8
Image
10
140.313463
20
103.428672
70
0
0
VERTEX
8
Image
10
138.015699
20
100.898573
70
0
0
VERTEX
8
Image
10
136.109412
20
98.581866
70
0
0
VERTEX
8
Image
10
134.481903
20
96.417120
70
0
0
VERTEX
8
Image
10
134.291755
20
93.627393
70
0
0
VERTEX
8
Image
10
134.242359
20
90.654580
70
0
0
VERTEX
8
Image
10
134.460583
20
87.333652
70
0
0
VERTEX
8
Image
10
134.708785
20
83.781360
70
0
0
VERTEX
8
Image
10
134.732875
20
80.404850
70
0
0
VERTEX
8
Image
10
134.540722
20
77.498246
70
0
0
VERTEX
8
Image
10
134.140192
20
75.355670
70
0
0
VERTEX
8
Image
10
134.092110
20
74.169713
70
0
0
VERTEX
8
Image
10
134.237302
20
72.278300
70
0
0
VERTEX
8
Image
10
134.491409
20
70.464251
70
0
0
VERTEX
8
Image
10
134.770077
20
69.510388
70
0
0
VERTEX
8
Image
10
143.072027
20
68.329337
70
0
0
VERTEX
8
Image
10
155.993147
20
66.650926
70
0
0
VERTEX
8
Image
10
159.724612
20
66.356697
70
0
0
VERTEX
8
Image
10
161.945189
20
66.503506
70
0
0
VERTEX
8
Image
10
162.816391
20
66.803029
70
0
0
VERTEX
8
Image
10
162.796449
20
66.919956
70
0
0
VERTEX
8
Image
10
162.499732
20
66.966941
70
0
0
VERTEX
8
Image
10
162.499722
20
66.966941
70
0
0
SEQEND
8
Image
0
POLYLINE
8
Image
62
7
70
0
10
0.000000
20
0.000000
66
1
0
VERTEX
8
Image
10
216.004175
20
66.771206
70
0
0
VERTEX
8
Image
10
220.335831
20
67.370883
70
0
0
VERTEX
8
Image
10
224.773765
20
68.317806
70
0
0
VERTEX
8
Image
10
228.923727
20
69.513608
70
0
0
VERTEX
8
Image
10
232.391467
20
70.859920
70
0
0
VERTEX
8
Image
10
233.912819
20
71.638511
70
0
0
VERTEX
8
Image
10
231.862301
20
71.117944
70
0
0
VERTEX
8
Image
10
224.518528
20
69.307741
70
0
0
VERTEX
8
Image
10
215.396719
20
67.253421
70
0
0
VERTEX
8
Image
10
212.772928
20
66.614382
70
0
0
VERTEX
8
Image
10
212.754450
20
66.528913
70
0
0
VERTEX
8
Image
10
213.111429
20
66.518047
70
0
0
VERTEX
8
Image
10
216.004175
20
66.771206
70
0
0
VERTEX
8
Image
10
216.004175
20
66.771206
70
0
0
SEQEND
8
Image
0
POLYLINE
8
Image
62
7
70
0
10
0.000000
20
0.000000
66
1
0
VERTEX
8
Image
10
226.769078
20
71.474989
70
0
0
VERTEX
8
Image
10
230.388593
20
72.905538
70
0
0
VERTEX
8
Image
10
232.222769
20
73.833955
70
0
0
VERTEX
8
Image
10
231.574584
20
73.777625
70
0
0
VERTEX
8
Image
10
230.097358
20
73.393243
70
0
0
VERTEX
8
Image
10
225.784442
20
72.023294
70
0
0
VERTEX
8
Image
10
221.541332
20
70.490048
70
0
0
VERTEX
8
Image
10
220.151363
20
69.901546
70
0
0
VERTEX
8
Image
10
219.625337
20
69.559447
70
0
0
VERTEX
8
Image
10
222.532482
20
70.226580
70
0
0
VERTEX
8
Image
10
226.769078
20
71.474989
70
0
0
VERTEX
8
Image
10
226.769078
20
71.474989
70
0
0
SEQEND
8
Image
0
POLYLINE
8
Image
62
7
70
0
10
0.000000
20
0.000000
66
1
0
VERTEX
8
Image
10
223.081294
20
72.532601
70
0
0
VERTEX
8
Image
10
231.654392
20
75.507366
70
0
0
VERTEX
8
Image
10
233.010809
20
75.988816
70
0
0
VERTEX
8
Image
10
233.320900
20
76.155023
70
0
0
VERTEX
8
Image
10
233.313009
20
76.239520
70
0
0
VERTEX
8
Image
10
232.276633
20
76.171436
70
0
0
VERTEX
8
Image
10
230.447691
20
75.827277
70
0
0
VERTEX
8
Image
10
225.975329
20
74.649471
70
0
0
VERTEX
8
Image
10
223.023091
20
73.535393
70
0
0
VERTEX
8
Image
10
219.680857
20
72.053730
70
0
0
VERTEX
8
Image
10
217.125242
20
70.758473
70
0
0
VERTEX
8
Image
10
216.510110
20
70.353869
70
0
0
VERTEX
8
Image
10
216.432559
20
70.242619
70
0
0
VERTEX
8
Image
10
216.532865
20
70.203612
70
0
0
VERTEX
8
Image
10
223.081294
20
72.532601
70
0
0
VERTEX
8
Image
10
223.081294
20
72.532601
70
0
0
SEQEND
8
Image
0
POLYLINE
8
Image
62
7
70
0
10
0.000000
20
0.000000
66
1
0
VERTEX
8
Image
10
168.296246
20
72.099415
70
0
0
VERTEX
8
Image
10
166.261168
20
73.470352
70
0
0
VERTEX
8
Image
10
164.129063
20
75.369185
70
0
0
VERTEX
8
Image
10
161.946254
20
77.427151
70
0
0
VERTEX
8
Image
10
162.235781
20
76.855199
70
0
0
VERTEX
8
Image
10
162.949046
20
75.894726
70
0
0
VERTEX
8
Image
10
164.714898
20
73.971390
70
0
0
VERTEX
8
Image
10
165.918363
20
73.099915
70
0
0
VERTEX
8
Image
10
167.543208
20
72.124273
70
0
0
VERTEX
8
Image
10
169.079181
20
71.330157
70
0
0
VERTEX
8
Image
10
170.016035
20
71.003258
70
0
0
VERTEX
8
Image
10
169.619988
20
71.325679
70
0
0
VERTEX
8
Image
10
168.296246
20
72.099415
70
0
0
VERTEX
8
Image
10
168.296246
20
72.099415
70
0
0
SEQEND
8
Image
0
POLYLINE
8
Image
62
7
70
0
10
0.000000
20
0.000000
66
1
0
VERTEX
8
Image
10
222.668042
20
77.124301
70
0
0
VERTEX
8
Image
10
226.636787
20
79.522209
70
0
0
VERTEX
8
Image
10
227.579264
20
80.045789
70
0
0
VERTEX
8
Image
10
227.647514
20
80.147389
70
0
0
VERTEX
8
Image
10
227.430536
20
80.129514
70
0
0
VERTEX
8
Image
10
226.124993
20
79.690520
70
0
0
VERTEX
8
Image
10
224.571101
20
78.933598
70
0
0
VERTEX
8
Image
10
222.932487
20
77.948053
70
0
0
VERTEX
8
Image
10
221.372776
20
76.823187
70
0
0
VERTEX
8
Image
10
219.283145
20
74.998387
70
0
0
VERTEX
8
Image
10
219.052533
20
74.680991
70
0
0
VERTEX
8
Image
10
219.636635
20
75.039607
70
0
0
VERTEX
8
Image
10
222.668042
20
77.124301
70
0
0
VERTEX
8
Image
10
222.668042
20
77.124301
70
0
0
SEQEND
8
Image
0
POLYLINE
8
Image
62
7
70
0
10
0.000000
20
0.000000
66
1
0
VERTEX
8
Image
10
129.269822
20
76.229836
70
0
0
VERTEX
8
Image
10
126.438627
20
77.906856
70
0
0
VERTEX
8
Image
10
124.131578
20
79.835237
70
0
0
VERTEX
8
Image
10
122.697062
20
81.183806
70
0
0
VERTEX
8
Image
10
123.572400
20
80.041776
70
0
0
VERTEX
8
Image
10
125.331123
20
78.189695
70
0
0
VERTEX
8
Image
10
128.266632
20
76.437685
70
0
0
VERTEX
8
Image
10
130.857751
20
75.242812
70
0
0
VERTEX
8
Image
10
130.500438
20
75.533518
70
0
0
VERTEX
8
Image
10
129.269822
20
76.229836
70
0
0
VERTEX
8
Image
10
129.269822
20
76.229836
70
0
0
SEQEND
8
Image
0
POLYLINE
8
Image
62
7
70
0
10
0.000000
20
0.000000
66
1
0
VERTEX
8
Image
10
167.502497
20
76.489149
70
0
0
VERTEX
8
Image
10
165.524682
20
77.701131
70
0
0
VERTEX
8
Image
10
163.559162
20
79.331016
70
0
0
VERTEX
8
Image
10
162.274265
20
80.453095
70
0
0
VERTEX
8
Image
10
161.960144
20
80.649330
70
0
0
VERTEX
8
Image
10
161.935924
20
80.549072
70
0
0
VERTEX
8
Image
10
162.665718
20
79.557264
70
0
0
VERTEX
8
Image
10
163.797030
20
78.491950
70
0
0
VERTEX
8
Image
10
165.202458
20
77.458533
70
0
0
VERTEX
8
Image
10
166.754603
20
76.562414
70
0
0
VERTEX
8
Image
10
169.186779
20
75.497671
70
0
0
VERTEX
8
Image
10
168.815808
20
75.789909
70
0
0
VERTEX
8
Image
10
167.502497
20
76.489149
70
0
0
VERTEX
8
Image
10
167.502497
20
76.489149
70
0
0
SEQEND
8
Image
0
POLYLINE
8
Image
62
7
70
0
10
0.000000
20
0.000000
66
1
0
VERTEX
8
Image
10
166.047290
20
80.569482
70
0
0
VERTEX
8
Image
10
163.711457
20
81.979379
70
0
0
VERTEX
8
Image
10
161.444454
20
83.809636
70
0
0
VERTEX
8
Image
10
160.545776
20
84.623385
70
0
0
VERTEX
8
Image
10
161.179871
20
83.738826
70
0
0
VERTEX
8
Image
10
161.963989
20
82.864303
70
0
0
VERTEX
8
Image
10
163.047581
20
81.964524
70
0
0
VERTEX
8
Image
10
164.325035
20
81.117619
70
0
0
VERTEX
8
Image
10
165.690738
20
80.401720
70
0
0
VERTEX
8
Image
10
167.329971
20
79.779956
70
0
0
VERTEX
8
Image
10
166.047290
20
80.569482
70
0
0
VERTEX
8
Image
10
166.047290
20
80.569482
70
0
0
SEQEND
8
Image
0
POLYLINE
8
Image
62
7
70
0
10
0.000000
20
0.000000
66
1
0
VERTEX
8
Image
10
127.285881
20
81.924647
70
0
0
VERTEX
8
Image
10
122.126512
20
84.703665
70
0
0
VERTEX
8
Image
10
120.825473
20
85.444984
70
0
0
VERTEX
8
Image
10
120.821403
20
85.378066
70
0
0
VERTEX
8
Image
10
121.200472
20
85.036627
70
0
0
VERTEX
8
Image
10
124.023927
20
83.143232
70
0
0
VERTEX
8
Image
10
127.792351
20
81.269415
70
0
0
VERTEX
8
Image
10
129.666634
20
80.496930
70
0
0
VERTEX
8
Image
10
130.202845
20
80.353994
70
0
0
VERTEX
8
Image
10
127.285881
20
81.924647
70
0
0
VERTEX
8
Image
10
127.285881
20
81.924647
70
0
0
SEQEND
8
Image
0
POLYLINE
8
Image
62
7
70
0
10
0.000000
20
0.000000
66
1
0
VERTEX
8
Image
10
88.392180
20
80.684067
70
0
0
VERTEX
8
Image
10
88.034922
20
81.278635
70
0
0
VERTEX
8
Image
10
87.189673
20
82.264102
70
0
0
VERTEX
8
Image
10
85.394359
20
83.934189
70
0
0
VERTEX
8
Image
10
82.389289
20
84.947526
70
0
0
VERTEX
8
Image
10
75.249544
20
87.063493
70
0
0
VERTEX
8
Image
10
52.861427
20
93.358945
70
0
0
VERTEX
8
Image
10
46.302512
20
95.161686
70
0
0
VERTEX
8
Image
10
44.722610
20
94.406564
70
0
0
VERTEX
8
Image
10
43.665945
20
93.819302
70
0
0
VERTEX
8
Image
10
43.344037
20
93.467760
70
0
0
VERTEX
8
Image
10
48.043272
20
91.899500
70
0
0
VERTEX
8
Image
10
56.906803
20
89.081469
70
0
0
VERTEX
8
Image
10
66.138779
20
86.166686
70
0
0
VERTEX
8
Image
10
74.691282
20
83.686740
70
0
0
VERTEX
8
Image
10
81.958307
20
81.808577
70
0
0
VERTEX
8
Image
10
87.333848
20
80.699146
70
0
0
VERTEX
8
Image
10
88.193742
20
80.558380
70
0
0
VERTEX
8
Image
10
88.392180
20
80.684067
70
0
0
VERTEX
8
Image
10
88.392180
20
80.684067
70
0
0
SEQEND
8
Image
0
POLYLINE
8
Image
62
7
70
0
10
0.000000
20
0.000000
66
1
0
VERTEX
8
Image
10
129.863271
20
82.867649
70
0
0
VERTEX
8
Image
10
127.652799
20
84.097857
70
0
0
VERTEX
8
Image
10
125.964013
20
85.258292
70
0
0
VERTEX
8
Image
10
125.076370
20
85.931521
70
0
0
VERTEX
8
Image
10
124.839564
20
86.049752
70
0
0
VERTEX
8
Image
10
124.792043
20
85.990366
70
0
0
VERTEX
8
Image
10
125.283791
20
85.362467
70
0
0
VERTEX
8
Image
10
126.290539
20
84.568606
70
0
0
VERTEX
8
Image
10
129.437909
20
82.768140
70
0
0
VERTEX
8
Image
10
132.161463
20
81.584218
70
0
0
VERTEX
8
Image
10
131.603431
20
81.962651
70
0
0
VERTEX
8
Image
10
129.863271
20
82.867649
70
0
0
VERTEX
8
Image
10
129.863271
20
82.867649
70
0
0
SEQEND
8
Image
0
POLYLINE
8
Image
62
7
70
0
10
0.000000
20
0.000000
66
1
0
VERTEX
8
Image
10
164.416890
20
84.233014
70
0
0
VERTEX
8
Image
10
163.921548
20
85.667227
70
0
0
VERTEX
8
Image
10
163.673739
20
87.546521
70
0
0
VERTEX
8
Image
10
163.667568
20
89.970794
70
0
0
VERTEX
8
Image
10
163.897138
20
93.039948
70
0
0
VERTEX
8
Image
10
164.310451
20
97.984827
70
0
0
VERTEX
8
Image
10
164.211645
20
98.445640
70
0
0
VERTEX
8
Image
10
163.988041
20
97.836019
70
0
0
VERTEX
8
Image
10
163.254273
20
93.757063
70
0
0
VERTEX
8
Image
10
162.867449
20
90.247637
70
0
0
VERTEX
8
Image
10
162.898491
20
87.489089
70
0
0
VERTEX
8
Image
10
163.355432
20
85.401629
70
0
0
VERTEX
8
Image
10
163.746126
20
84.584622
70
0
0
VERTEX
8
Image
10
164.246308
20
83.905466
70
0
0
VERTEX
8
Image
10
164.727882
20
83.476181
70
0
0
VERTEX
8
Image
10
164.416890
20
84.233014
70
0
0
VERTEX
8
Image
10
164.416890
20
84.233014
70
0
0
SEQEND
8
Image
0
POLYLINE
8
Image
62
7
70
0
10
0.000000
20
0.000000
66
1
0
VERTEX
8
Image
10
130.707166
20
85.138719
70
0
0
VERTEX
8
Image
10
127.994865
20
86.373017
70
0
0
VERTEX
8
Image
10
125.698383
20
88.027775
70
0
0
VERTEX
8
Image
10
125.091314
20
88.538513
70
0
0
VERTEX
8
Image
10
125.830674
20
87.709026
70
0
0
VERTEX
8
Image
10
127.148060
20
86.594282
70
0
0
VERTEX
8
Image
10
128.837847
20
85.569238
70
0
0
VERTEX
8
Image
10
130.545401
20
84.819190
70
0
0
VERTEX
8
Image
10
131.916083
20
84.529432
70
0
0
VERTEX
8
Image
10
131.984403
20
84.577813
70
0
0
VERTEX
8
Image
10
131.779245
20
84.708825
70
0
0
VERTEX
8
Image
10
130.707166
20
85.138719
70
0
0
VERTEX
8
Image
10
130.707166
20
85.138719
70
0
0
SEQEND
8
Image
0
POLYLINE
8
Image
62
7
70
0
10
0.000000
20
0.000000
66
1
0
VERTEX
8
Image
10
168.560829
20
86.205507
70
0
0
VERTEX
8
Image
10
167.527508
20
86.859583
70
0
0
VERTEX
8
Image
10
166.586262
20
87.456930
70
0
0
VERTEX
8
Image
10
165.916117
20
88.154148
70
0
0
VERTEX
8
Image
10
165.510563
20
88.960333
70
0
0
VERTEX
8
Image
10
165.363092
20
89.884581
70
0
0
VERTEX
8
Image
10
165.311473
20
90.726074
70
0
0
VERTEX
8
Image
10
165.097792
20
90.179628
70
0
0
VERTEX
8
Image
10
164.971271
20
89.002986
70
0
0
VERTEX
8
Image
10
165.319509
20
87.952497
70
0
0
VERTEX
8
Image
10
166.112931
20
87.078030
70
0
0
VERTEX
8
Image
10
167.321961
20
86.429450
70
0
0
VERTEX
8
Image
10
168.301470
20
86.116913
70
0
0
VERTEX
8
Image
10
168.560829
20
86.205507
70
0
0
VERTEX
8
Image
10
168.560829
20
86.205507
70
0
0
SEQEND
8
Image
0
POLYLINE
8
Image
62
7
70
0
10
0.000000
20
0.000000
66
1
0
VERTEX
8
Image
10
160.202718
20
93.553067
70
0
0
VERTEX
8
Image
10
159.566409
20
94.412961
70
0
0
VERTEX
8
Image
10
157.239939
20
97.997241
70
0
0
VERTEX
8
Image
10
155.295339
20
100.834057
70
0
0
VERTEX
8
Image
10
153.233210
20
103.288901
70
0
0
VERTEX
8
Image
10
151.103910
20
105.525447
70
0
0
VERTEX
8
Image
10
153.215872
20
101.859354
70
0
0
VERTEX
8
Image
10
156.177495
20
97.078033
70
0
0
VERTEX
8
Image
10
157.331458
20
95.632611
70
0
0
VERTEX
8
Image
10
158.548630
20
94.425487
70
0
0
VERTEX
8
Image
10
160.005550
20
93.296925
70
0
0
VERTEX
8
Image
10
160.289501
20
93.237194
70
0
0
VERTEX
8
Image
10
160.202718
20
93.553067
70
0
0
VERTEX
8
Image
10
160.202718
20
93.553067
70
0
0
SEQEND
8
Image
0
POLYLINE
8
Image
62
7
70
0
10
0.000000
20
0.000000
66
1
0
VERTEX
8
Image
10
131.254626
20
97.370825
70
0
0
VERTEX
8
Image
10
132.351899
20
97.908946
70
0
0
VERTEX
8
Image
10
133.373253
20
98.600948
70
0
0
VERTEX
8
Image
10
134.296381
20
99.429391
70
0
0
VERTEX
8
Image
10
135.098977
20
100.376832
70
0
0
VERTEX
8
Image
10
135.979552
20
101.746842
70
0
0
VERTEX
8
Image
10
135.049394
20
100.883939
70
0
0
VERTEX
8
Image
10
133.868184
20
99.861299
70
0
0
VERTEX
8
Image
10
132.152401
20
98.641392
70
0
0
VERTEX
8
Image
10
130.496607
20
97.619544
70
0
0
VERTEX
8
Image
10
129.495366
20
97.191078
70
0
0
VERTEX
8
Image
10
128.999116
20
96.915890
70
0
0
VERTEX
8
Image
10
129.070251
20
96.771026
70
0
0
VERTEX
8
Image
10
129.526650
20
96.810011
70
0
0
VERTEX
8
Image
10
131.254626
20
97.370825
70
0
0
VERTEX
8
Image
10
131.254626
20
97.370825
70
0
0
SEQEND
8
Image
0
POLYLINE
8
Image
62
7
70
0
10
0.000000
20
0.000000
66
1
0
VERTEX
8
Image
10
161.267627
20
131.351844
70
0
0
VERTEX
8
Image
10
161.027109
20
133.530641
70
0
0
VERTEX
8
Image
10
160.982448
20
135.227609
70
0
0
VERTEX
8
Image
10
161.147864
20
136.831387
70
0
0
VERTEX
8
Image
10
161.537573
20
138.730609
70
0
0
VERTEX
8
Image
10
161.857750
20
140.839004
70
0
0
VERTEX
8
Image
10
162.065419
20
143.493103
70
0
0
VERTEX
8
Image
10
162.122561
20
145.286540
70
0
0
VERTEX
8
Image
10
162.103201
20
145.642039
70
0
0
VERTEX
8
Image
10
162.040115
20
145.604229
70
0
0
VERTEX
8
Image
10
161.173896
20
141.032491
70
0
0
VERTEX
8
Image
10
160.328924
20
137.351954
70
0
0
VERTEX
8
Image
10
160.140281
20
136.392122
70
0
0
VERTEX
8
Image
10
160.183204
20
134.796967
70
0
0
VERTEX
8
Image
10
160.441888
20
132.756985
70
0
0
VERTEX
8
Image
10
160.900529
20
130.462670
70
0
0
VERTEX
8
Image
10
161.601267
20
127.978691
70
0
0
VERTEX
8
Image
10
161.267627
20
131.351844
70
0
0
VERTEX
8
Image
10
161.267627
20
131.351844
70
0
0
SEQEND
8
Image
0
POLYLINE
8
Image
62
7
70
0
10
0.000000
20
0.000000
66
1
0
VERTEX
8
Image
10
146.468148
20
136.571879
70
0
0
VERTEX
8
Image
10
142.499403
20
138.889472
70
0
0
VERTEX
8
Image
10
138.530658
20
141.192165
70
0
0
VERTEX
8
Image
10
136.678577
20
142.179604
70
0
0
VERTEX
8
Image
10
137.869201
20
141.099695
70
0
0
VERTEX
8
Image
10
139.581696
20
139.693073
70
0
0
VERTEX
8
Image
10
141.468439
20
138.436113
70
0
0
VERTEX
8
Image
10
143.599736
20
137.286708
70
0
0
VERTEX
8
Image
10
146.045895
20
136.202751
70
0
0
VERTEX
8
Image
10
147.881097
20
135.624105
70
0
0
VERTEX
8
Image
10
147.589564
20
135.914989
70
0
0
VERTEX
8
Image
10
146.468148
20
136.571879
70
0
0
VERTEX
8
Image
10
146.468148
20
136.571879
70
0
0
SEQEND
8
Image
0
POLYLINE
8
Image
62
7
70
0
10
0.000000
20
0.000000
66
1
0
VERTEX
8
Image
10
148.187938
20
138.627091
70
0
0
VERTEX
8
Image
10
148.107136
20
139.080260
70
0
0
VERTEX
8
Image
10
147.876248
20
139.488890
70
0
0
VERTEX
8
Image
10
147.033310
20
140.192020
70
0
0
VERTEX
8
Image
10
145.797315
20
140.775456
70
0
0
VERTEX
8
Image
10
144.306459
20
141.278178
70
0
0
VERTEX
8
Image
10
141.112936
20
142.197385
70
0
0
VERTEX
8
Image
10
139.686657
20
142.691825
70
0
0
VERTEX
8
Image
10
138.558291
20
143.261460
70
0
0
VERTEX
8
Image
10
136.905449
20
144.205045
70
0
0
VERTEX
8
Image
10
138.333023
20
142.873574
70
0
0
VERTEX
8
Image
10
140.112223
20
141.636965
70
0
0
VERTEX
8
Image
10
142.301956
20
140.441643
70
0
0
VERTEX
8
Image
10
144.673295
20
139.399889
70
0
0
VERTEX
8
Image
10
146.997314
20
138.623984
70
0
0
VERTEX
8
Image
10
147.946264
20
138.255930
70
0
0
VERTEX
8
Image
10
148.502551
20
137.841023
70
0
0
VERTEX
8
Image
10
148.748204
20
137.455323
70
0
0
VERTEX
8
Image
10
148.765250
20
137.174893
70
0
0
VERTEX
8
Image
10
148.635718
20
137.075793
70
0
0
VERTEX
8
Image
10
148.441637
20
137.234084
70
0
0
VERTEX
8
Image
10
148.265034
20
137.725826
70
0
0
VERTEX
8
Image
10
148.187938
20
138.627080
70
0
0
VERTEX
8
Image
10
148.187938
20
138.627091
70
0
0
SEQEND
8
Image
0
POLYLINE
8
Image
62
7
70
0
10
0.000000
20
0.000000
66
1
0
VERTEX
8
Image
10
148.849395
20
141.145553
70
0
0
VERTEX
8
Image
10
146.097841
20
141.658972
70
0
0
VERTEX
8
Image
10
143.254259
20
142.509016
70
0
0
VERTEX
8
Image
10
140.413024
20
143.662428
70
0
0
VERTEX
8
Image
10
137.668509
20
145.085951
70
0
0
VERTEX
8
Image
10
136.678577
20
145.660842
70
0
0
VERTEX
8
Image
10
137.604618
20
144.850723
70
0
0
VERTEX
8
Image
10
138.657230
20
144.066275
70
0
0
VERTEX
8
Image
10
139.945712
20
143.328102
70
0
0
VERTEX
8
Image
10
143.007500
20
142.064427
70
0
0
VERTEX
8
Image
10
146.344406
20
141.207373
70
0
0
VERTEX
8
Image
10
147.976785
20
140.977480
70
0
0
VERTEX
8
Image
10
149.510853
20
140.904621
70
0
0
VERTEX
8
Image
10
150.010423
20
140.919754
70
0
0
VERTEX
8
Image
10
150.082057
20
140.959359
70
0
0
VERTEX
8
Image
10
148.849395
20
141.145553
70
0
0
VERTEX
8
Image
10
148.849395
20
141.145553
70
0
0
SEQEND
8
Image
0
POLYLINE
8
Image
62
7
70
0
10
0.000000
20
0.000000
66
1
0
VERTEX
8
Image
10
147.919105
20
144.424263
70
0
0
VERTEX
8
Image
10
146.423140
20
145.760215
70
0
0
VERTEX
8
Image
10
144.282931
20
147.153491
70
0
0
VERTEX
8
Image
10
142.010572
20
148.308368
70
0
0
VERTEX
8
Image
10
140.118156
20
148.929124
70
0
0
VERTEX
8
Image
10
139.693077
20
148.963523
70
0
0
VERTEX
8
Image
10
139.769632
20
148.815405
70
0
0
VERTEX
8
Image
10
141.705654
20
147.768338
70
0
0
VERTEX
8
Image
10
146.203565
20
145.252789
70
0
0
VERTEX
8
Image
10
148.025457
20
144.129004
70
0
0
VERTEX
8
Image
10
148.139279
20
144.135007
70
0
0
VERTEX
8
Image
10
147.919105
20
144.424263
70
0
0
VERTEX
8
Image
10
147.919105
20
144.424263
70
0
0
SEQEND
8
Image
0
POLYLINE
8
Image
62
7
70
0
10
0.000000
20
0.000000
66
1
0
VERTEX
8
Image
10
148.452521
20
149.244640
70
0
0
VERTEX
8
Image
10
150.037430
20
149.462772
70
0
0
VERTEX
8
Image
10
151.880881
20
149.478264
70
0
0
VERTEX
8
Image
10
153.937729
20
149.293080
70
0
0
VERTEX
8
Image
10
156.162829
20
148.909186
70
0
0
VERTEX
8
Image
10
157.906288
20
148.587951
70
0
0
VERTEX
8
Image
10
158.535672
20
148.570622
70
0
0
VERTEX
8
Image
10
158.035430
20
148.828260
70
0
0
VERTEX
8
Image
10
156.390011
20
149.331928
70
0
0
VERTEX
8
Image
10
153.286136
20
149.959329
70
0
0
VERTEX
8
Image
10
150.441295
20
150.083219
70
0
0
VERTEX
8
Image
10
148.024200
20
149.711543
70
0
0
VERTEX
8
Image
10
147.028781
20
149.342350
70
0
0
VERTEX
8
Image
10
146.203565
20
148.852245
70
0
0
VERTEX
8
Image
10
145.674399
20
148.455068
70
0
0
VERTEX
8
Image
10
146.203565
20
148.658782
70
0
0
VERTEX
8
Image
10
148.452521
20
149.244640
70
0
0
VERTEX
8
Image
10
148.452521
20
149.244640
70
0
0
SEQEND
8
Image
0
POLYLINE
8
Image
62
7
70
0
10
0.000000
20
0.000000
66
1
0
VERTEX
8
Image
10
101.797058
20
149.199422
70
0
0
VERTEX
8
Image
10
101.901323
20
149.287862
70
0
0
VERTEX
8
Image
10
101.880175
20
149.494793
70
0
0
VERTEX
8
Image
10
101.656461
20
149.913797
70
0
0
VERTEX
8
Image
10
101.447580
20
150.323659
70
0
0
VERTEX
8
Image
10
101.366261
20
150.888198
70
0
0
VERTEX
8
Image
10
101.375786
20
151.562884
70
0
0
VERTEX
8
Image
10
102.026414
20
150.769135
70
0
0
VERTEX
8
Image
10
102.589119
20
150.166689
70
0
0
VERTEX
8
Image
10
102.678355
20
150.594434
70
0
0
VERTEX
8
Image
10
102.527182
20
151.160676
70
0
0
VERTEX
8
Image
10
102.161785
20
151.652766
70
0
0
VERTEX
8
Image
10
101.742403
20
152.188803
70
0
0
VERTEX
8
Image
10
101.461342
20
152.860706
70
0
0
VERTEX
8
Image
10
101.400704
20
153.480398
70
0
0
VERTEX
8
Image
10
101.846934
20
153.480788
70
0
0
VERTEX
8
Image
10
102.236373
20
153.438305
70
0
0
VERTEX
8
Image
10
102.388656
20
153.583965
70
0
0
VERTEX
8
Image
10
101.987782
20
154.482605
70
0
0
VERTEX
8
Image
10
101.361912
20
155.110770
70
0
0
VERTEX
8
Image
10
101.177392
20
155.085863
70
0
0
VERTEX
8
Image
10
101.158317
20
154.804026
70
0
0
VERTEX
8
Image
10
101.088451
20
154.570449
70
0
0
VERTEX
8
Image
10
100.827589
20
154.473297
70
0
0
VERTEX
8
Image
10
100.505699
20
154.740206
70
0
0
VERTEX
8
Image
10
100.349413
20
155.596576
70
0
0
VERTEX
8
Image
10
100.162676
20
156.526272
70
0
0
VERTEX
8
Image
10
99.731442
20
157.007074
70
0
0
VERTEX
8
Image
10
99.304176
20
157.161681
70
0
0
VERTEX
8
Image
10
99.030546
20
157.130070
70
0
0
VERTEX
8
Image
10
99.086044
20
156.969245
70
0
0
VERTEX
8
Image
10
99.450082
20
156.813193
70
0
0
VERTEX
8
Image
10
99.920286
20
156.490364
70
0
0
VERTEX
8
Image
10
100.033840
20
155.633062
70
0
0
VERTEX
8
Image
10
99.952996
20
154.912618
70
0
0
VERTEX
8
Image
10
99.770630
20
154.626898
70
0
0
VERTEX
8
Image
10
99.576992
20
154.802365
70
0
0
VERTEX
8
Image
10
99.462330
20
155.465483
70
0
0
VERTEX
8
Image
10
99.419989
20
156.325378
70
0
0
VERTEX
8
Image
10
99.313274
20
155.465483
70
0
0
VERTEX
8
Image
10
99.177846
20
154.940306
70
0
0
VERTEX
8
Image
10
98.976853
20
154.630217
70
0
0
VERTEX
8
Image
10
98.791379
20
154.605469
70
0
0
VERTEX
8
Image
10
98.702511
20
154.936317
70
0
0
VERTEX
8
Image
10
98.602490
20
155.054342
70
0
0
VERTEX
8
Image
10
98.345620
20
154.808138
70
0
0
VERTEX
8
Image
10
98.046972
20
154.523470
70
0
0
VERTEX
8
Image
10
97.831348
20
154.551625
70
0
0
VERTEX
8
Image
10
97.683895
20
155.509581
70
0
0
VERTEX
8
Image
10
97.715193
20
156.325378
70
0
0
VERTEX
8
Image
10
97.917168
20
155.531629
70
0
0
VERTEX
8
Image
10
98.084892
20
155.042751
70
0
0
VERTEX
8
Image
10
98.172496
20
155.267046
70
0
0
VERTEX
8
Image
10
98.291873
20
156.391524
70
0
0
VERTEX
8
Image
10
98.203679
20
156.982785
70
0
0
VERTEX
8
Image
10
97.676374
20
156.723306
70
0
0
VERTEX
8
Image
10
97.153782
20
156.093690
70
0
0
VERTEX
8
Image
10
96.753782
20
155.278538
70
0
0
VERTEX
8
Image
10
96.594253
20
154.462447
70
0
0
VERTEX
8
Image
10
96.792788
20
152.991539
70
0
0
VERTEX
8
Image
10
97.271639
20
151.573761
70
0
0
VERTEX
8
Image
10
97.855668
20
150.602728
70
0
0
VERTEX
8
Image
10
98.132394
20
150.407746
70
0
0
VERTEX
8
Image
10
98.369740
20
150.472056
70
0
0
VERTEX
8
Image
10
98.528812
20
152.361840
70
0
0
VERTEX
8
Image
10
98.512673
20
154.076423
70
0
0
VERTEX
8
Image
10
99.386640
20
154.076423
70
0
0
VERTEX
8
Image
10
100.210918
20
153.956314
70
0
0
VERTEX
8
Image
10
100.743536
20
153.581788
70
0
0
VERTEX
8
Image
10
101.000916
20
152.931543
70
0
0
VERTEX
8
Image
10
100.999480
20
151.984278
70
0
0
VERTEX
8
Image
10
100.575523
20
149.313929
70
0
0
VERTEX
8
Image
10
99.904673
20
149.963858
70
0
0
VERTEX
8
Image
10
99.337307
20
150.542416
70
0
0
VERTEX
8
Image
10
99.196550
20
150.496548
70
0
0
VERTEX
8
Image
10
99.076316
20
150.253378
70
0
0
VERTEX
8
Image
10
99.074855
20
149.761799
70
0
0
VERTEX
8
Image
10
99.489849
20
149.272717
70
0
0
VERTEX
8
Image
10
100.077797
20
149.007432
70
0
0
VERTEX
8
Image
10
100.692696
20
149.010441
70
0
0
VERTEX
8
Image
10
101.797050
20
149.199422
70
0
0
VERTEX
8
Image
10
101.797058
20
149.199422
70
0
0
SEQEND
8
Image
0
POLYLINE
8
Image
62
7
70
0
10
0.000000
20
0.000000
66
1
0
VERTEX
8
Image
10
97.535295
20
152.283214
70
0
0
VERTEX
8
Image
10
97.247354
20
152.823780
70
0
0
VERTEX
8
Image
10
97.137475
20
153.315721
70
0
0
VERTEX
8
Image
10
97.209467
20
153.673565
70
0
0
VERTEX
8
Image
10
97.467141
20
153.811840
70
0
0
VERTEX
8
Image
10
97.742719
20
153.590009
70
0
0
VERTEX
8
Image
10
98.065696
20
153.058874
70
0
0
VERTEX
8
Image
10
98.446334
20
151.874828
70
0
0
VERTEX
8
Image
10
98.359122
20
151.697907
70
0
0
VERTEX
8
Image
10
98.137848
20
151.725091
70
0
0
VERTEX
8
Image
10
97.535295
20
152.283214
70
0
0
VERTEX
8
Image
10
97.535295
20
152.283214
70
0
0
SEQEND
8
Image
0
POLYLINE
8
Image
62
7
70
0
10
0.000000
20
0.000000
66
1
0
VERTEX
8
Image
10
102.679662
20
152.488925
70
0
0
VERTEX
8
Image
10
102.597353
20
152.675786
70
0
0
VERTEX
8
Image
10
102.399463
20
152.753508
70
0
0
VERTEX
8
Image
10
102.249608
20
152.675786
70
0
0
VERTEX
8
Image
10
102.282787
20
152.488925
70
0
0
VERTEX
8
Image
10
102.562986
20
152.224342
70
0
0
VERTEX
8
Image
10
102.679662
20
152.488925
70
0
0
VERTEX
8
Image
10
102.679662
20
152.488925
70
0
0
SEQEND
8
Image
0
POLYLINE
8
Image
62
7
70
0
10
0.000000
20
0.000000
66
1
0
VERTEX
8
Image
10
221.212835
20
153.707615
70
0
0
VERTEX
8
Image
10
220.566723
20
154.376216
70
0
0
VERTEX
8
Image
10
219.911643
20
155.098054
70
0
0
VERTEX
8
Image
10
219.131192
20
156.289087
70
0
0
VERTEX
8
Image
10
217.476368
20
159.601585
70
0
0
VERTEX
8
Image
10
216.946613
20
160.751675
70
0
0
VERTEX
8
Image
10
216.722094
20
161.058117
70
0
0
VERTEX
8
Image
10
217.114928
20
159.696457
70
0
0
VERTEX
8
Image
10
218.075393
20
157.561955
70
0
0
VERTEX
8
Image
10
219.224052
20
155.423376
70
0
0
VERTEX
8
Image
10
220.181464
20
154.049480
70
0
0
VERTEX
8
Image
10
220.879920
20
153.573586
70
0
0
VERTEX
8
Image
10
221.120222
20
153.555029
70
0
0
VERTEX
8
Image
10
221.212835
20
153.707615
70
0
0
VERTEX
8
Image
10
221.212835
20
153.707615
70
0
0
SEQEND
8
Image
0
POLYLINE
8
Image
62
7
70
0
10
0.000000
20
0.000000
66
1
0
VERTEX
8
Image
10
101.092164
20
155.663921
70
0
0
VERTEX
8
Image
10
101.009855
20
155.850782
70
0
0
VERTEX
8
Image
10
100.811965
20
155.928504
70
0
0
VERTEX
8
Image
10
100.662110
20
155.850782
70
0
0
VERTEX
8
Image
10
100.695289
20
155.663921
70
0
0
VERTEX
8
Image
10
100.975488
20
155.399338
70
0
0
VERTEX
8
Image
10
101.092164
20
155.663921
70
0
0
VERTEX
8
Image
10
101.092164
20
155.663921
70
0
0
SEQEND
8
Image
0
POLYLINE
8
Image
62
7
70
0
10
0.000000
20
0.000000
66
1
0
VERTEX
8
Image
10
221.212835
20
169.422237
70
0
0
VERTEX
8
Image
10
221.130533
20
169.609098
70
0
0
VERTEX
8
Image
10
220.932642
20
169.686820
70
0
0
VERTEX
8
Image
10
220.782792
20
169.609098
70
0
0
VERTEX
8
Image
10
220.815961
20
169.422237
70
0
0
VERTEX
8
Image
10
221.096180
20
169.157654
70
0
0
VERTEX
8
Image
10
221.212835
20
169.422237
70
0
0
VERTEX
8
Image
10
221.212835
20
169.422237
70
0
0
SEQEND
8
Image
0
POLYLINE
8
Image
62
7
70
0
10
0.000000
20
0.000000
66
1
0
VERTEX
8
Image
10
221.955996
20
170.644549
70
0
0
VERTEX
8
Image
10
221.584369
20
170.903995
70
0
0
VERTEX
8
Image
10
221.335575
20
170.729660
70
0
0
VERTEX
8
Image
10
221.262408
20
170.532432
70
0
0
VERTEX
8
Image
10
221.438419
20
170.588749
70
0
0
VERTEX
8
Image
10
221.704103
20
170.601099
70
0
0
VERTEX
8
Image
10
221.908847
20
170.353635
70
0
0
VERTEX
8
Image
10
222.068113
20
170.097504
70
0
0
VERTEX
8
Image
10
222.221981
20
170.078582
70
0
0
VERTEX
8
Image
10
222.205719
20
170.306712
70
0
0
VERTEX
8
Image
10
221.955996
20
170.644549
70
0
0
VERTEX
8
Image
10
221.955996
20
170.644549
70
0
0
SEQEND
8
Image
0
POLYLINE
8
Image
62
7
70
0
10
0.000000
20
0.000000
66
1
0
VERTEX
8
Image
10
197.410366
20
171.295725
70
0
0
VERTEX
8
Image
10
198.326406
20
172.110884
70
0
0
VERTEX
8
Image
10
197.369144
20
171.560308
70
0
0
VERTEX
8
Image
10
196.539419
20
171.171465
70
0
0
VERTEX
8
Image
10
195.888802
20
171.009735
70
0
0
VERTEX
8
Image
10
195.147611
20
171.322945
70
0
0
VERTEX
8
Image
10
194.434704
20
172.205865
70
0
0
VERTEX
8
Image
10
193.800988
20
173.573431
70
0
0
VERTEX
8
Image
10
193.297371
20
175.340577
70
0
0
VERTEX
8
Image
10
193.041998
20
176.307348
70
0
0
VERTEX
8
Image
10
192.959505
20
176.462169
70
0
0
VERTEX
8
Image
10
192.923488
20
176.353626
70
0
0
VERTEX
8
Image
10
193.036380
20
175.250952
70
0
0
VERTEX
8
Image
10
193.360570
20
173.781598
70
0
0
VERTEX
8
Image
10
193.792833
20
172.342459
70
0
0
VERTEX
8
Image
10
194.229946
20
171.330430
70
0
0
VERTEX
8
Image
10
194.844636
20
170.675356
70
0
0
VERTEX
8
Image
10
195.604920
20
170.450937
70
0
0
VERTEX
8
Image
10
196.472823
20
170.657589
70
0
0
VERTEX
8
Image
10
197.410366
20
171.295725
70
0
0
VERTEX
8
Image
10
197.410366
20
171.295725
70
0
0
SEQEND
8
Image
0
POLYLINE
8
Image
62
7
70
0
10
0.000000
20
0.000000
66
1
0
VERTEX
8
Image
10
218.699297
20
171.274320
70
0
0
VERTEX
8
Image
10
218.489148
20
171.441192
70
0
0
VERTEX
8
Image
10
218.242706
20
171.320427
70
0
0
VERTEX
8
Image
10
218.112250
20
171.042301
70
0
0
VERTEX
8
Image
10
218.170131
20
170.745154
70
0
0
VERTEX
8
Image
10
218.380302
20
170.578283
70
0
0
VERTEX
8
Image
10
218.626748
20
170.699048
70
0
0
VERTEX
8
Image
10
218.757201
20
170.977174
70
0
0
VERTEX
8
Image
10
218.699297
20
171.274320
70
0
0
VERTEX
8
Image
10
218.699297
20
171.274320
70
0
0
SEQEND
8
Image
0
POLYLINE
8
Image
62
7
70
0
10
0.000000
20
0.000000
66
1
0
VERTEX
8
Image
10
219.500057
20
172.281553
70
0
0
VERTEX
8
Image
10
219.299596
20
172.289584
70
0
0
VERTEX
8
Image
10
219.025633
20
172.100901
70
0
0
VERTEX
8
Image
10
218.861020
20
171.875010
70
0
0
VERTEX
8
Image
10
219.173747
20
171.952788
70
0
0
VERTEX
8
Image
10
219.465301
20
172.123882
70
0
0
VERTEX
8
Image
10
219.500057
20
172.281553
70
0
0
VERTEX
8
Image
10
219.500057
20
172.281553
70
0
0
SEQEND
8
Image
0
POLYLINE
8
Image
62
7
70
0
10
0.000000
20
0.000000
66
1
0
VERTEX
8
Image
10
217.160270
20
172.911428
70
0
0
VERTEX
8
Image
10
217.053422
20
173.026236
70
0
0
VERTEX
8
Image
10
217.000409
20
172.751575
70
0
0
VERTEX
8
Image
10
217.032652
20
172.440380
70
0
0
VERTEX
8
Image
10
217.139368
20
172.404309
70
0
0
VERTEX
8
Image
10
217.160270
20
172.911428
70
0
0
VERTEX
8
Image
10
217.160270
20
172.911428
70
0
0
SEQEND
8
Image
0
POLYLINE
8
Image
62
7
70
0
10
0.000000
20
0.000000
66
1
0
VERTEX
8
Image
10
217.937456
20
173.026013
70
0
0
VERTEX
8
Image
10
217.932079
20
173.269786
70
0
0
VERTEX
8
Image
10
217.833951
20
173.275280
70
0
0
VERTEX
8
Image
10
217.609082
20
172.697623
70
0
0
VERTEX
8
Image
10
217.614460
20
172.453851
70
0
0
VERTEX
8
Image
10
217.712587
20
172.448357
70
0
0
VERTEX
8
Image
10
217.937456
20
173.026013
70
0
0
VERTEX
8
Image
10
217.937456
20
173.026013
70
0
0
SEQEND
8
Image
0
POLYLINE
8
Image
62
7
70
0
10
0.000000
20
0.000000
66
1
0
VERTEX
8
Image
10
212.265538
20
175.035810
70
0
0
VERTEX
8
Image
10
212.037785
20
175.189019
70
0
0
VERTEX
8
Image
10
211.952430
20
175.075497
70
0
0
VERTEX
8
Image
10
212.130961
20
174.632105
70
0
0
VERTEX
8
Image
10
212.290943
20
174.538342
70
0
0
VERTEX
8
Image
10
212.441909
20
174.586018
70
0
0
VERTEX
8
Image
10
212.265538
20
175.035810
70
0
0
VERTEX
8
Image
10
212.265538
20
175.035810
70
0
0
SEQEND
8
Image
0
POLYLINE
8
Image
62
7
70
0
10
0.000000
20
0.000000
66
1
0
VERTEX
8
Image
10
216.429465
20
175.060231
70
0
0
VERTEX
8
Image
10
216.418752
20
174.995632
70
0
0
VERTEX
8
Image
10
216.387989
20
175.056051
70
0
0
VERTEX
8
Image
10
216.339242
20
175.114247
70
0
0
VERTEX
8
Image
10
216.274579
20
175.042980
70
0
0
VERTEX
8
Image
10
216.096838
20
174.859591
70
0
0
VERTEX
8
Image
10
215.857702
20
174.885423
70
0
0
VERTEX
8
Image
10
215.705980
20
174.926257
70
0
0
VERTEX
8
Image
10
215.766288
20
174.750465
70
0
0
VERTEX
8
Image
10
215.964888
20
174.709366
70
0
0
VERTEX
8
Image
10
216.182302
20
174.939875
70
0
0
VERTEX
8
Image
10
216.357503
20
175.153124
70
0
0
VERTEX
8
Image
10
216.429465
20
175.060244
70
0
0
VERTEX
8
Image
10
216.429465
20
175.060231
70
0
0
SEQEND
8
Image
0
POLYLINE
8
Image
62
7
70
0
10
0.000000
20
0.000000
66
1
0
VERTEX
8
Image
10
217.192999
20
175.382358
70
0
0
VERTEX
8
Image
10
217.035331
20
175.347598
70
0
0
VERTEX
8
Image
10
216.864228
20
175.056040
70
0
0
VERTEX
8
Image
10
216.786461
20
174.743316
70
0
0
VERTEX
8
Image
10
217.012342
20
174.907926
70
0
0
VERTEX
8
Image
10
217.201036
20
175.181897
70
0
0
VERTEX
8
Image
10
217.192999
20
175.382358
70
0
0
VERTEX
8
Image
10
217.192999
20
175.382358
70
0
0
SEQEND
8
Image
0
POLYLINE
8
Image
62
7
70
0
10
0.000000
20
0.000000
66
1
0
VERTEX
8
Image
10
149.775436
20
175.318461
70
0
0
VERTEX
8
Image
10
145.285679
20
176.732763
70
0
0
VERTEX
8
Image
10
141.636370
20
177.775514
70
0
0
VERTEX
8
Image
10
144.276832
20
176.722160
70
0
0
VERTEX
8
Image
10
148.320229
20
175.388057
70
0
0
VERTEX
8
Image
10
150.138245
20
175.036975
70
0
0
VERTEX
8
Image
10
150.336511
20
175.093526
70
0
0
VERTEX
8
Image
10
149.775436
20
175.318461
70
0
0
VERTEX
8
Image
10
149.775436
20
175.318461
70
0
0
SEQEND
8
Image
0
POLYLINE
8
Image
62
7
70
0
10
0.000000
20
0.000000
66
1
0
VERTEX
8
Image
10
215.996423
20
176.219625
70
0
0
VERTEX
8
Image
10
216.101068
20
175.920683
70
0
0
VERTEX
8
Image
10
216.092704
20
176.203962
70
0
0
VERTEX
8
Image
10
215.883326
20
176.518576
70
0
0
VERTEX
8
Image
10
215.462474
20
176.728680
70
0
0
VERTEX
8
Image
10
215.049272
20
176.768591
70
0
0
VERTEX
8
Image
10
214.862843
20
176.572624
70
0
0
VERTEX
8
Image
10
214.759216
20
176.432565
70
0
0
VERTEX
8
Image
10
214.510075
20
176.453379
70
0
0
VERTEX
8
Image
10
214.260933
20
176.436469
70
0
0
VERTEX
8
Image
10
214.157306
20
176.205716
70
0
0
VERTEX
8
Image
10
214.260278
20
175.974713
70
0
0
VERTEX
8
Image
10
214.507852
20
175.957199
70
0
0
VERTEX
8
Image
10
214.809695
20
175.910766
70
0
0
VERTEX
8
Image
10
215.043156
20
175.610232
70
0
0
VERTEX
8
Image
10
215.251340
20
175.352004
70
0
0
VERTEX
8
Image
10
215.544435
20
175.903070
70
0
0
VERTEX
8
Image
10
215.824096
20
176.426650
70
0
0
VERTEX
8
Image
10
215.996423
20
176.219625
70
0
0
VERTEX
8
Image
10
215.996423
20
176.219625
70
0
0
SEQEND
8
Image
0
POLYLINE
8
Image
62
7
70
0
10
0.000000
20
0.000000
66
1
0
VERTEX
8
Image
10
215.006459
20
176.018532
70
0
0
VERTEX
8
Image
10
214.977930
20
176.241301
70
0
0
VERTEX
8
Image
10
215.123113
20
176.431022
70
0
0
VERTEX
8
Image
10
215.313024
20
176.427228
70
0
0
VERTEX
8
Image
10
215.392009
20
176.184722
70
0
0
VERTEX
8
Image
10
215.284284
20
175.789726
70
0
0
VERTEX
8
Image
10
215.006459
20
176.018532
70
0
0
VERTEX
8
Image
10
215.006459
20
176.018532
70
0
0
SEQEND
8
Image
0
POLYLINE
8
Image
62
7
70
0
10
0.000000
20
0.000000
66
1
0
VERTEX
8
Image
10
218.302422
20
175.900432
70
0
0
VERTEX
8
Image
10
217.914226
20
176.558781
70
0
0
VERTEX
8
Image
10
217.607763
20
176.677932
70
0
0
VERTEX
8
Image
10
217.583497
20
176.096068
70
0
0
VERTEX
8
Image
10
217.719426
20
175.638072
70
0
0
VERTEX
8
Image
10
217.963934
20
175.431200
70
0
0
VERTEX
8
Image
10
218.197956
20
175.507853
70
0
0
VERTEX
8
Image
10
218.302422
20
175.900432
70
0
0
VERTEX
8
Image
10
218.302422
20
175.900432
70
0
0
SEQEND
8
Image
0
POLYLINE
8
Image
62
7
70
0
10
0.000000
20
0.000000
66
1
0
VERTEX
8
Image
10
217.156857
20
176.499835
70
0
0
VERTEX
8
Image
10
217.140737
20
176.876741
70
0
0
VERTEX
8
Image
10
217.062269
20
176.761179
70
0
0
VERTEX
8
Image
10
216.886609
20
176.478502
70
0
0
VERTEX
8
Image
10
216.628776
20
176.481240
70
0
0
VERTEX
8
Image
10
216.513834
20
176.483362
70
0
0
VERTEX
8
Image
10
216.681190
20
176.219895
70
0
0
VERTEX
8
Image
10
217.079321
20
175.824859
70
0
0
VERTEX
8
Image
10
217.156857
20
176.499835
70
0
0
VERTEX
8
Image
10
217.156857
20
176.499835
70
0
0
SEQEND
8
Image
0
POLYLINE
8
Image
62
7
70
0
10
0.000000
20
0.000000
66
1
0
VERTEX
8
Image
10
213.592104
20
176.529772
70
0
0
VERTEX
8
Image
10
213.774365
20
176.316910
70
0
0
VERTEX
8
Image
10
213.736460
20
176.565980
70
0
0
VERTEX
8
Image
10
213.557258
20
176.846273
70
0
0
VERTEX
8
Image
10
213.278520
20
176.962855
70
0
0
VERTEX
8
Image
10
212.980999
20
177.106000
70
0
0
VERTEX
8
Image
10
212.870543
20
177.442418
70
0
0
VERTEX
8
Image
10
212.952606
20
177.832580
70
0
0
VERTEX
8
Image
10
213.232641
20
178.136958
70
0
0
VERTEX
8
Image
10
213.518404
20
178.402245
70
0
0
VERTEX
8
Image
10
213.341491
20
178.719083
70
0
0
VERTEX
8
Image
10
213.010762
20
179.280343
70
0
0
VERTEX
8
Image
10
213.107914
20
179.386010
70
0
0
VERTEX
8
Image
10
213.341491
20
179.320901
70
0
0
VERTEX
8
Image
10
213.524420
20
179.255943
70
0
0
VERTEX
8
Image
10
213.330378
20
179.501513
70
0
0
VERTEX
8
Image
10
213.005302
20
179.731209
70
0
0
VERTEX
8
Image
10
212.739141
20
179.474181
70
0
0
VERTEX
8
Image
10
212.559995
20
179.273172
70
0
0
VERTEX
8
Image
10
212.479691
20
179.344102
70
0
0
VERTEX
8
Image
10
211.928697
20
180.270142
70
0
0
VERTEX
8
Image
10
211.568140
20
180.658790
70
0
0
VERTEX
8
Image
10
211.634243
20
180.402434
70
0
0
VERTEX
8
Image
10
211.761348
20
179.586108
70
0
0
VERTEX
8
Image
10
211.629413
20
179.314965
70
0
0
VERTEX
8
Image
10
211.383312
20
179.211810
70
0
0
VERTEX
8
Image
10
211.242802
20
179.386683
70
0
0
VERTEX
8
Image
10
211.270626
20
179.807122
70
0
0
VERTEX
8
Image
10
211.330303
20
180.130409
70
0
0
VERTEX
8
Image
10
211.266393
20
180.071705
70
0
0
VERTEX
8
Image
10
210.862639
20
179.740976
70
0
0
VERTEX
8
Image
10
210.768798
20
179.901763
70
0
0
VERTEX
8
Image
10
210.912010
20
180.303789
70
0
0
VERTEX
8
Image
10
211.028036
20
180.693588
70
0
0
VERTEX
8
Image
10
210.948238
20
181.015807
70
0
0
VERTEX
8
Image
10
210.693092
20
181.237176
70
0
0
VERTEX
8
Image
10
210.283070
20
181.324424
70
0
0
VERTEX
8
Image
10
210.187367
20
181.416973
70
0
0
VERTEX
8
Image
10
210.257935
20
181.633938
70
0
0
VERTEX
8
Image
10
210.314430
20
181.807110
70
0
0
VERTEX
8
Image
10
210.141254
20
181.750614
70
0
0
VERTEX
8
Image
10
209.925506
20
181.704178
70
0
0
VERTEX
8
Image
10
209.835766
20
181.857640
70
0
0
VERTEX
8
Image
10
209.750670
20
182.013963
70
0
0
VERTEX
8
Image
10
209.546074
20
181.974403
70
0
0
VERTEX
8
Image
10
209.534462
20
181.712583
70
0
0
VERTEX
8
Image
10
209.996659
20
181.309729
70
0
0
VERTEX
8
Image
10
210.516842
20
180.913193
70
0
0
VERTEX
8
Image
10
210.172395
20
180.866629
70
0
0
VERTEX
8
Image
10
209.806718
20
180.950106
70
0
0
VERTEX
8
Image
10
209.720302
20
181.091090
70
0
0
VERTEX
8
Image
10
209.674916
20
181.267469
70
0
0
VERTEX
8
Image
10
209.407935
20
181.436043
70
0
0
VERTEX
8
Image
10
209.111172
20
181.461879
70
0
0
VERTEX
8
Image
10
209.145522
20
181.133037
70
0
0
VERTEX
8
Image
10
209.232381
20
180.801377
70
0
0
VERTEX
8
Image
10
208.950366
20
181.125920
70
0
0
VERTEX
8
Image
10
208.642407
20
181.394575
70
0
0
VERTEX
8
Image
10
208.404081
20
181.396067
70
0
0
VERTEX
8
Image
10
208.348360
20
181.466862
70
0
0
VERTEX
8
Image
10
208.479487
20
181.902141
70
0
0
VERTEX
8
Image
10
208.600071
20
182.693458
70
0
0
VERTEX
8
Image
10
208.402171
20
182.806835
70
0
0
VERTEX
8
Image
10
208.023981
20
182.747171
70
0
0
VERTEX
8
Image
10
207.900400
20
182.764470
70
0
0
VERTEX
8
Image
10
208.217153
20
182.991892
70
0
0
VERTEX
8
Image
10
208.847496
20
183.368949
70
0
0
VERTEX
8
Image
10
208.041205
20
183.650018
70
0
0
VERTEX
8
Image
10
207.086537
20
183.782699
70
0
0
VERTEX
8
Image
10
206.862333
20
183.777009
70
0
0
VERTEX
8
Image
10
206.531627
20
183.971701
70
0
0
VERTEX
8
Image
10
206.275458
20
184.315521
70
0
0
VERTEX
8
Image
10
206.430371
20
184.676918
70
0
0
VERTEX
8
Image
10
206.587259
20
184.937519
70
0
0
VERTEX
8
Image
10
206.301334
20
184.878088
70
0
0
VERTEX
8
Image
10
205.895384
20
184.590055
70
0
0
VERTEX
8
Image
10
206.167455
20
183.890760
70
0
0
VERTEX
8
Image
10
206.317116
20
183.541066
70
0
0
VERTEX
8
Image
10
206.255085
20
183.511856
70
0
0
VERTEX
8
Image
10
205.944372
20
183.516228
70
0
0
VERTEX
8
Image
10
205.496182
20
183.247273
70
0
0
VERTEX
8
Image
10
205.140728
20
182.977554
70
0
0
VERTEX
8
Image
10
205.273985
20
183.204894
70
0
0
VERTEX
8
Image
10
205.445110
20
183.565980
70
0
0
VERTEX
8
Image
10
205.401725
20
183.842624
70
0
0
VERTEX
8
Image
10
205.360335
20
183.939630
70
0
0
VERTEX
8
Image
10
205.536292
20
183.868818
70
0
0
VERTEX
8
Image
10
205.769870
20
183.816707
70
0
0
VERTEX
8
Image
10
205.867021
20
183.958689
70
0
0
VERTEX
8
Image
10
205.794598
20
184.156579
70
0
0
VERTEX
8
Image
10
205.620456
20
184.238887
70
0
0
VERTEX
8
Image
10
204.808689
20
185.032636
70
0
0
VERTEX
8
Image
10
204.422454
20
185.683734
70
0
0
VERTEX
8
Image
10
204.472059
20
185.797696
70
0
0
VERTEX
8
Image
10
204.674016
20
185.826385
70
0
0
VERTEX
8
Image
10
204.937095
20
185.760114
70
0
0
VERTEX
8
Image
10
204.965084
20
185.600781
70
0
0
VERTEX
8
Image
10
204.980896
20
185.293986
70
0
0
VERTEX
8
Image
10
205.214692
20
184.873177
70
0
0
VERTEX
8
Image
10
205.528692
20
184.504669
70
0
0
VERTEX
8
Image
10
205.425855
20
184.877596
70
0
0
VERTEX
8
Image
10
205.366126
20
185.211107
70
0
0
VERTEX
8
Image
10
205.539203
20
185.204009
70
0
0
VERTEX
8
Image
10
205.793732
20
185.155867
70
0
0
VERTEX
8
Image
10
205.996667
20
185.292899
70
0
0
VERTEX
8
Image
10
206.309146
20
185.482808
70
0
0
VERTEX
8
Image
10
206.827087
20
185.561797
70
0
0
VERTEX
8
Image
10
207.340705
20
185.676114
70
0
0
VERTEX
8
Image
10
207.406788
20
186.130087
70
0
0
VERTEX
8
Image
10
207.193097
20
186.727662
70
0
0
VERTEX
8
Image
10
206.798958
20
187.026102
70
0
0
VERTEX
8
Image
10
206.263072
20
187.013512
70
0
0
VERTEX
8
Image
10
205.624134
20
186.677999
70
0
0
VERTEX
8
Image
10
204.742441
20
186.123610
70
0
0
VERTEX
8
Image
10
204.583778
20
186.116479
70
0
0
VERTEX
8
Image
10
204.642452
20
186.300621
70
0
0
VERTEX
8
Image
10
204.585447
20
186.459882
70
0
0
VERTEX
8
Image
10
204.266426
20
186.548369
70
0
0
VERTEX
8
Image
10
203.864892
20
186.503385
70
0
0
VERTEX
8
Image
10
203.609546
20
186.341740
70
0
0
VERTEX
8
Image
10
203.623344
20
186.215195
70
0
0
VERTEX
8
Image
10
203.868917
20
186.254592
70
0
0
VERTEX
8
Image
10
204.132045
20
186.302432
70
0
0
VERTEX
8
Image
10
204.257146
20
186.204385
70
0
0
VERTEX
8
Image
10
204.069947
20
185.641717
70
0
0
VERTEX
8
Image
10
203.790441
20
185.592079
70
0
0
VERTEX
8
Image
10
203.346392
20
186.106274
70
0
0
VERTEX
8
Image
10
202.843257
20
186.701365
70
0
0
VERTEX
8
Image
10
202.366694
20
187.034667
70
0
0
VERTEX
8
Image
10
202.089418
20
187.205439
70
0
0
VERTEX
8
Image
10
201.982804
20
187.454926
70
0
0
VERTEX
8
Image
10
202.050248
20
187.736902
70
0
0
VERTEX
8
Image
10
202.295151
20
188.005139
70
0
0
VERTEX
8
Image
10
202.405574
20
188.149122
70
0
0
VERTEX
8
Image
10
202.242155
20
188.203576
70
0
0
VERTEX
8
Image
10
201.938648
20
188.070383
70
0
0
VERTEX
8
Image
10
201.654886
20
187.744607
70
0
0
VERTEX
8
Image
10
201.422589
20
187.413877
70
0
0
VERTEX
8
Image
10
201.377180
20
187.744607
70
0
0
VERTEX
8
Image
10
201.320233
20
188.053584
70
0
0
VERTEX
8
Image
10
201.172346
20
188.188022
70
0
0
VERTEX
8
Image
10
200.658149
20
187.919991
70
0
0
VERTEX
8
Image
10
200.389974
20
187.774046
70
0
0
VERTEX
8
Image
10
200.167480
20
187.960872
70
0
0
VERTEX
8
Image
10
200.095229
20
188.154392
70
0
0
VERTEX
8
Image
10
200.251617
20
188.111901
70
0
0
VERTEX
8
Image
10
200.503266
20
188.065539
70
0
0
VERTEX
8
Image
10
200.705007
20
188.203312
70
0
0
VERTEX
8
Image
10
200.701246
20
188.393226
70
0
0
VERTEX
8
Image
10
200.458706
20
188.472215
70
0
0
VERTEX
8
Image
10
200.167371
20
188.552671
70
0
0
VERTEX
8
Image
10
200.046195
20
188.746106
70
0
0
VERTEX
8
Image
10
200.169798
20
188.887707
70
0
0
VERTEX
8
Image
10
200.557978
20
188.746106
70
0
0
VERTEX
8
Image
10
201.261388
20
188.484489
70
0
0
VERTEX
8
Image
10
200.956678
20
188.860676
70
0
0
VERTEX
8
Image
10
200.400730
20
189.185386
70
0
0
VERTEX
8
Image
10
199.967895
20
189.256795
70
0
0
VERTEX
8
Image
10
199.710166
20
189.082638
70
0
0
VERTEX
8
Image
10
199.679536
20
188.670653
70
0
0
VERTEX
8
Image
10
199.738488
20
188.250632
70
0
0
VERTEX
8
Image
10
199.559098
20
188.604507
70
0
0
VERTEX
8
Image
10
199.449666
20
189.464402
70
0
0
VERTEX
8
Image
10
199.407753
20
189.697979
70
0
0
VERTEX
8
Image
10
199.132855
20
189.795130
70
0
0
VERTEX
8
Image
10
198.869026
20
189.718299
70
0
0
VERTEX
8
Image
10
198.853720
20
189.533577
70
0
0
VERTEX
8
Image
10
198.850965
20
189.391677
70
0
0
VERTEX
8
Image
10
198.596968
20
189.432578
70
0
0
VERTEX
8
Image
10
198.327742
20
189.624538
70
0
0
VERTEX
8
Image
10
198.649382
20
189.940902
70
0
0
VERTEX
8
Image
10
198.960237
20
190.286187
70
0
0
VERTEX
8
Image
10
198.789426
20
190.623984
70
0
0
VERTEX
8
Image
10
198.458707
20
190.826574
70
0
0
VERTEX
8
Image
10
198.127968
20
190.626101
70
0
0
VERTEX
8
Image
10
197.955464
20
190.394473
70
0
0
VERTEX
8
Image
10
198.260260
20
190.469201
70
0
0
VERTEX
8
Image
10
198.600851
20
190.509761
70
0
0
VERTEX
8
Image
10
198.723280
20
190.308488
70
0
0
VERTEX
8
Image
10
198.672143
20
190.121630
70
0
0
VERTEX
8
Image
10
198.549211
20
190.145594
70
0
0
VERTEX
8
Image
10
198.325079
20
190.184581
70
0
0
VERTEX
8
Image
10
198.030681
20
190.033845
70
0
0
VERTEX
8
Image
10
197.780425
20
189.923258
70
0
0
VERTEX
8
Image
10
197.792900
20
190.301719
70
0
0
VERTEX
8
Image
10
198.066506
20
191.125578
70
0
0
VERTEX
8
Image
10
198.120348
20
191.305237
70
0
0
VERTEX
8
Image
10
198.015362
20
191.357834
70
0
0
VERTEX
8
Image
10
197.145661
20
191.394891
70
0
0
VERTEX
8
Image
10
196.980669
20
191.594980
70
0
0
VERTEX
8
Image
10
197.003491
20
191.911776
70
0
0
VERTEX
8
Image
10
197.042606
20
192.294626
70
0
0
VERTEX
8
Image
10
196.873422
20
192.440942
70
0
0
VERTEX
8
Image
10
196.710974
20
192.363221
70
0
0
VERTEX
8
Image
10
196.738908
20
192.176359
70
0
0
VERTEX
8
Image
10
196.767516
20
191.989497
70
0
0
VERTEX
8
Image
10
196.606616
20
191.911776
70
0
0
VERTEX
8
Image
10
196.445561
20
191.834347
70
0
0
VERTEX
8
Image
10
196.473716
20
191.648188
70
0
0
VERTEX
8
Image
10
196.743088
20
190.814429
70
0
0
VERTEX
8
Image
10
196.761140
20
190.483282
70
0
0
VERTEX
8
Image
10
196.664480
20
190.442819
70
0
0
VERTEX
8
Image
10
196.482388
20
190.733641
70
0
0
VERTEX
8
Image
10
196.375106
20
191.398226
70
0
0
VERTEX
8
Image
10
196.279373
20
191.551400
70
0
0
VERTEX
8
Image
10
196.095733
20
191.526202
70
0
0
VERTEX
8
Image
10
195.865546
20
191.509687
70
0
0
VERTEX
8
Image
10
195.657980
20
191.683758
70
0
0
VERTEX
8
Image
10
195.598611
20
191.861019
70
0
0
VERTEX
8
Image
10
195.771989
20
191.804749
70
0
0
VERTEX
8
Image
10
195.987723
20
191.762792
70
0
0
VERTEX
8
Image
10
196.077450
20
191.927018
70
0
0
VERTEX
8
Image
10
195.928252
20
192.111308
70
0
0
VERTEX
8
Image
10
195.548549
20
192.099765
70
0
0
VERTEX
8
Image
10
195.128226
20
192.077808
70
0
0
VERTEX
8
Image
10
194.860342
20
192.219235
70
0
0
VERTEX
8
Image
10
194.635066
20
192.358025
70
0
0
VERTEX
8
Image
10
194.317179
20
192.329719
70
0
0
VERTEX
8
Image
10
194.090237
20
192.297150
70
0
0
VERTEX
8
Image
10
194.083658
20
192.425691
70
0
0
VERTEX
8
Image
10
194.109594
20
192.647101
70
0
0
VERTEX
8
Image
10
193.960786
20
192.837816
70
0
0
VERTEX
8
Image
10
193.788300
20
193.045243
70
0
0
VERTEX
8
Image
10
193.843573
20
193.241203
70
0
0
VERTEX
8
Image
10
194.064337
20
193.355666
70
0
0
VERTEX
8
Image
10
194.388326
20
193.318606
70
0
0
VERTEX
8
Image
10
194.648583
20
193.148025
70
0
0
VERTEX
8
Image
10
194.446005
20
192.937339
70
0
0
VERTEX
8
Image
10
194.256236
20
192.767275
70
0
0
VERTEX
8
Image
10
194.408196
20
192.709576
70
0
0
VERTEX
8
Image
10
194.721623
20
192.789865
70
0
0
VERTEX
8
Image
10
194.883318
20
192.985812
70
0
0
VERTEX
8
Image
10
194.865540
20
193.215392
70
0
0
VERTEX
8
Image
10
194.640553
20
193.396576
70
0
0
VERTEX
8
Image
10
194.391934
20
193.576953
70
0
0
VERTEX
8
Image
10
194.372927
20
193.788550
70
0
0
VERTEX
8
Image
10
194.334940
20
193.901169
70
0
0
VERTEX
8
Image
10
194.040690
20
193.843578
70
0
0
VERTEX
8
Image
10
193.702123
20
193.775770
70
0
0
VERTEX
8
Image
10
193.948033
20
194.177339
70
0
0
VERTEX
8
Image
10
194.189293
20
194.530484
70
0
0
VERTEX
8
Image
10
193.954383
20
194.352276
70
0
0
VERTEX
8
Image
10
193.567070
20
194.187350
70
0
0
VERTEX
8
Image
10
193.148860
20
194.581746
70
0
0
VERTEX
8
Image
10
192.685883
20
194.979964
70
0
0
VERTEX
8
Image
10
192.136407
20
194.963262
70
0
0
VERTEX
8
Image
10
191.740928
20
194.744069
70
0
0
VERTEX
8
Image
10
191.833486
20
194.438168
70
0
0
VERTEX
8
Image
10
191.962073
20
194.102364
70
0
0
VERTEX
8
Image
10
191.725774
20
193.775409
70
0
0
VERTEX
8
Image
10
191.429243
20
193.616353
70
0
0
VERTEX
8
Image
10
191.442750
20
194.004887
70
0
0
VERTEX
8
Image
10
191.419566
20
194.419620
70
0
0
VERTEX
8
Image
10
191.167504
20
194.590679
70
0
0
VERTEX
8
Image
10
190.316856
20
194.729007
70
0
0
VERTEX
8
Image
10
190.190709
20
194.850641
70
0
0
VERTEX
8
Image
10
190.192965
20
195.040015
70
0
0
VERTEX
8
Image
10
190.124111
20
195.315310
70
0
0
VERTEX
8
Image
10
189.862237
20
195.519315
70
0
0
VERTEX
8
Image
10
189.556676
20
195.707264
70
0
0
VERTEX
8
Image
10
189.472350
20
195.898397
70
0
0
VERTEX
8
Image
10
189.598889
20
196.016719
70
0
0
VERTEX
8
Image
10
189.925922
20
195.986235
70
0
0
VERTEX
8
Image
10
190.078616
20
195.990902
70
0
0
VERTEX
8
Image
10
189.785322
20
196.206725
70
0
0
VERTEX
8
Image
10
189.419761
20
196.527699
70
0
0
VERTEX
8
Image
10
189.388448
20
196.790004
70
0
0
VERTEX
8
Image
10
189.369815
20
196.860237
70
0
0
VERTEX
8
Image
10
189.034674
20
196.719418
70
0
0
VERTEX
8
Image
10
188.577256
20
196.569375
70
0
0
VERTEX
8
Image
10
188.264658
20
196.617432
70
0
0
VERTEX
8
Image
10
188.180478
20
196.634421
70
0
0
VERTEX
8
Image
10
188.272331
20
196.409687
70
0
0
VERTEX
8
Image
10
188.361995
20
196.187011
70
0
0
VERTEX
8
Image
10
188.272331
20
196.208953
70
0
0
VERTEX
8
Image
10
188.000194
20
196.251001
70
0
0
VERTEX
8
Image
10
187.649952
20
196.076661
70
0
0
VERTEX
8
Image
10
187.365473
20
195.883394
70
0
0
VERTEX
8
Image
10
187.470565
20
196.123921
70
0
0
VERTEX
8
Image
10
187.556194
20
196.379355
70
0
0
VERTEX
8
Image
10
187.309143
20
196.350756
70
0
0
VERTEX
8
Image
10
186.868655
20
196.418633
70
0
0
VERTEX
8
Image
10
186.354369
20
196.790861
70
0
0
VERTEX
8
Image
10
186.005638
20
197.243912
70
0
0
VERTEX
8
Image
10
186.165880
20
197.379825
70
0
0
VERTEX
8
Image
10
186.479619
20
197.233243
70
0
0
VERTEX
8
Image
10
186.702613
20
196.880824
70
0
0
VERTEX
8
Image
10
186.902062
20
196.551784
70
0
0
VERTEX
8
Image
10
187.209898
20
196.671383
70
0
0
VERTEX
8
Image
10
187.504961
20
196.822000
70
0
0
VERTEX
8
Image
10
187.668262
20
196.632545
70
0
0
VERTEX
8
Image
10
187.791531
20
196.491218
70
0
0
VERTEX
8
Image
10
187.943296
20
196.735664
70
0
0
VERTEX
8
Image
10
187.960460
20
197.050582
70
0
0
VERTEX
8
Image
10
187.600555
20
197.069276
70
0
0
VERTEX
8
Image
10
187.196457
20
197.073077
70
0
0
VERTEX
8
Image
10
186.938727
20
197.219700
70
0
0
VERTEX
8
Image
10
186.915558
20
197.377771
70
0
0
VERTEX
8
Image
10
187.070244
20
197.477069
70
0
0
VERTEX
8
Image
10
187.874821
20
197.488334
70
0
0
VERTEX
8
Image
10
188.134754
20
197.498649
70
0
0
VERTEX
8
Image
10
187.887521
20
197.704112
70
0
0
VERTEX
8
Image
10
187.314805
20
197.845788
70
0
0
VERTEX
8
Image
10
187.142337
20
197.861157
70
0
0
VERTEX
8
Image
10
186.992331
20
198.061682
70
0
0
VERTEX
8
Image
10
186.890381
20
198.140981
70
0
0
VERTEX
8
Image
10
186.833396
20
197.864893
70
0
0
VERTEX
8
Image
10
186.764992
20
197.509753
70
0
0
VERTEX
8
Image
10
186.551986
20
197.732602
70
0
0
VERTEX
8
Image
10
186.369648
20
197.926520
70
0
0
VERTEX
8
Image
10
186.291451
20
197.835437
70
0
0
VERTEX
8
Image
10
186.084316
20
197.656519
70
0
0
VERTEX
8
Image
10
185.559800
20
197.657714
70
0
0
VERTEX
8
Image
10
185.064831
20
197.691779
70
0
0
VERTEX
8
Image
10
185.229071
20
197.492784
70
0
0
VERTEX
8
Image
10
185.474306
20
197.260418
70
0
0
VERTEX
8
Image
10
185.162925
20
197.207487
70
0
0
VERTEX
8
Image
10
184.835987
20
197.282398
70
0
0
VERTEX
8
Image
10
184.699984
20
197.468037
70
0
0
VERTEX
8
Image
10
184.544542
20
197.654899
70
0
0
VERTEX
8
Image
10
184.170818
20
197.732620
70
0
0
VERTEX
8
Image
10
183.797095
20
197.620626
70
0
0
VERTEX
8
Image
10
183.641652
20
197.351362
70
0
0
VERTEX
8
Image
10
183.401755
20
196.821830
70
0
0
VERTEX
8
Image
10
183.273640
20
196.875124
70
0
0
VERTEX
8
Image
10
183.302510
20
197.211469
70
0
0
VERTEX
8
Image
10
183.523174
20
197.638905
70
0
0
VERTEX
8
Image
10
183.878371
20
197.967821
70
0
0
VERTEX
8
Image
10
184.263845
20
198.129205
70
0
0
VERTEX
8
Image
10
184.575339
20
198.054041
70
0
0
VERTEX
8
Image
10
184.671485
20
198.010982
70
0
0
VERTEX
8
Image
10
184.608465
20
198.173043
70
0
0
VERTEX
8
Image
10
184.581554
20
198.430022
70
0
0
VERTEX
8
Image
10
184.764490
20
198.615174
70
0
0
VERTEX
8
Image
10
184.946910
20
198.722980
70
0
0
VERTEX
8
Image
10
184.781687
20
198.770064
70
0
0
VERTEX
8
Image
10
184.303057
20
198.526369
70
0
0
VERTEX
8
Image
10
184.087187
20
198.300272
70
0
0
VERTEX
8
Image
10
183.892513
20
198.274010
70
0
0
VERTEX
8
Image
10
183.779134
20
198.423537
70
0
0
VERTEX
8
Image
10
183.807149
20
198.724807
70
0
0
VERTEX
8
Image
10
183.874307
20
199.023229
70
0
0
VERTEX
8
Image
10
183.684012
20
198.803586
70
0
0
VERTEX
8
Image
10
183.542381
20
198.208274
70
0
0
VERTEX
8
Image
10
183.552157
20
198.059206
70
0
0
VERTEX
8
Image
10
183.392627
20
197.997203
70
0
0
VERTEX
8
Image
10
183.194745
20
197.880621
70
0
0
VERTEX
8
Image
10
183.112433
20
197.600329
70
0
0
VERTEX
8
Image
10
183.031980
20
197.320036
70
0
0
VERTEX
8
Image
10
182.838537
20
197.203454
70
0
0
VERTEX
8
Image
10
182.697144
20
197.081812
70
0
0
VERTEX
8
Image
10
182.829277
20
196.709076
70
0
0
VERTEX
8
Image
10
182.960589
20
196.292240
70
0
0
VERTEX
8
Image
10
182.904736
20
195.984293
70
0
0
VERTEX
8
Image
10
182.939859
20
195.963200
70
0
0
VERTEX
8
Image
10
183.289863
20
196.236038
70
0
0
VERTEX
8
Image
10
183.828838
20
196.574855
70
0
0
VERTEX
8
Image
10
184.176163
20
196.135145
70
0
0
VERTEX
8
Image
10
184.339156
20
195.740659
70
0
0
VERTEX
8
Image
10
184.197329
20
195.731934
70
0
0
VERTEX
8
Image
10
183.993744
20
195.799492
70
0
0
VERTEX
8
Image
10
183.920576
20
195.692479
70
0
0
VERTEX
8
Image
10
184.170871
20
195.086790
70
0
0
VERTEX
8
Image
10
184.364232
20
194.871817
70
0
0
VERTEX
8
Image
10
184.431406
20
195.020645
70
0
0
VERTEX
8
Image
10
184.516724
20
195.254222
70
0
0
VERTEX
8
Image
10
184.715648
20
195.351373
70
0
0
VERTEX
8
Image
10
184.855347
20
195.255927
70
0
0
VERTEX
8
Image
10
184.789228
20
195.020645
70
0
0
VERTEX
8
Image
10
184.523428
20
194.297844
70
0
0
VERTEX
8
Image
10
184.187381
20
193.813479
70
0
0
VERTEX
8
Image
10
184.054207
20
193.602678
70
0
0
VERTEX
8
Image
10
184.217676
20
193.147220
70
0
0
VERTEX
8
Image
10
184.460298
20
192.447575
70
0
0
VERTEX
8
Image
10
184.746339
20
192.228995
70
0
0
VERTEX
8
Image
10
184.931435
20
192.219880
70
0
0
VERTEX
8
Image
10
184.832329
20
192.354672
70
0
0
VERTEX
8
Image
10
184.508499
20
192.912742
70
0
0
VERTEX
8
Image
10
184.545946
20
193.141473
70
0
0
VERTEX
8
Image
10
184.728348
20
193.234709
70
0
0
VERTEX
8
Image
10
184.893375
20
193.343737
70
0
0
VERTEX
8
Image
10
184.878816
20
193.605866
70
0
0
VERTEX
8
Image
10
184.893755
20
194.011563
70
0
0
VERTEX
8
Image
10
185.129693
20
194.465761
70
0
0
VERTEX
8
Image
10
185.429119
20
194.806358
70
0
0
VERTEX
8
Image
10
185.262276
20
194.411077
70
0
0
VERTEX
8
Image
10
185.147817
20
193.946397
70
0
0
VERTEX
8
Image
10
185.217661
20
193.545581
70
0
0
VERTEX
8
Image
10
185.426441
20
193.311924
70
0
0
VERTEX
8
Image
10
185.728789
20
193.348718
70
0
0
VERTEX
8
Image
10
186.022528
20
193.465650
70
0
0
VERTEX
8
Image
10
185.989773
20
193.265165
70
0
0
VERTEX
8
Image
10
185.011875
20
192.034905
70
0
0
VERTEX
8
Image
10
184.829345
20
191.748211
70
0
0
VERTEX
8
Image
10
184.954037
20
191.647211
70
0
0
VERTEX
8
Image
10
185.207342
20
191.770310
70
0
0
VERTEX
8
Image
10
185.406632
20
192.066271
70
0
0
VERTEX
8
Image
10
185.585362
20
192.334745
70
0
0
VERTEX
8
Image
10
185.820149
20
192.132417
70
0
0
VERTEX
8
Image
10
185.988646
20
191.949584
70
0
0
VERTEX
8
Image
10
185.932332
20
192.220626
70
0
0
VERTEX
8
Image
10
185.940849
20
192.573505
70
0
0
VERTEX
8
Image
10
186.158498
20
192.802463
70
0
0
VERTEX
8
Image
10
186.392535
20
192.811237
70
0
0
VERTEX
8
Image
10
186.386145
20
192.580856
70
0
0
VERTEX
8
Image
10
186.436436
20
192.320106
70
0
0
VERTEX
8
Image
10
186.921423
20
192.292556
70
0
0
VERTEX
8
Image
10
187.353084
20
192.272737
70
0
0
VERTEX
8
Image
10
187.444027
20
192.121146
70
0
0
VERTEX
8
Image
10
187.234620
20
191.987065
70
0
0
VERTEX
8
Image
10
186.944151
20
192.009341
70
0
0
VERTEX
8
Image
10
186.677909
20
191.971171
70
0
0
VERTEX
8
Image
10
186.449913
20
191.737722
70
0
0
VERTEX
8
Image
10
186.336401
20
191.429840
70
0
0
VERTEX
8
Image
10
186.413609
20
191.168372
70
0
0
VERTEX
8
Image
10
186.512632
20
191.180647
70
0
0
VERTEX
8
Image
10
186.556193
20
191.404676
70
0
0
VERTEX
8
Image
10
186.608550
20
191.631932
70
0
0
VERTEX
8
Image
10
186.816701
20
191.382636
70
0
0
VERTEX
8
Image
10
187.021323
20
191.141908
70
0
0
VERTEX
8
Image
10
187.077236
20
191.348886
70
0
0
VERTEX
8
Image
10
187.161873
20
191.579720
70
0
0
VERTEX
8
Image
10
187.527715
20
191.348886
70
0
0
VERTEX
8
Image
10
187.868881
20
191.135075
70
0
0
VERTEX
8
Image
10
187.791637
20
191.514928
70
0
0
VERTEX
8
Image
10
187.609154
20
192.044094
70
0
0
VERTEX
8
Image
10
188.018067
20
191.514928
70
0
0
VERTEX
8
Image
10
188.547894
20
191.051908
70
0
0
VERTEX
8
Image
10
188.974944
20
191.108632
70
0
0
VERTEX
8
Image
10
189.099324
20
191.026285
70
0
0
VERTEX
8
Image
10
189.089575
20
190.892160
70
0
0
VERTEX
8
Image
10
189.192875
20
190.629559
70
0
0
VERTEX
8
Image
10
189.629493
20
190.363406
70
0
0
VERTEX
8
Image
10
190.169154
20
190.195974
70
0
0
VERTEX
8
Image
10
190.581585
20
190.229531
70
0
0
VERTEX
8
Image
10
190.734769
20
190.273923
70
0
0
VERTEX
8
Image
10
190.692392
20
190.123200
70
0
0
VERTEX
8
Image
10
190.666605
20
189.878644
70
0
0
VERTEX
8
Image
10
190.849951
20
189.687887
70
0
0
VERTEX
8
Image
10
190.926475
20
189.618317
70
0
0
VERTEX
8
Image
10
190.643709
20
189.665133
70
0
0
VERTEX
8
Image
10
190.223829
20
189.652808
70
0
0
VERTEX
8
Image
10
190.105097
20
189.280471
70
0
0
VERTEX
8
Image
10
190.178427
20
188.941778
70
0
0
VERTEX
8
Image
10
190.433683
20
189.038833
70
0
0
VERTEX
8
Image
10
190.729235
20
189.175989
70
0
0
VERTEX
8
Image
10
191.014562
20
189.139947
70
0
0
VERTEX
8
Image
10
191.228670
20
188.957403
70
0
0
VERTEX
8
Image
10
191.310564
20
188.655053
70
0
0
VERTEX
8
Image
10
191.264755
20
188.475372
70
0
0
VERTEX
8
Image
10
191.110460
20
188.648121
70
0
0
VERTEX
8
Image
10
190.857538
20
188.816429
70
0
0
VERTEX
8
Image
10
190.457178
20
188.621953
70
0
0
VERTEX
8
Image
10
190.184853
20
188.335222
70
0
0
VERTEX
8
Image
10
190.172222
20
188.115341
70
0
0
VERTEX
8
Image
10
190.583047
20
187.949330
70
0
0
VERTEX
8
Image
10
190.692629
20
188.031578
70
0
0
VERTEX
8
Image
10
190.653155
20
188.207648
70
0
0
VERTEX
8
Image
10
190.619986
20
188.394510
70
0
0
VERTEX
8
Image
10
190.769836
20
188.472231
70
0
0
VERTEX
8
Image
10
190.968921
20
188.375080
70
0
0
VERTEX
8
Image
10
191.054104
20
188.141502
70
0
0
VERTEX
8
Image
10
191.100359
20
187.949191
70
0
0
VERTEX
8
Image
10
191.259526
20
188.127532
70
0
0
VERTEX
8
Image
10
191.508522
20
188.301954
70
0
0
VERTEX
8
Image
10
191.850763
20
188.197732
70
0
0
VERTEX
8
Image
10
192.105877
20
187.992022
70
0
0
VERTEX
8
Image
10
191.843884
20
187.943063
70
0
0
VERTEX
8
Image
10
191.583891
20
187.893788
70
0
0
VERTEX
8
Image
10
191.831184
20
187.691886
70
0
0
VERTEX
8
Image
10
192.198925
20
187.545005
70
0
0
VERTEX
8
Image
10
192.435161
20
187.602270
70
0
0
VERTEX
8
Image
10
192.491534
20
187.818484
70
0
0
VERTEX
8
Image
10
192.319684
20
188.148448
70
0
0
VERTEX
8
Image
10
192.128790
20
188.465412
70
0
0
VERTEX
8
Image
10
192.505289
20
188.388827
70
0
0
VERTEX
8
Image
10
192.898072
20
188.282205
70
0
0
VERTEX
8
Image
10
192.520899
20
188.603872
70
0
0
VERTEX
8
Image
10
192.241218
20
188.884611
70
0
0
VERTEX
8
Image
10
192.290050
20
189.001381
70
0
0
VERTEX
8
Image
10
192.615128
20
188.887524
70
0
0
VERTEX
8
Image
10
192.886496
20
188.605459
70
0
0
VERTEX
8
Image
10
193.044552
20
188.244446
70
0
0
VERTEX
8
Image
10
193.029692
20
187.893744
70
0
0
VERTEX
8
Image
10
193.084636
20
187.481540
70
0
0
VERTEX
8
Image
10
193.422016
20
187.025454
70
0
0
VERTEX
8
Image
10
193.803515
20
186.751612
70
0
0
VERTEX
8
Image
10
193.964570
20
186.777564
70
0
0
VERTEX
8
Image
10
194.038190
20
186.835089
70
0
0
VERTEX
8
Image
10
194.208965
20
186.637147
70
0
0
VERTEX
8
Image
10
194.474008
20
186.406317
70
0
0
VERTEX
8
Image
10
194.800229
20
186.545186
70
0
0
VERTEX
8
Image
10
195.812576
20
186.925048
70
0
0
VERTEX
8
Image
10
196.606325
20
187.186167
70
0
0
VERTEX
8
Image
10
196.813798
20
187.182861
70
0
0
VERTEX
8
Image
10
197.126839
20
186.937364
70
0
0
VERTEX
8
Image
10
197.370728
20
186.619677
70
0
0
VERTEX
8
Image
10
197.038574
20
186.702242
70
0
0
VERTEX
8
Image
10
196.707462
20
186.758079
70
0
0
VERTEX
8
Image
10
196.673609
20
186.554169
70
0
0
VERTEX
8
Image
10
196.628927
20
186.223123
70
0
0
VERTEX
8
Image
10
196.364972
20
185.891883
70
0
0
VERTEX
8
Image
10
196.108711
20
185.648384
70
0
0
VERTEX
8
Image
10
196.474034
20
185.738308
70
0
0
VERTEX
8
Image
10
196.868732
20
185.818258
70
0
0
VERTEX
8
Image
10
196.499169
20
185.342085
70
0
0
VERTEX
8
Image
10
196.214286
20
184.936674
70
0
0
VERTEX
8
Image
10
196.237099
20
184.768053
70
0
0
VERTEX
8
Image
10
196.825506
20
185.322842
70
0
0
VERTEX
8
Image
10
197.173317
20
185.732694
70
0
0
VERTEX
8
Image
10
197.528053
20
185.390662
70
0
0
VERTEX
8
Image
10
197.738085
20
184.967661
70
0
0
VERTEX
8
Image
10
197.575969
20
184.707636
70
0
0
VERTEX
8
Image
10
197.401748
20
184.553057
70
0
0
VERTEX
8
Image
10
197.579673
20
184.507521
70
0
0
VERTEX
8
Image
10
198.288385
20
184.900345
70
0
0
VERTEX
8
Image
10
199.034879
20
185.301270
70
0
0
VERTEX
8
Image
10
199.218014
20
185.361620
70
0
0
VERTEX
8
Image
10
198.987625
20
185.561802
70
0
0
VERTEX
8
Image
10
198.786320
20
185.748947
70
0
0
VERTEX
8
Image
10
198.905869
20
185.822335
70
0
0
VERTEX
8
Image
10
199.384499
20
185.561802
70
0
0
VERTEX
8
Image
10
199.829396
20
185.297219
70
0
0
VERTEX
8
Image
10
199.932494
20
185.425291
70
0
0
VERTEX
8
Image
10
199.747640
20
185.760240
70
0
0
VERTEX
8
Image
10
199.516507
20
186.090475
70
0
0
VERTEX
8
Image
10
199.819686
20
185.883247
70
0
0
VERTEX
8
Image
10
200.481143
20
185.618664
70
0
0
VERTEX
8
Image
10
200.839706
20
185.458991
70
0
0
VERTEX
8
Image
10
200.783482
20
185.312798
70
0
0
VERTEX
8
Image
10
200.456947
20
185.179558
70
0
0
VERTEX
8
Image
10
199.065412
20
184.971833
70
0
0
VERTEX
8
Image
10
198.878246
20
184.890694
70
0
0
VERTEX
8
Image
10
198.876341
20
184.734065
70
0
0
VERTEX
8
Image
10
199.156975
20
184.657270
70
0
0
VERTEX
8
Image
10
199.649082
20
184.768053
70
0
0
VERTEX
8
Image
10
200.169792
20
184.879779
70
0
0
VERTEX
8
Image
10
200.459738
20
184.740709
70
0
0
VERTEX
8
Image
10
200.729011
20
184.669313
70
0
0
VERTEX
8
Image
10
201.176044
20
184.949256
70
0
0
VERTEX
8
Image
10
201.506525
20
185.191285
70
0
0
VERTEX
8
Image
10
201.531035
20
185.098782
70
0
0
VERTEX
8
Image
10
201.479828
20
184.865205
70
0
0
VERTEX
8
Image
10
201.628269
20
184.768053
70
0
0
VERTEX
8
Image
10
201.755415
20
184.672640
70
0
0
VERTEX
8
Image
10
201.577760
20
184.399357
70
0
0
VERTEX
8
Image
10
201.203379
20
184.176397
70
0
0
VERTEX
8
Image
10
200.752896
20
184.287441
70
0
0
VERTEX
8
Image
10
200.315300
20
184.425444
70
0
0
VERTEX
8
Image
10
199.917796
20
184.394624
70
0
0
VERTEX
8
Image
10
199.634041
20
184.217468
70
0
0
VERTEX
8
Image
10
199.537693
20
183.916461
70
0
0
VERTEX
8
Image
10
199.585397
20
183.730673
70
0
0
VERTEX
8
Image
10
199.701999
20
183.938104
70
0
0
VERTEX
8
Image
10
199.861037
20
184.166480
70
0
0
VERTEX
8
Image
10
200.073950
20
183.938104
70
0
0
VERTEX
8
Image
10
200.248929
20
183.740283
70
0
0
VERTEX
8
Image
10
200.306492
20
183.899864
70
0
0
VERTEX
8
Image
10
200.425644
20
184.083010
70
0
0
VERTEX
8
Image
10
200.705906
20
184.070576
70
0
0
VERTEX
8
Image
10
200.933349
20
183.874421
70
0
0
VERTEX
8
Image
10
200.925008
20
183.615861
70
0
0
VERTEX
8
Image
10
200.969801
20
183.550352
70
0
0
VERTEX
8
Image
10
201.325031
20
183.818351
70
0
0
VERTEX
8
Image
10
201.783348
20
184.124019
70
0
0
VERTEX
8
Image
10
202.076049
20
184.149080
70
0
0
VERTEX
8
Image
10
202.117123
20
184.025650
70
0
0
VERTEX
8
Image
10
201.970454
20
183.974312
70
0
0
VERTEX
8
Image
10
201.723489
20
183.846737
70
0
0
VERTEX
8
Image
10
201.523415
20
183.540015
70
0
0
VERTEX
8
Image
10
201.462832
20
183.248276
70
0
0
VERTEX
8
Image
10
201.765746
20
183.445146
70
0
0
VERTEX
8
Image
10
202.068681
20
183.642017
70
0
0
VERTEX
8
Image
10
202.008078
20
183.350277
70
0
0
VERTEX
8
Image
10
201.975379
20
183.042570
70
0
0
VERTEX
8
Image
10
202.134311
20
182.915980
70
0
0
VERTEX
8
Image
10
202.424303
20
183.152070
70
0
0
VERTEX
8
Image
10
202.464166
20
183.759008
70
0
0
VERTEX
8
Image
10
202.604719
20
183.875290
70
0
0
VERTEX
8
Image
10
202.978595
20
183.899890
70
0
0
VERTEX
8
Image
10
203.374097
20
183.811793
70
0
0
VERTEX
8
Image
10
203.039132
20
183.484289
70
0
0
VERTEX
8
Image
10
202.717250
20
183.199088
70
0
0
VERTEX
8
Image
10
203.013996
20
183.265703
70
0
0
VERTEX
8
Image
10
203.380953
20
183.301787
70
0
0
VERTEX
8
Image
10
203.624918
20
183.169009
70
0
0
VERTEX
8
Image
10
203.572898
20
182.990308
70
0
0
VERTEX
8
Image
10
203.228203
20
182.915980
70
0
0
VERTEX
8
Image
10
202.795468
20
182.804126
70
0
0
VERTEX
8
Image
10
202.540832
20
182.517931
70
0
0
VERTEX
8
Image
10
202.497141
20
182.131447
70
0
0
VERTEX
8
Image
10
202.697237
20
181.718724
70
0
0
VERTEX
8
Image
10
203.034746
20
181.470475
70
0
0
VERTEX
8
Image
10
203.394678
20
181.627506
70
0
0
VERTEX
8
Image
10
203.613700
20
181.884311
70
0
0
VERTEX
8
Image
10
203.623251
20
182.072667
70
0
0
VERTEX
8
Image
10
203.874579
20
182.808949
70
0
0
VERTEX
8
Image
10
204.088454
20
183.280116
70
0
0
VERTEX
8
Image
10
204.001182
20
183.537830
70
0
0
VERTEX
8
Image
10
203.913588
20
183.611126
70
0
0
VERTEX
8
Image
10
204.074180
20
183.601692
70
0
0
VERTEX
8
Image
10
204.322154
20
183.462743
70
0
0
VERTEX
8
Image
10
204.444596
20
183.224661
70
0
0
VERTEX
8
Image
10
204.510742
20
182.635782
70
0
0
VERTEX
8
Image
10
204.604835
20
182.481592
70
0
0
VERTEX
8
Image
10
204.784533
20
182.504350
70
0
0
VERTEX
8
Image
10
205.452737
20
182.489057
70
0
0
VERTEX
8
Image
10
205.726931
20
182.282676
70
0
0
VERTEX
8
Image
10
205.576509
20
181.959034
70
0
0
VERTEX
8
Image
10
205.400604
20
181.709107
70
0
0
VERTEX
8
Image
10
205.438969
20
181.613083
70
0
0
VERTEX
8
Image
10
206.285777
20
181.866067
70
0
0
VERTEX
8
Image
10
206.834790
20
182.026001
70
0
0
VERTEX
8
Image
10
206.633730
20
181.684238
70
0
0
VERTEX
8
Image
10
206.405877
20
181.335848
70
0
0
VERTEX
8
Image
10
206.740357
20
181.408196
70
0
0
VERTEX
8
Image
10
207.053448
20
181.468203
70
0
0
VERTEX
8
Image
10
207.029731
20
181.283765
70
0
0
VERTEX
8
Image
10
207.024525
20
181.090947
70
0
0
VERTEX
8
Image
10
207.393056
20
181.124558
70
0
0
VERTEX
8
Image
10
207.784580
20
181.150937
70
0
0
VERTEX
8
Image
10
207.803001
20
180.901654
70
0
0
VERTEX
8
Image
10
207.789597
20
180.642511
70
0
0
VERTEX
8
Image
10
207.955084
20
180.534725
70
0
0
VERTEX
8
Image
10
208.161945
20
180.459443
70
0
0
VERTEX
8
Image
10
208.247977
20
180.278445
70
0
0
VERTEX
8
Image
10
208.111965
20
180.148952
70
0
0
VERTEX
8
Image
10
207.784957
20
180.197496
70
0
0
VERTEX
8
Image
10
207.489189
20
180.254313
70
0
0
VERTEX
8
Image
10
207.832211
20
179.858464
70
0
0
VERTEX
8
Image
10
208.493669
20
179.340051
70
0
0
VERTEX
8
Image
10
209.041726
20
179.090824
70
0
0
VERTEX
8
Image
10
209.303319
20
178.967923
70
0
0
VERTEX
8
Image
10
209.095013
20
179.269757
70
0
0
VERTEX
8
Image
10
208.917458
20
179.618376
70
0
0
VERTEX
8
Image
10
209.001165
20
179.848193
70
0
0
VERTEX
8
Image
10
209.222076
20
179.841055
70
0
0
VERTEX
8
Image
10
209.402564
20
179.607166
70
0
0
VERTEX
8
Image
10
209.638262
20
179.327946
70
0
0
VERTEX
8
Image
10
209.991870
20
179.211810
70
0
0
VERTEX
8
Image
10
210.288937
20
179.130564
70
0
0
VERTEX
8
Image
10
210.066297
20
178.748790
70
0
0
VERTEX
8
Image
10
209.835472
20
178.418060
70
0
0
VERTEX
8
Image
10
210.166204
20
178.648894
70
0
0
VERTEX
8
Image
10
210.516955
20
178.849708
70
0
0
VERTEX
8
Image
10
210.629224
20
178.705732
70
0
0
VERTEX
8
Image
10
210.762326
20
178.541109
70
0
0
VERTEX
8
Image
10
211.224536
20
178.726766
70
0
0
VERTEX
8
Image
10
212.198823
20
179.090163
70
0
0
VERTEX
8
Image
10
212.557461
20
179.013766
70
0
0
VERTEX
8
Image
10
212.928874
20
178.767668
70
0
0
VERTEX
8
Image
10
213.249502
20
178.465570
70
0
0
VERTEX
8
Image
10
212.957793
20
178.515290
70
0
0
VERTEX
8
Image
10
212.654587
20
178.532757
70
0
0
VERTEX
8
Image
10
212.642648
20
178.305481
70
0
0
VERTEX
8
Image
10
212.590280
20
178.051284
70
0
0
VERTEX
8
Image
10
212.166160
20
177.988228
70
0
0
VERTEX
8
Image
10
211.717738
20
177.906868
70
0
0
VERTEX
8
Image
10
211.555265
20
177.624312
70
0
0
VERTEX
8
Image
10
211.694991
20
177.354219
70
0
0
VERTEX
8
Image
10
212.036488
20
177.267218
70
0
0
VERTEX
8
Image
10
212.360166
20
177.200747
70
0
0
VERTEX
8
Image
10
212.370233
20
176.922747
70
0
0
VERTEX
8
Image
10
212.337564
20
176.695535
70
0
0
VERTEX
8
Image
10
212.466065
20
176.688845
70
0
0
VERTEX
8
Image
10
212.696332
20
176.700441
70
0
0
VERTEX
8
Image
10
212.908342
20
176.517183
70
0
0
VERTEX
8
Image
10
213.089777
20
176.336794
70
0
0
VERTEX
8
Image
10
213.223249
20
176.542795
70
0
0
VERTEX
8
Image
10
213.365760
20
176.752517
70
0
0
VERTEX
8
Image
10
213.591813
20
176.529751
70
0
0
VERTEX
8
Image
10
213.592104
20
176.529772
70
0
0
SEQEND
8
Image
0
POLYLINE
8
Image
62
7
70
0
10
0.000000
20
0.000000
66
1
0
VERTEX
8
Image
10
211.687847
20
177.617346
70
0
0
VERTEX
8
Image
10
211.802183
20
177.759278
70
0
0
VERTEX
8
Image
10
212.077075
20
177.784949
70
0
0
VERTEX
8
Image
10
212.585670
20
177.590394
70
0
0
VERTEX
8
Image
10
212.205662
20
177.431622
70
0
0
VERTEX
8
Image
10
211.839956
20
177.470086
70
0
0
VERTEX
8
Image
10
211.687847
20
177.617346
70
0
0
VERTEX
8
Image
10
211.687847
20
177.617346
70
0
0
SEQEND
8
Image
0
POLYLINE
8
Image
62
7
70
0
10
0.000000
20
0.000000
66
1
0
VERTEX
8
Image
10
210.431078
20
179.342999
70
0
0
VERTEX
8
Image
10
210.096301
20
180.060537
70
0
0
VERTEX
8
Image
10
210.047740
20
180.261590
70
0
0
VERTEX
8
Image
10
209.868548
20
180.049530
70
0
0
VERTEX
8
Image
10
209.653164
20
179.866765
70
0
0
VERTEX
8
Image
10
209.461752
20
180.173757
70
0
0
VERTEX
8
Image
10
209.383399
20
180.459777
70
0
0
VERTEX
8
Image
10
209.452227
20
180.477417
70
0
0
VERTEX
8
Image
10
209.772627
20
180.430131
70
0
0
VERTEX
8
Image
10
210.299342
20
180.560057
70
0
0
VERTEX
8
Image
10
210.800181
20
180.702628
70
0
0
VERTEX
8
Image
10
210.632505
20
180.405910
70
0
0
VERTEX
8
Image
10
210.446351
20
179.974064
70
0
0
VERTEX
8
Image
10
210.766410
20
179.471440
70
0
0
VERTEX
8
Image
10
211.031106
20
179.104179
70
0
0
VERTEX
8
Image
10
211.001360
20
178.957303
70
0
0
VERTEX
8
Image
10
210.431184
20
179.343009
70
0
0
VERTEX
8
Image
10
210.431078
20
179.342999
70
0
0
SEQEND
8
Image
0
POLYLINE
8
Image
62
7
70
0
10
0.000000
20
0.000000
66
1
0
VERTEX
8
Image
10
208.252343
20
179.624261
70
0
0
VERTEX
8
Image
10
208.510711
20
180.267206
70
0
0
VERTEX
8
Image
10
208.716057
20
180.498511
70
0
0
VERTEX
8
Image
10
208.873716
20
180.526648
70
0
0
VERTEX
8
Image
10
208.623526
20
179.888428
70
0
0
VERTEX
8
Image
10
208.359701
20
179.599145
70
0
0
VERTEX
8
Image
10
208.252343
20
179.624261
70
0
0
VERTEX
8
Image
10
208.252343
20
179.624261
70
0
0
SEQEND
8
Image
0
POLYLINE
8
Image
62
7
70
0
10
0.000000
20
0.000000
66
1
0
VERTEX
8
Image
10
207.054999
20
182.920288
70
0
0
VERTEX
8
Image
10
206.887538
20
182.937400
70
0
0
VERTEX
8
Image
10
206.601609
20
183.011698
70
0
0
VERTEX
8
Image
10
206.445476
20
182.968464
70
0
0
VERTEX
8
Image
10
206.511175
20
183.152523
70
0
0
VERTEX
8
Image
10
206.745486
20
183.337134
70
0
0
VERTEX
8
Image
10
207.081219
20
183.161016
70
0
0
VERTEX
8
Image
10
207.431682
20
182.789676
70
0
0
VERTEX
8
Image
10
207.337864
20
182.651400
70
0
0
VERTEX
8
Image
10
207.172361
20
182.851043
70
0
0
VERTEX
8
Image
10
207.054999
20
182.920298
70
0
0
VERTEX
8
Image
10
207.054999
20
182.920288
70
0
0
SEQEND
8
Image
0
POLYLINE
8
Image
62
7
70
0
10
0.000000
20
0.000000
66
1
0
VERTEX
8
Image
10
207.337494
20
183.420463
70
0
0
VERTEX
8
Image
10
207.388327
20
183.549221
70
0
0
VERTEX
8
Image
10
207.718758
20
183.521897
70
0
0
VERTEX
8
Image
10
208.229923
20
183.290642
70
0
0
VERTEX
8
Image
10
207.867030
20
183.180555
70
0
0
VERTEX
8
Image
10
207.337494
20
183.420463
70
0
0
VERTEX
8
Image
10
207.337494
20
183.420463
70
0
0
SEQEND
8
Image
0
POLYLINE
8
Image
62
7
70
0
10
0.000000
20
0.000000
66
1
0
VERTEX
8
Image
10
197.797240
20
185.297219
70
0
0
VERTEX
8
Image
10
197.739359
20
185.594366
70
0
0
VERTEX
8
Image
10
197.869815
20
185.872492
70
0
0
VERTEX
8
Image
10
198.116257
20
185.993257
70
0
0
VERTEX
8
Image
10
198.326406
20
185.826385
70
0
0
VERTEX
8
Image
10
198.384310
20
185.529239
70
0
0
VERTEX
8
Image
10
198.253857
20
185.251113
70
0
0
VERTEX
8
Image
10
198.007411
20
185.130348
70
0
0
VERTEX
8
Image
10
197.797240
20
185.297219
70
0
0
VERTEX
8
Image
10
197.797240
20
185.297219
70
0
0
SEQEND
8
Image
0
POLYLINE
8
Image
62
7
70
0
10
0.000000
20
0.000000
66
1
0
VERTEX
8
Image
10
205.182783
20
185.724211
70
0
0
VERTEX
8
Image
10
205.563227
20
186.422163
70
0
0
VERTEX
8
Image
10
205.872161
20
186.602188
70
0
0
VERTEX
8
Image
10
206.131604
20
186.355551
70
0
0
VERTEX
8
Image
10
206.240672
20
186.001404
70
0
0
VERTEX
8
Image
10
206.123402
20
185.712212
70
0
0
VERTEX
8
Image
10
205.480231
20
185.415396
70
0
0
VERTEX
8
Image
10
205.248260
20
185.494607
70
0
0
VERTEX
8
Image
10
205.182915
20
185.724198
70
0
0
VERTEX
8
Image
10
205.182783
20
185.724211
70
0
0
SEQEND
8
Image
0
POLYLINE
8
Image
62
7
70
0
10
0.000000
20
0.000000
66
1
0
VERTEX
8
Image
10
206.059955
20
185.986238
70
0
0
VERTEX
8
Image
10
205.878018
20
186.071967
70
0
0
VERTEX
8
Image
10
205.552829
20
186.007114
70
0
0
VERTEX
8
Image
10
205.438033
20
185.900277
70
0
0
VERTEX
8
Image
10
205.712690
20
185.847264
70
0
0
VERTEX
8
Image
10
205.990919
20
185.865815
70
0
0
VERTEX
8
Image
10
206.059955
20
185.986228
70
0
0
VERTEX
8
Image
10
206.059955
20
185.986238
70
0
0
SEQEND
8
Image
0
POLYLINE
8
Image
62
7
70
0
10
0.000000
20
0.000000
66
1
0
VERTEX
8
Image
10
197.065244
20
186.123800
70
0
0
VERTEX
8
Image
10
197.339207
20
186.312483
70
0
0
VERTEX
8
Image
10
197.539668
20
186.304452
70
0
0
VERTEX
8
Image
10
197.504912
20
186.146781
70
0
0
VERTEX
8
Image
10
197.213358
20
185.975687
70
0
0
VERTEX
8
Image
10
196.900631
20
185.897909
70
0
0
VERTEX
8
Image
10
197.065244
20
186.123800
70
0
0
VERTEX
8
Image
10
197.065244
20
186.123800
70
0
0
SEQEND
8
Image
0
POLYLINE
8
Image
62
7
70
0
10
0.000000
20
0.000000
66
1
0
VERTEX
8
Image
10
198.328284
20
186.352522
70
0
0
VERTEX
8
Image
10
198.329710
20
186.494639
70
0
0
VERTEX
8
Image
10
198.577257
20
186.456506
70
0
0
VERTEX
8
Image
10
198.972689
20
186.207777
70
0
0
VERTEX
8
Image
10
198.738917
20
186.090968
70
0
0
VERTEX
8
Image
10
198.328284
20
186.352522
70
0
0
VERTEX
8
Image
10
198.328284
20
186.352522
70
0
0
SEQEND
8
Image
0
POLYLINE
8
Image
62
7
70
0
10
0.000000
20
0.000000
66
1
0
VERTEX
8
Image
10
194.327498
20
187.000240
70
0
0
VERTEX
8
Image
10
193.916865
20
187.413883
70
0
0
VERTEX
8
Image
10
193.793375
20
187.316732
70
0
0
VERTEX
8
Image
10
193.850164
20
187.083155
70
0
0
VERTEX
8
Image
10
193.833981
20
186.994908
70
0
0
VERTEX
8
Image
10
193.535046
20
187.247170
70
0
0
VERTEX
8
Image
10
193.226224
20
187.656475
70
0
0
VERTEX
8
Image
10
193.367141
20
187.865079
70
0
0
VERTEX
8
Image
10
193.561269
20
188.017778
70
0
0
VERTEX
8
Image
10
193.561266
20
188.211948
70
0
0
VERTEX
8
Image
10
193.535786
20
188.414539
70
0
0
VERTEX
8
Image
10
193.668660
20
188.587484
70
0
0
VERTEX
8
Image
10
193.821142
20
188.558335
70
0
0
VERTEX
8
Image
10
193.842756
20
188.275038
70
0
0
VERTEX
8
Image
10
194.009215
20
187.685544
70
0
0
VERTEX
8
Image
10
194.556098
20
187.417934
70
0
0
VERTEX
8
Image
10
194.685469
20
187.515004
70
0
0
VERTEX
8
Image
10
194.680935
20
187.751936
70
0
0
VERTEX
8
Image
10
194.357661
20
188.269727
70
0
0
VERTEX
8
Image
10
194.258634
20
188.412537
70
0
0
VERTEX
8
Image
10
194.439443
20
188.468165
70
0
0
VERTEX
8
Image
10
194.634689
20
188.564190
70
0
0
VERTEX
8
Image
10
194.595441
20
188.802944
70
0
0
VERTEX
8
Image
10
194.526769
20
188.978160
70
0
0
VERTEX
8
Image
10
194.645977
20
188.913188
70
0
0
VERTEX
8
Image
10
194.886827
20
188.384022
70
0
0
VERTEX
8
Image
10
194.977502
20
188.166016
70
0
0
VERTEX
8
Image
10
195.195516
20
188.075341
70
0
0
VERTEX
8
Image
10
195.724682
20
187.834483
70
0
0
VERTEX
8
Image
10
195.789660
20
187.715276
70
0
0
VERTEX
8
Image
10
195.614430
20
187.783953
70
0
0
VERTEX
8
Image
10
195.380853
20
187.842540
70
0
0
VERTEX
8
Image
10
195.283701
20
187.716130
70
0
0
VERTEX
8
Image
10
195.614430
20
187.306082
70
0
0
VERTEX
8
Image
10
195.663407
20
187.245275
70
0
0
VERTEX
8
Image
10
195.316721
20
187.312379
70
0
0
VERTEX
8
Image
10
194.896629
20
187.357592
70
0
0
VERTEX
8
Image
10
194.858014
20
187.195928
70
0
0
VERTEX
8
Image
10
194.898369
20
186.952802
70
0
0
VERTEX
8
Image
10
194.756996
20
186.753939
70
0
0
VERTEX
8
Image
10
194.519139
20
186.757256
70
0
0
VERTEX
8
Image
10
194.327498
20
187.000240
70
0
0
VERTEX
8
Image
10
194.327498
20
187.000240
70
0
0
SEQEND
8
Image
0
POLYLINE
8
Image
62
7
70
0
10
0.000000
20
0.000000
66
1
0
VERTEX
8
Image
10
191.559298
20
188.802944
70
0
0
VERTEX
8
Image
10
191.450581
20
189.595643
70
0
0
VERTEX
8
Image
10
191.470898
20
189.973087
70
0
0
VERTEX
8
Image
10
191.643992
20
190.231835
70
0
0
VERTEX
8
Image
10
191.793845
20
190.273509
70
0
0
VERTEX
8
Image
10
191.748872
20
190.119641
70
0
0
VERTEX
8
Image
10
191.791040
20
189.863368
70
0
0
VERTEX
8
Image
10
192.147969
20
189.650380
70
0
0
VERTEX
8
Image
10
192.555143
20
189.456536
70
0
0
VERTEX
8
Image
10
192.278541
20
189.218194
70
0
0
VERTEX
8
Image
10
192.008957
20
188.969157
70
0
0
VERTEX
8
Image
10
191.986468
20
188.720537
70
0
0
VERTEX
8
Image
10
192.012559
20
188.545160
70
0
0
VERTEX
8
Image
10
191.859759
20
188.472215
70
0
0
VERTEX
8
Image
10
191.655911
20
188.569367
70
0
0
VERTEX
8
Image
10
191.559298
20
188.802944
70
0
0
VERTEX
8
Image
10
191.559298
20
188.802944
70
0
0
SEQEND
8
Image
0
POLYLINE
8
Image
62
7
70
0
10
0.000000
20
0.000000
66
1
0
VERTEX
8
Image
10
193.104172
20
193.265750
70
0
0
VERTEX
8
Image
10
193.302295
20
193.668051
70
0
0
VERTEX
8
Image
10
193.079831
20
193.991060
70
0
0
VERTEX
8
Image
10
192.763151
20
194.143475
70
0
0
VERTEX
8
Image
10
192.504971
20
194.092308
70
0
0
VERTEX
8
Image
10
192.403871
20
194.044298
70
0
0
VERTEX
8
Image
10
192.464834
20
194.204298
70
0
0
VERTEX
8
Image
10
192.491745
20
194.461277
70
0
0
VERTEX
8
Image
10
192.308809
20
194.646429
70
0
0
VERTEX
8
Image
10
192.153926
20
194.750876
70
0
0
VERTEX
8
Image
10
192.373315
20
194.793005
70
0
0
VERTEX
8
Image
10
192.787430
20
194.617725
70
0
0
VERTEX
8
Image
10
193.225775
20
194.178665
70
0
0
VERTEX
8
Image
10
193.549068
20
193.590944
70
0
0
VERTEX
8
Image
10
193.225775
20
193.194792
70
0
0
VERTEX
8
Image
10
192.902967
20
192.969835
70
0
0
VERTEX
8
Image
10
193.104172
20
193.265750
70
0
0
VERTEX
8
Image
10
193.104172
20
193.265750
70
0
0
SEQEND
8
Image
0
POLYLINE
8
Image
62
7
70
0
10
0.000000
20
0.000000
66
1
0
VERTEX
8
Image
10
186.166912
20
193.745593
70
0
0
VERTEX
8
Image
10
186.125432
20
193.960355
70
0
0
VERTEX
8
Image
10
186.239487
20
194.130828
70
0
0
VERTEX
8
Image
10
186.398247
20
194.115789
70
0
0
VERTEX
8
Image
10
186.464277
20
193.884528
70
0
0
VERTEX
8
Image
10
186.395822
20
193.517945
70
0
0
VERTEX
8
Image
10
186.166912
20
193.745593
70
0
0
VERTEX
8
Image
10
186.166912
20
193.745593
70
0
0
SEQEND
8
Image
0
POLYLINE
8
Image
62
7
70
0
10
0.000000
20
0.000000
66
1
0
VERTEX
8
Image
10
184.083030
20
196.850678
70
0
0
VERTEX
8
Image
10
183.913511
20
197.251842
70
0
0
VERTEX
8
Image
10
184.127136
20
197.468037
70
0
0
VERTEX
8
Image
10
184.282846
20
197.351455
70
0
0
VERTEX
8
Image
10
184.347613
20
197.071163
70
0
0
VERTEX
8
Image
10
184.307297
20
196.700345
70
0
0
VERTEX
8
Image
10
184.083030
20
196.850678
70
0
0
VERTEX
8
Image
10
184.083030
20
196.850678
70
0
0
SEQEND
8
Image
0
POLYLINE
8
Image
62
7
70
0
10
0.000000
20
0.000000
66
1
0
VERTEX
8
Image
10
215.238101
20
177.255746
70
0
0
VERTEX
8
Image
10
215.545577
20
177.437798
70
0
0
VERTEX
8
Image
10
215.631004
20
177.677743
70
0
0
VERTEX
8
Image
10
215.127426
20
178.418061
70
0
0
VERTEX
8
Image
10
214.595759
20
178.834961
70
0
0
VERTEX
8
Image
10
214.177113
20
178.933691
70
0
0
VERTEX
8
Image
10
213.902896
20
178.719485
70
0
0
VERTEX
8
Image
10
213.804511
20
178.197576
70
0
0
VERTEX
8
Image
10
213.883525
20
177.542119
70
0
0
VERTEX
8
Image
10
214.134681
20
177.175935
70
0
0
VERTEX
8
Image
10
214.579149
20
177.085114
70
0
0
VERTEX
8
Image
10
215.238101
20
177.255746
70
0
0
VERTEX
8
Image
10
215.238101
20
177.255746
70
0
0
SEQEND
8
Image
0
POLYLINE
8
Image
62
7
70
0
10
0.000000
20
0.000000
66
1
0
VERTEX
8
Image
10
215.424844
20
179.282367
70
0
0
VERTEX
8
Image
10
215.198963
20
179.446976
70
0
0
VERTEX
8
Image
10
215.276730
20
179.134253
70
0
0
VERTEX
8
Image
10
215.447833
20
178.842694
70
0
0
VERTEX
8
Image
10
215.605501
20
178.807935
70
0
0
VERTEX
8
Image
10
215.613538
20
179.008395
70
0
0
VERTEX
8
Image
10
215.424844
20
179.282367
70
0
0
VERTEX
8
Image
10
215.424844
20
179.282367
70
0
0
SEQEND
8
Image
0
POLYLINE
8
Image
62
7
70
0
10
0.000000
20
0.000000
66
1
0
VERTEX
8
Image
10
200.575361
20
179.366150
70
0
0
VERTEX
8
Image
10
200.483811
20
179.615890
70
0
0
VERTEX
8
Image
10
200.270135
20
179.672971
70
0
0
VERTEX
8
Image
10
200.025795
20
179.550458
70
0
0
VERTEX
8
Image
10
199.842255
20
179.261420
70
0
0
VERTEX
8
Image
10
199.891351
20
179.039522
70
0
0
VERTEX
8
Image
10
200.156447
20
178.947227
70
0
0
VERTEX
8
Image
10
200.452304
20
179.070286
70
0
0
VERTEX
8
Image
10
200.575361
20
179.366150
70
0
0
VERTEX
8
Image
10
200.575361
20
179.366150
70
0
0
SEQEND
8
Image
0
POLYLINE
8
Image
62
7
70
0
10
0.000000
20
0.000000
66
1
0
VERTEX
8
Image
10
202.030568
20
179.740976
70
0
0
VERTEX
8
Image
10
202.063760
20
179.927838
70
0
0
VERTEX
8
Image
10
201.913913
20
180.005559
70
0
0
VERTEX
8
Image
10
201.716008
20
179.927838
70
0
0
VERTEX
8
Image
10
201.633693
20
179.740976
70
0
0
VERTEX
8
Image
10
201.750374
20
179.476393
70
0
0
VERTEX
8
Image
10
202.030568
20
179.740976
70
0
0
VERTEX
8
Image
10
202.030568
20
179.740976
70
0
0
SEQEND
8
Image
0
POLYLINE
8
Image
62
7
70
0
10
0.000000
20
0.000000
66
1
0
VERTEX
8
Image
10
212.690484
20
180.375748
70
0
0
VERTEX
8
Image
10
212.256674
20
180.657934
70
0
0
VERTEX
8
Image
10
212.352572
20
180.275841
70
0
0
VERTEX
8
Image
10
212.772241
20
180.005559
70
0
0
VERTEX
8
Image
10
212.855227
20
180.114302
70
0
0
VERTEX
8
Image
10
212.690484
20
180.375748
70
0
0
VERTEX
8
Image
10
212.690484
20
180.375748
70
0
0
SEQEND
8
Image
0
POLYLINE
8
Image
62
7
70
0
10
0.000000
20
0.000000
66
1
0
VERTEX
8
Image
10
204.400517
20
180.781026
70
0
0
VERTEX
8
Image
10
204.417086
20
181.011216
70
0
0
VERTEX
8
Image
10
204.242958
20
181.218781
70
0
0
VERTEX
8
Image
10
204.067172
20
181.279091
70
0
0
VERTEX
8
Image
10
204.108020
20
181.127370
70
0
0
VERTEX
8
Image
10
204.133807
20
180.888233
70
0
0
VERTEX
8
Image
10
203.950461
20
180.710504
70
0
0
VERTEX
8
Image
10
203.768041
20
180.602698
70
0
0
VERTEX
8
Image
10
203.933263
20
180.555614
70
0
0
VERTEX
8
Image
10
204.400596
20
180.781026
70
0
0
VERTEX
8
Image
10
204.400517
20
180.781026
70
0
0
SEQEND
8
Image
0
POLYLINE
8
Image
62
7
70
0
10
0.000000
20
0.000000
66
1
0
VERTEX
8
Image
10
213.804511
20
180.783698
70
0
0
VERTEX
8
Image
10
213.726583
20
181.055728
70
0
0
VERTEX
8
Image
10
213.530357
20
181.177410
70
0
0
VERTEX
8
Image
10
213.272168
20
181.138485
70
0
0
VERTEX
8
Image
10
213.008354
20
180.928692
70
0
0
VERTEX
8
Image
10
212.848371
20
180.608769
70
0
0
VERTEX
8
Image
10
213.242960
20
180.534731
70
0
0
VERTEX
8
Image
10
213.639554
20
180.607865
70
0
0
VERTEX
8
Image
10
213.804511
20
180.783698
70
0
0
VERTEX
8
Image
10
213.804511
20
180.783698
70
0
0
SEQEND
8
Image
0
POLYLINE
8
Image
62
7
70
0
10
0.000000
20
0.000000
66
1
0
VERTEX
8
Image
10
206.131604
20
181.320177
70
0
0
VERTEX
8
Image
10
206.015022
20
181.456436
70
0
0
VERTEX
8
Image
10
205.734730
20
181.424161
70
0
0
VERTEX
8
Image
10
205.337855
20
181.167880
70
0
0
VERTEX
8
Image
10
205.734730
20
181.063897
70
0
0
VERTEX
8
Image
10
206.015022
20
181.139179
70
0
0
VERTEX
8
Image
10
206.131604
20
181.320177
70
0
0
VERTEX
8
Image
10
206.131604
20
181.320177
70
0
0
SEQEND
8
Image
0
POLYLINE
8
Image
62
7
70
0
10
0.000000
20
0.000000
66
1
0
VERTEX
8
Image
10
201.968258
20
181.486639
70
0
0
VERTEX
8
Image
10
202.050570
20
181.728233
70
0
0
VERTEX
8
Image
10
201.978696
20
182.014575
70
0
0
VERTEX
8
Image
10
201.811036
20
182.224635
70
0
0
VERTEX
8
Image
10
201.605991
20
182.237386
70
0
0
VERTEX
8
Image
10
201.369110
20
181.709738
70
0
0
VERTEX
8
Image
10
201.562223
20
181.345616
70
0
0
VERTEX
8
Image
10
201.968258
20
181.486639
70
0
0
VERTEX
8
Image
10
201.968258
20
181.486639
70
0
0
SEQEND
8
Image
0
POLYLINE
8
Image
62
7
70
0
10
0.000000
20
0.000000
66
1
0
VERTEX
8
Image
10
197.929531
20
181.826787
70
0
0
VERTEX
8
Image
10
197.779909
20
182.030983
70
0
0
VERTEX
8
Image
10
197.420182
20
182.193714
70
0
0
VERTEX
8
Image
10
197.064847
20
182.208421
70
0
0
VERTEX
8
Image
10
197.051618
20
181.959992
70
0
0
VERTEX
8
Image
10
197.253677
20
181.716973
70
0
0
VERTEX
8
Image
10
197.548250
20
181.601492
70
0
0
VERTEX
8
Image
10
197.813986
20
181.631960
70
0
0
VERTEX
8
Image
10
197.929531
20
181.826787
70
0
0
VERTEX
8
Image
10
197.929531
20
181.826787
70
0
0
SEQEND
8
Image
0
POLYLINE
8
Image
62
7
70
0
10
0.000000
20
0.000000
66
1
0
VERTEX
8
Image
10
204.683409
20
182.071130
70
0
0
VERTEX
8
Image
10
204.482948
20
182.079160
70
0
0
VERTEX
8
Image
10
204.208985
20
181.890478
70
0
0
VERTEX
8
Image
10
204.044372
20
181.664587
70
0
0
VERTEX
8
Image
10
204.357099
20
181.742364
70
0
0
VERTEX
8
Image
10
204.648653
20
181.913458
70
0
0
VERTEX
8
Image
10
204.683409
20
182.071130
70
0
0
VERTEX
8
Image
10
204.683409
20
182.071130
70
0
0
SEQEND
8
Image
0
POLYLINE
8
Image
62
7
70
0
10
0.000000
20
0.000000
66
1
0
VERTEX
8
Image
10
193.006462
20
183.863658
70
0
0
VERTEX
8
Image
10
193.142904
20
184.403646
70
0
0
VERTEX
8
Image
10
192.798473
20
184.503476
70
0
0
VERTEX
8
Image
10
192.516532
20
184.399031
70
0
0
VERTEX
8
Image
10
192.304692
20
184.149943
70
0
0
VERTEX
8
Image
10
192.215957
20
183.852578
70
0
0
VERTEX
8
Image
10
192.303332
20
183.603303
70
0
0
VERTEX
8
Image
10
192.694386
20
183.468462
70
0
0
VERTEX
8
Image
10
193.006462
20
183.863658
70
0
0
VERTEX
8
Image
10
193.006462
20
183.863658
70
0
0
SEQEND
8
Image
0
POLYLINE
8
Image
62
7
70
0
10
0.000000
20
0.000000
66
1
0
VERTEX
8
Image
10
207.026318
20
184.384927
70
0
0
VERTEX
8
Image
10
207.064458
20
184.632467
70
0
0
VERTEX
8
Image
10
206.922337
20
184.633894
70
0
0
VERTEX
8
Image
10
206.660770
20
184.223277
70
0
0
VERTEX
8
Image
10
206.777583
20
183.989494
70
0
0
VERTEX
8
Image
10
207.026318
20
184.384927
70
0
0
VERTEX
8
Image
10
207.026318
20
184.384927
70
0
0
SEQEND
8
Image
0
POLYLINE
8
Image
62
7
70
0
10
0.000000
20
0.000000
66
1
0
VERTEX
8
Image
10
190.725174
20
184.817668
70
0
0
VERTEX
8
Image
10
190.541629
20
185.106707
70
0
0
VERTEX
8
Image
10
190.297281
20
185.229219
70
0
0
VERTEX
8
Image
10
190.083595
20
185.172139
70
0
0
VERTEX
8
Image
10
189.992041
20
184.922398
70
0
0
VERTEX
8
Image
10
190.115102
20
184.626534
70
0
0
VERTEX
8
Image
10
190.410982
20
184.503476
70
0
0
VERTEX
8
Image
10
190.676077
20
184.595770
70
0
0
VERTEX
8
Image
10
190.725174
20
184.817668
70
0
0
VERTEX
8
Image
10
190.725174
20
184.817668
70
0
0
SEQEND
8
Image
0
POLYLINE
8
Image
62
7
70
0
10
0.000000
20
0.000000
66
1
0
VERTEX
8
Image
10
184.066017
20
185.590851
70
0
0
VERTEX
8
Image
10
184.779141
20
186.661995
70
0
0
VERTEX
8
Image
10
185.149051
20
188.026750
70
0
0
VERTEX
8
Image
10
185.131398
20
189.347043
70
0
0
VERTEX
8
Image
10
184.963377
20
189.884870
70
0
0
VERTEX
8
Image
10
184.681834
20
190.284805
70
0
0
VERTEX
8
Image
10
183.994808
20
190.716798
70
0
0
VERTEX
8
Image
10
183.047573
20
191.088473
70
0
0
VERTEX
8
Image
10
182.116852
20
191.312109
70
0
0
VERTEX
8
Image
10
181.479366
20
191.299983
70
0
0
VERTEX
8
Image
10
181.341489
20
191.190449
70
0
0
VERTEX
8
Image
10
181.607157
20
191.138939
70
0
0
VERTEX
8
Image
10
181.903572
20
191.056855
70
0
0
VERTEX
8
Image
10
181.944114
20
190.888829
70
0
0
VERTEX
8
Image
10
181.997686
20
190.587925
70
0
0
VERTEX
8
Image
10
182.325378
20
190.186364
70
0
0
VERTEX
8
Image
10
182.694700
20
189.914935
70
0
0
VERTEX
8
Image
10
182.848300
20
189.926903
70
0
0
VERTEX
8
Image
10
183.004242
20
189.898092
70
0
0
VERTEX
8
Image
10
183.379159
20
189.528619
70
0
0
VERTEX
8
Image
10
183.808829
20
189.151104
70
0
0
VERTEX
8
Image
10
184.096417
20
189.102968
70
0
0
VERTEX
8
Image
10
183.981556
20
189.424243
70
0
0
VERTEX
8
Image
10
183.498655
20
189.908619
70
0
0
VERTEX
8
Image
10
182.924528
20
190.321201
70
0
0
VERTEX
8
Image
10
182.535986
20
190.427092
70
0
0
VERTEX
8
Image
10
182.189515
20
190.584569
70
0
0
VERTEX
8
Image
10
182.151824
20
190.810910
70
0
0
VERTEX
8
Image
10
182.408550
20
190.830350
70
0
0
VERTEX
8
Image
10
183.544683
20
190.302722
70
0
0
VERTEX
8
Image
10
184.245609
20
189.705430
70
0
0
VERTEX
8
Image
10
184.435798
20
188.983144
70
0
0
VERTEX
8
Image
10
184.435798
20
188.214310
70
0
0
VERTEX
8
Image
10
182.939925
20
188.875858
70
0
0
VERTEX
8
Image
10
181.384444
20
189.419043
70
0
0
VERTEX
8
Image
10
182.837373
20
188.574998
70
0
0
VERTEX
8
Image
10
184.037670
20
187.880571
70
0
0
VERTEX
8
Image
10
184.432332
20
187.329913
70
0
0
VERTEX
8
Image
10
184.310786
20
186.985168
70
0
0
VERTEX
8
Image
10
183.840486
20
187.020179
70
0
0
VERTEX
8
Image
10
182.716009
20
187.337302
70
0
0
VERTEX
8
Image
10
181.459250
20
187.995783
70
0
0
VERTEX
8
Image
10
180.731647
20
188.372507
70
0
0
VERTEX
8
Image
10
181.202290
20
187.902245
70
0
0
VERTEX
8
Image
10
182.254181
20
187.152210
70
0
0
VERTEX
8
Image
10
183.347263
20
186.480393
70
0
0
VERTEX
8
Image
10
183.941478
20
186.244786
70
0
0
VERTEX
8
Image
10
184.171215
20
186.248199
70
0
0
VERTEX
8
Image
10
183.646706
20
185.828894
70
0
0
VERTEX
8
Image
10
182.936024
20
185.785076
70
0
0
VERTEX
8
Image
10
181.898863
20
186.165023
70
0
0
VERTEX
8
Image
10
180.644024
20
186.915096
70
0
0
VERTEX
8
Image
10
179.280311
20
187.981652
70
0
0
VERTEX
8
Image
10
178.372633
20
188.720324
70
0
0
VERTEX
8
Image
10
178.342697
20
188.668452
70
0
0
VERTEX
8
Image
10
178.569382
20
188.349205
70
0
0
VERTEX
8
Image
10
180.437418
20
186.627421
70
0
0
VERTEX
8
Image
10
181.480261
20
185.874307
70
0
0
VERTEX
8
Image
10
182.125221
20
185.561808
70
0
0
VERTEX
8
Image
10
182.280191
20
185.517525
70
0
0
VERTEX
8
Image
10
182.256587
20
185.411059
70
0
0
VERTEX
8
Image
10
181.761088
20
185.460581
70
0
0
VERTEX
8
Image
10
180.856817
20
185.918170
70
0
0
VERTEX
8
Image
10
179.800425
20
186.630661
70
0
0
VERTEX
8
Image
10
178.848562
20
187.444892
70
0
0
VERTEX
8
Image
10
178.171947
20
188.056837
70
0
0
VERTEX
8
Image
10
178.026219
20
188.132563
70
0
0
VERTEX
8
Image
10
178.044073
20
188.029227
70
0
0
VERTEX
8
Image
10
178.540296
20
187.367694
70
0
0
VERTEX
8
Image
10
179.311084
20
186.614691
70
0
0
VERTEX
8
Image
10
181.128521
20
185.316145
70
0
0
VERTEX
8
Image
10
181.963142
20
184.977222
70
0
0
VERTEX
8
Image
10
182.710414
20
184.908113
70
0
0
VERTEX
8
Image
10
183.401113
20
185.111696
70
0
0
VERTEX
8
Image
10
184.066017
20
185.590851
70
0
0
VERTEX
8
Image
10
184.066017
20
185.590851
70
0
0
SEQEND
8
Image
0
POLYLINE
8
Image
62
7
70
0
10
0.000000
20
0.000000
66
1
0
VERTEX
8
Image
10
195.715871
20
185.363370
70
0
0
VERTEX
8
Image
10
195.459093
20
186.024828
70
0
0
VERTEX
8
Image
10
195.437000
20
186.274341
70
0
0
VERTEX
8
Image
10
195.797257
20
186.355557
70
0
0
VERTEX
8
Image
10
196.182010
20
186.426002
70
0
0
VERTEX
8
Image
10
196.342033
20
186.595369
70
0
0
VERTEX
8
Image
10
196.182425
20
186.717722
70
0
0
VERTEX
8
Image
10
195.816489
20
186.692397
70
0
0
VERTEX
8
Image
10
195.142969
20
186.341902
70
0
0
VERTEX
8
Image
10
195.125004
20
186.143787
70
0
0
VERTEX
8
Image
10
195.267853
20
185.968490
70
0
0
VERTEX
8
Image
10
195.405809
20
185.742071
70
0
0
VERTEX
8
Image
10
195.376146
20
185.421042
70
0
0
VERTEX
8
Image
10
195.350045
20
185.146734
70
0
0
VERTEX
8
Image
10
195.496585
20
185.032642
70
0
0
VERTEX
8
Image
10
195.672159
20
185.129793
70
0
0
VERTEX
8
Image
10
195.715871
20
185.363370
70
0
0
VERTEX
8
Image
10
195.715871
20
185.363370
70
0
0
SEQEND
8
Image
0
POLYLINE
8
Image
62
7
70
0
10
0.000000
20
0.000000
66
1
0
VERTEX
8
Image
10
208.777434
20
185.561808
70
0
0
VERTEX
8
Image
10
208.660852
20
185.748669
70
0
0
VERTEX
8
Image
10
208.380560
20
185.826391
70
0
0
VERTEX
8
Image
10
208.100267
20
185.748669
70
0
0
VERTEX
8
Image
10
207.983685
20
185.561808
70
0
0
VERTEX
8
Image
10
208.100267
20
185.374946
70
0
0
VERTEX
8
Image
10
208.380560
20
185.297225
70
0
0
VERTEX
8
Image
10
208.660852
20
185.374946
70
0
0
VERTEX
8
Image
10
208.777434
20
185.561808
70
0
0
VERTEX
8
Image
10
208.777434
20
185.561808
70
0
0
SEQEND
8
Image
0
POLYLINE
8
Image
62
7
70
0
10
0.000000
20
0.000000
66
1
0
VERTEX
8
Image
10
189.727458
20
186.194957
70
0
0
VERTEX
8
Image
10
189.635043
20
186.448986
70
0
0
VERTEX
8
Image
10
189.391021
20
186.669842
70
0
0
VERTEX
8
Image
10
188.647510
20
186.884723
70
0
0
VERTEX
8
Image
10
188.475911
20
186.729280
70
0
0
VERTEX
8
Image
10
188.404543
20
186.355557
70
0
0
VERTEX
8
Image
10
188.553374
20
185.945453
70
0
0
VERTEX
8
Image
10
189.066001
20
185.826391
70
0
0
VERTEX
8
Image
10
189.542610
20
185.929393
70
0
0
VERTEX
8
Image
10
189.727458
20
186.194957
70
0
0
VERTEX
8
Image
10
189.727458
20
186.194957
70
0
0
SEQEND
8
Image
0
POLYLINE
8
Image
62
7
70
0
10
0.000000
20
0.000000
66
1
0
VERTEX
8
Image
10
203.882649
20
186.943738
70
0
0
VERTEX
8
Image
10
203.939144
20
187.085887
70
0
0
VERTEX
8
Image
10
203.684211
20
187.145255
70
0
0
VERTEX
8
Image
10
203.356191
20
187.019610
70
0
0
VERTEX
8
Image
10
203.221191
20
186.708333
70
0
0
VERTEX
8
Image
10
203.279482
20
186.467238
70
0
0
VERTEX
8
Image
10
203.419628
20
186.506819
70
0
0
VERTEX
8
Image
10
203.882649
20
186.943738
70
0
0
VERTEX
8
Image
10
203.882649
20
186.943738
70
0
0
SEQEND
8
Image
0
POLYLINE
8
Image
62
7
70
0
10
0.000000
20
0.000000
66
1
0
VERTEX
8
Image
10
15.487001
20
188.325546
70
0
0
VERTEX
8
Image
10
16.780469
20
188.980736
70
0
0
VERTEX
8
Image
10
18.366214
20
190.176635
70
0
0
VERTEX
8
Image
10
20.185683
20
191.927321
70
0
0
VERTEX
8
Image
10
22.180325
20
194.246874
70
0
0
VERTEX
8
Image
10
25.657322
20
198.934045
70
0
0
VERTEX
8
Image
10
30.603570
20
206.204125
70
0
0
VERTEX
8
Image
10
36.219762
20
215.263809
70
0
0
VERTEX
8
Image
10
39.029303
20
220.216844
70
0
0
VERTEX
8
Image
10
41.706591
20
225.319790
70
0
0
VERTEX
8
Image
10
44.817632
20
231.687967
70
0
0
VERTEX
8
Image
10
46.278810
20
234.938257
70
0
0
VERTEX
8
Image
10
43.463455
20
234.330526
70
0
0
VERTEX
8
Image
10
39.114247
20
233.140000
70
0
0
VERTEX
8
Image
10
35.218754
20
231.769741
70
0
0
VERTEX
8
Image
10
31.530961
20
230.252903
70
0
0
VERTEX
8
Image
10
28.044492
20
228.588854
70
0
0
VERTEX
8
Image
10
24.752968
20
226.776962
70
0
0
VERTEX
8
Image
10
21.650013
20
224.816593
70
0
0
VERTEX
8
Image
10
18.729249
20
222.707116
70
0
0
VERTEX
8
Image
10
15.984299
20
220.447897
70
0
0
VERTEX
8
Image
10
13.408785
20
218.038305
70
0
0
VERTEX
8
Image
10
10.955457
20
215.416779
70
0
0
VERTEX
8
Image
10
8.796677
20
212.741947
70
0
0
VERTEX
8
Image
10
6.942066
20
210.031029
70
0
0
VERTEX
8
Image
10
5.401245
20
207.301244
70
0
0
VERTEX
8
Image
10
4.183834
20
204.569811
70
0
0
VERTEX
8
Image
10
3.299453
20
201.853950
70
0
0
VERTEX
8
Image
10
2.757723
20
199.170879
70
0
0
VERTEX
8
Image
10
2.568265
20
196.537819
70
0
0
VERTEX
8
Image
10
2.646445
20
195.299349
70
0
0
VERTEX
8
Image
10
2.882296
20
194.144936
70
0
0
VERTEX
8
Image
10
3.262868
20
193.077288
70
0
0
VERTEX
8
Image
10
3.775210
20
192.099112
70
0
0
VERTEX
8
Image
10
5.143396
20
190.422009
70
0
0
VERTEX
8
Image
10
6.883241
20
189.135292
70
0
0
VERTEX
8
Image
10
8.891136
20
188.260623
70
0
0
VERTEX
8
Image
10
11.063469
20
187.819667
70
0
0
VERTEX
8
Image
10
13.296627
20
187.834087
70
0
0
VERTEX
8
Image
10
15.487001
20
188.325546
70
0
0
VERTEX
8
Image
10
15.487001
20
188.325546
70
0
0
SEQEND
8
Image
0
POLYLINE
8
Image
62
7
70
0
10
0.000000
20
0.000000
66
1
0
VERTEX
8
Image
10
202.540737
20
188.711716
70
0
0
VERTEX
8
Image
10
202.399011
20
188.607347
70
0
0
VERTEX
8
Image
10
202.087215
20
188.682730
70
0
0
VERTEX
8
Image
10
201.775419
20
188.777138
70
0
0
VERTEX
8
Image
10
201.633693
20
188.729840
70
0
0
VERTEX
8
Image
10
201.785802
20
188.582582
70
0
0
VERTEX
8
Image
10
202.151508
20
188.544116
70
0
0
VERTEX
8
Image
10
202.452921
20
188.673471
70
0
0
VERTEX
8
Image
10
202.540737
20
188.711719
70
0
0
VERTEX
8
Image
10
202.540737
20
188.711716
70
0
0
SEQEND
8
Image
0
POLYLINE
8
Image
62
7
70
0
10
0.000000
20
0.000000
66
1
0
VERTEX
8
Image
10
189.865650
20
189.609928
70
0
0
VERTEX
8
Image
10
189.407308
20
189.839548
70
0
0
VERTEX
8
Image
10
188.781799
20
190.332193
70
0
0
VERTEX
8
Image
10
188.154630
20
190.793542
70
0
0
VERTEX
8
Image
10
187.691307
20
190.929271
70
0
0
VERTEX
8
Image
10
187.453724
20
190.708054
70
0
0
VERTEX
8
Image
10
187.367113
20
190.362140
70
0
0
VERTEX
8
Image
10
187.417639
20
190.128887
70
0
0
VERTEX
8
Image
10
187.521444
20
190.258156
70
0
0
VERTEX
8
Image
10
187.769253
20
190.491733
70
0
0
VERTEX
8
Image
10
188.177637
20
190.588885
70
0
0
VERTEX
8
Image
10
188.497994
20
190.509896
70
0
0
VERTEX
8
Image
10
188.534189
20
190.319986
70
0
0
VERTEX
8
Image
10
188.345349
20
190.174242
70
0
0
VERTEX
8
Image
10
188.124720
20
190.201437
70
0
0
VERTEX
8
Image
10
187.999192
20
190.187001
70
0
0
VERTEX
8
Image
10
188.039022
20
189.941170
70
0
0
VERTEX
8
Image
10
188.321302
20
189.557386
70
0
0
VERTEX
8
Image
10
189.017264
20
189.838453
70
0
0
VERTEX
8
Image
10
189.449844
20
190.027248
70
0
0
VERTEX
8
Image
10
189.198292
20
189.655372
70
0
0
VERTEX
8
Image
10
188.955795
20
189.307750
70
0
0
VERTEX
8
Image
10
189.177125
20
189.390877
70
0
0
VERTEX
8
Image
10
189.434088
20
189.464312
70
0
0
VERTEX
8
Image
10
189.359899
20
189.110935
70
0
0
VERTEX
8
Image
10
189.270312
20
188.767451
70
0
0
VERTEX
8
Image
10
189.513384
20
188.948470
70
0
0
VERTEX
8
Image
10
189.826463
20
189.350140
70
0
0
VERTEX
8
Image
10
189.865676
20
189.609928
70
0
0
VERTEX
8
Image
10
189.865650
20
189.609928
70
0
0
SEQEND
8
Image
0
POLYLINE
8
Image
62
7
70
0
10
0.000000
20
0.000000
66
1
0
VERTEX
8
Image
10
200.242780
20
190.122528
70
0
0
VERTEX
8
Image
10
200.227114
20
190.512196
70
0
0
VERTEX
8
Image
10
200.038549
20
190.320965
70
0
0
VERTEX
8
Image
10
199.795989
20
189.744349
70
0
0
VERTEX
8
Image
10
199.838007
20
189.586026
70
0
0
VERTEX
8
Image
10
199.989892
20
189.530553
70
0
0
VERTEX
8
Image
10
200.150100
20
189.704446
70
0
0
VERTEX
8
Image
10
200.242780
20
190.122528
70
0
0
VERTEX
8
Image
10
200.242780
20
190.122528
70
0
0
SEQEND
8
Image
0
POLYLINE
8
Image
62
7
70
0
10
0.000000
20
0.000000
66
1
0
VERTEX
8
Image
10
203.088900
20
190.059719
70
0
0
VERTEX
8
Image
10
202.676415
20
190.324302
70
0
0
VERTEX
8
Image
10
202.427442
20
190.059719
70
0
0
VERTEX
8
Image
10
202.548618
20
189.872857
70
0
0
VERTEX
8
Image
10
202.839953
20
189.795136
70
0
0
VERTEX
8
Image
10
203.083231
20
189.872857
70
0
0
VERTEX
8
Image
10
203.088900
20
190.059719
70
0
0
VERTEX
8
Image
10
203.088900
20
190.059719
70
0
0
SEQEND
8
Image
0
POLYLINE
8
Image
62
7
70
0
10
0.000000
20
0.000000
66
1
0
VERTEX
8
Image
10
199.617994
20
190.470336
70
0
0
VERTEX
8
Image
10
199.656134
20
190.717876
70
0
0
VERTEX
8
Image
10
199.514013
20
190.719303
70
0
0
VERTEX
8
Image
10
199.252446
20
190.308686
70
0
0
VERTEX
8
Image
10
199.369259
20
190.074903
70
0
0
VERTEX
8
Image
10
199.617994
20
190.470336
70
0
0
VERTEX
8
Image
10
199.617994
20
190.470336
70
0
0
SEQEND
8
Image
0
POLYLINE
8
Image
62
7
70
0
10
0.000000
20
0.000000
66
1
0
VERTEX
8
Image
10
172.132699
20
191.391648
70
0
0
VERTEX
8
Image
10
169.945853
20
192.092345
70
0
0
VERTEX
8
Image
10
168.045958
20
193.181451
70
0
0
VERTEX
8
Image
10
166.994043
20
193.740189
70
0
0
VERTEX
8
Image
10
165.598565
20
193.980987
70
0
0
VERTEX
8
Image
10
164.062918
20
193.931782
70
0
0
VERTEX
8
Image
10
164.577848
20
193.533335
70
0
0
VERTEX
8
Image
10
165.821915
20
192.859804
70
0
0
VERTEX
8
Image
10
168.693120
20
191.597234
70
0
0
VERTEX
8
Image
10
170.093756
20
191.285410
70
0
0
VERTEX
8
Image
10
171.603533
20
191.163204
70
0
0
VERTEX
8
Image
10
172.818451
20
191.204589
70
0
0
VERTEX
8
Image
10
172.132699
20
191.391648
70
0
0
VERTEX
8
Image
10
172.132699
20
191.391648
70
0
0
SEQEND
8
Image
0
POLYLINE
8
Image
62
7
70
0
10
0.000000
20
0.000000
66
1
0
VERTEX
8
Image
10
175.572278
20
192.036683
70
0
0
VERTEX
8
Image
10
176.630610
20
192.385480
70
0
0
VERTEX
8
Image
10
175.175404
20
192.415809
70
0
0
VERTEX
8
Image
10
173.727291
20
192.608602
70
0
0
VERTEX
8
Image
10
172.292682
20
193.110652
70
0
0
VERTEX
8
Image
10
171.022297
20
193.865862
70
0
0
VERTEX
8
Image
10
171.332764
20
193.875299
70
0
0
VERTEX
8
Image
10
172.275325
20
193.593336
70
0
0
VERTEX
8
Image
10
173.537531
20
193.259646
70
0
0
VERTEX
8
Image
10
174.900527
20
193.064443
70
0
0
VERTEX
8
Image
10
176.136099
20
193.028065
70
0
0
VERTEX
8
Image
10
177.016031
20
193.170850
70
0
0
VERTEX
8
Image
10
177.305520
20
193.317634
70
0
0
VERTEX
8
Image
10
177.253898
20
193.456187
70
0
0
VERTEX
8
Image
10
175.825407
20
193.891285
70
0
0
VERTEX
8
Image
10
174.423210
20
194.192380
70
0
0
VERTEX
8
Image
10
173.085957
20
194.324745
70
0
0
VERTEX
8
Image
10
169.653062
20
194.118356
70
0
0
VERTEX
8
Image
10
167.702588
20
193.896172
70
0
0
VERTEX
8
Image
10
169.785353
20
192.917419
70
0
0
VERTEX
8
Image
10
172.264993
20
191.813830
70
0
0
VERTEX
8
Image
10
173.248841
20
191.751433
70
0
0
VERTEX
8
Image
10
174.614735
20
191.838841
70
0
0
VERTEX
8
Image
10
175.632580
20
191.969456
70
0
0
VERTEX
8
Image
10
175.782830
20
192.017655
70
0
0
VERTEX
8
Image
10
175.572281
20
192.036683
70
0
0
VERTEX
8
Image
10
175.572278
20
192.036683
70
0
0
SEQEND
8
Image
0
POLYLINE
8
Image
62
7
70
0
10
0.000000
20
0.000000
66
1
0
VERTEX
8
Image
10
195.283701
20
192.440966
70
0
0
VERTEX
8
Image
10
195.201399
20
192.627827
70
0
0
VERTEX
8
Image
10
195.003508
20
192.705549
70
0
0
VERTEX
8
Image
10
194.853658
20
192.627827
70
0
0
VERTEX
8
Image
10
194.886827
20
192.440966
70
0
0
VERTEX
8
Image
10
195.167046
20
192.176383
70
0
0
VERTEX
8
Image
10
195.283701
20
192.440966
70
0
0
VERTEX
8
Image
10
195.283701
20
192.440966
70
0
0
SEQEND
8
Image
0
POLYLINE
8
Image
62
7
70
0
10
0.000000
20
0.000000
66
1
0
VERTEX
8
Image
10
195.989265
20
192.826201
70
0
0
VERTEX
8
Image
10
195.924498
20
193.058246
70
0
0
VERTEX
8
Image
10
195.768788
20
193.075168
70
0
0
VERTEX
8
Image
10
195.613054
20
193.074189
70
0
0
VERTEX
8
Image
10
195.548284
20
193.263197
70
0
0
VERTEX
8
Image
10
195.498351
20
193.442295
70
0
0
VERTEX
8
Image
10
195.378290
20
193.417497
70
0
0
VERTEX
8
Image
10
195.356580
20
193.178979
70
0
0
VERTEX
8
Image
10
195.542992
20
192.844235
70
0
0
VERTEX
8
Image
10
195.920999
20
192.468249
70
0
0
VERTEX
8
Image
10
195.989265
20
192.826191
70
0
0
VERTEX
8
Image
10
195.989265
20
192.826201
70
0
0
SEQEND
8
Image
0
POLYLINE
8
Image
62
7
70
0
10
0.000000
20
0.000000
66
1
0
VERTEX
8
Image
10
196.871199
20
194.145139
70
0
0
VERTEX
8
Image
10
196.792669
20
194.472607
70
0
0
VERTEX
8
Image
10
196.581077
20
194.689948
70
0
0
VERTEX
8
Image
10
196.272420
20
194.776159
70
0
0
VERTEX
8
Image
10
195.902693
20
194.710236
70
0
0
VERTEX
8
Image
10
195.634578
20
194.505118
70
0
0
VERTEX
8
Image
10
195.815486
20
194.157625
70
0
0
VERTEX
8
Image
10
196.156289
20
193.873852
70
0
0
VERTEX
8
Image
10
196.499652
20
193.776544
70
0
0
VERTEX
8
Image
10
196.764860
20
193.866654
70
0
0
VERTEX
8
Image
10
196.871199
20
194.145137
70
0
0
VERTEX
8
Image
10
196.871199
20
194.145139
70
0
0
SEQEND
8
Image
0
POLYLINE
8
Image
62
7
70
0
10
0.000000
20
0.000000
66
1
0
VERTEX
8
Image
10
178.918764
20
194.717485
70
0
0
VERTEX
8
Image
10
179.263210
20
194.805778
70
0
0
VERTEX
8
Image
10
179.544639
20
195.047640
70
0
0
VERTEX
8
Image
10
179.936518
20
195.853963
70
0
0
VERTEX
8
Image
10
180.130537
20
196.860244
70
0
0
VERTEX
8
Image
10
180.162838
20
197.790273
70
0
0
VERTEX
8
Image
10
180.123196
20
198.658666
70
0
0
VERTEX
8
Image
10
180.019852
20
197.864917
70
0
0
VERTEX
8
Image
10
179.837510
20
196.950501
70
0
0
VERTEX
8
Image
10
179.552622
20
196.232281
70
0
0
VERTEX
8
Image
10
179.162197
20
195.704743
70
0
0
VERTEX
8
Image
10
178.663245
20
195.362372
70
0
0
VERTEX
8
Image
10
177.953525
20
195.040142
70
0
0
VERTEX
8
Image
10
178.509475
20
195.658779
70
0
0
VERTEX
8
Image
10
179.260179
20
196.655056
70
0
0
VERTEX
8
Image
10
179.184456
20
196.806530
70
0
0
VERTEX
8
Image
10
178.820487
20
196.771509
70
0
0
VERTEX
8
Image
10
177.899018
20
196.608950
70
0
0
VERTEX
8
Image
10
177.713819
20
196.527834
70
0
0
VERTEX
8
Image
10
177.716639
20
196.364898
70
0
0
VERTEX
8
Image
10
177.963915
20
196.289341
70
0
0
VERTEX
8
Image
10
178.366457
20
196.418304
70
0
0
VERTEX
8
Image
10
178.782171
20
196.570931
70
0
0
VERTEX
8
Image
10
178.858069
20
196.444535
70
0
0
VERTEX
8
Image
10
178.101753
20
195.669579
70
0
0
VERTEX
8
Image
10
177.444464
20
195.245399
70
0
0
VERTEX
8
Image
10
177.425103
20
195.619822
70
0
0
VERTEX
8
Image
10
177.387196
20
196.021950
70
0
0
VERTEX
8
Image
10
177.034343
20
196.145128
70
0
0
VERTEX
8
Image
10
176.647717
20
196.047976
70
0
0
VERTEX
8
Image
10
176.408964
20
195.814399
70
0
0
VERTEX
8
Image
10
176.298750
20
195.621986
70
0
0
VERTEX
8
Image
10
176.254625
20
195.822918
70
0
0
VERTEX
8
Image
10
176.414747
20
196.132808
70
0
0
VERTEX
8
Image
10
176.829047
20
196.401461
70
0
0
VERTEX
8
Image
10
177.083105
20
196.554733
70
0
0
VERTEX
8
Image
10
177.071987
20
196.674273
70
0
0
VERTEX
8
Image
10
176.412506
20
196.699064
70
0
0
VERTEX
8
Image
10
176.315860
20
196.765157
70
0
0
VERTEX
8
Image
10
176.389779
20
196.977278
70
0
0
VERTEX
8
Image
10
176.429869
20
197.174895
70
0
0
VERTEX
8
Image
10
176.144860
20
197.124429
70
0
0
VERTEX
8
Image
10
175.918974
20
197.084536
70
0
0
VERTEX
8
Image
10
175.784476
20
197.215073
70
0
0
VERTEX
8
Image
10
175.700532
20
198.203943
70
0
0
VERTEX
8
Image
10
175.484349
20
199.785910
70
0
0
VERTEX
8
Image
10
175.282901
20
199.936917
70
0
0
VERTEX
8
Image
10
175.075484
20
199.540921
70
0
0
VERTEX
8
Image
10
174.872836
20
199.074480
70
0
0
VERTEX
8
Image
10
174.509612
20
199.436834
70
0
0
VERTEX
8
Image
10
174.232378
20
199.706985
70
0
0
VERTEX
8
Image
10
174.117072
20
199.635276
70
0
0
VERTEX
8
Image
10
174.034763
20
199.412700
70
0
0
VERTEX
8
Image
10
173.836873
20
199.320124
70
0
0
VERTEX
8
Image
10
173.679012
20
199.384891
70
0
0
VERTEX
8
Image
10
173.692942
20
199.540609
70
0
0
VERTEX
8
Image
10
173.679438
20
199.696328
70
0
0
VERTEX
8
Image
10
173.455614
20
199.761096
70
0
0
VERTEX
8
Image
10
173.231790
20
199.696328
70
0
0
VERTEX
8
Image
10
173.218286
20
199.540609
70
0
0
VERTEX
8
Image
10
173.135065
20
199.391028
70
0
0
VERTEX
8
Image
10
172.743627
20
199.341012
70
0
0
VERTEX
8
Image
10
172.409311
20
199.394964
70
0
0
VERTEX
8
Image
10
172.463428
20
199.495352
70
0
0
VERTEX
8
Image
10
172.794157
20
199.886953
70
0
0
VERTEX
8
Image
10
172.716435
20
200.021237
70
0
0
VERTEX
8
Image
10
172.529574
20
199.981581
70
0
0
VERTEX
8
Image
10
172.364756
20
199.959897
70
0
0
VERTEX
8
Image
10
172.256041
20
200.106753
70
0
0
VERTEX
8
Image
10
172.252558
20
200.775330
70
0
0
VERTEX
8
Image
10
172.189215
20
200.865040
70
0
0
VERTEX
8
Image
10
171.966390
20
200.709184
70
0
0
VERTEX
8
Image
10
171.528806
20
200.416269
70
0
0
VERTEX
8
Image
10
171.138514
20
200.375918
70
0
0
VERTEX
8
Image
10
170.879935
20
200.568346
70
0
0
VERTEX
8
Image
10
170.837489
20
200.973767
70
0
0
VERTEX
8
Image
10
170.869298
20
201.297055
70
0
0
VERTEX
8
Image
10
170.790668
20
201.238350
70
0
0
VERTEX
8
Image
10
170.511198
20
201.013789
70
0
0
VERTEX
8
Image
10
170.060133
20
200.938313
70
0
0
VERTEX
8
Image
10
169.701698
20
200.987723
70
0
0
VERTEX
8
Image
10
169.949889
20
201.090007
70
0
0
VERTEX
8
Image
10
170.237217
20
201.276190
70
0
0
VERTEX
8
Image
10
170.402246
20
201.571817
70
0
0
VERTEX
8
Image
10
170.406026
20
201.845526
70
0
0
VERTEX
8
Image
10
170.209609
20
201.965954
70
0
0
VERTEX
8
Image
10
169.555192
20
202.693557
70
0
0
VERTEX
8
Image
10
169.104076
20
203.421160
70
0
0
VERTEX
8
Image
10
169.088386
20
202.759703
70
0
0
VERTEX
8
Image
10
169.054742
20
202.535747
70
0
0
VERTEX
8
Image
10
168.966781
20
202.570678
70
0
0
VERTEX
8
Image
10
168.605964
20
203.448531
70
0
0
VERTEX
8
Image
10
167.917973
20
205.020728
70
0
0
VERTEX
8
Image
10
166.920683
20
206.789525
70
0
0
VERTEX
8
Image
10
165.776939
20
208.490978
70
0
0
VERTEX
8
Image
10
164.649586
20
209.861142
70
0
0
VERTEX
8
Image
10
163.760614
20
210.754458
70
0
0
VERTEX
8
Image
10
164.188237
20
210.089308
70
0
0
VERTEX
8
Image
10
165.043288
20
208.663052
70
0
0
VERTEX
8
Image
10
165.974689
20
206.773449
70
0
0
VERTEX
8
Image
10
166.806265
20
204.805943
70
0
0
VERTEX
8
Image
10
167.361839
20
203.145978
70
0
0
VERTEX
8
Image
10
167.750618
20
200.574054
70
0
0
VERTEX
8
Image
10
167.710617
20
199.530343
70
0
0
VERTEX
8
Image
10
167.509093
20
198.803303
70
0
0
VERTEX
8
Image
10
167.420806
20
198.534872
70
0
0
VERTEX
8
Image
10
167.521737
20
198.311780
70
0
0
VERTEX
8
Image
10
168.501279
20
197.786347
70
0
0
VERTEX
8
Image
10
170.228310
20
197.121574
70
0
0
VERTEX
8
Image
10
171.761737
20
196.691925
70
0
0
VERTEX
8
Image
10
173.129301
20
196.491372
70
0
0
VERTEX
8
Image
10
174.358742
20
196.513890
70
0
0
VERTEX
8
Image
10
175.836851
20
196.680760
70
0
0
VERTEX
8
Image
10
174.976956
20
195.996892
70
0
0
VERTEX
8
Image
10
174.117061
20
195.054847
70
0
0
VERTEX
8
Image
10
174.369655
20
194.758417
70
0
0
VERTEX
8
Image
10
174.976956
20
194.408273
70
0
0
VERTEX
8
Image
10
175.930454
20
194.241434
70
0
0
VERTEX
8
Image
10
177.001268
20
194.371632
70
0
0
VERTEX
8
Image
10
178.918753
20
194.717485
70
0
0
VERTEX
8
Image
10
178.918764
20
194.717485
70
0
0
SEQEND
8
Image
0
POLYLINE
8
Image
62
7
70
0
10
0.000000
20
0.000000
66
1
0
VERTEX
8
Image
10
170.680829
20
199.841630
70
0
0
VERTEX
8
Image
10
170.483555
20
200.031188
70
0
0
VERTEX
8
Image
10
170.860936
20
200.047237
70
0
0
VERTEX
8
Image
10
171.228010
20
199.955134
70
0
0
VERTEX
8
Image
10
171.305004
20
199.794365
70
0
0
VERTEX
8
Image
10
171.114322
20
199.607538
70
0
0
VERTEX
8
Image
10
170.680829
20
199.841630
70
0
0
VERTEX
8
Image
10
170.680829
20
199.841630
70
0
0
SEQEND
8
Image
0
POLYLINE
8
Image
62
7
70
0
10
0.000000
20
0.000000
66
1
0
VERTEX
8
Image
10
184.198679
20
194.635999
70
0
0
VERTEX
8
Image
10
183.952486
20
194.784958
70
0
0
VERTEX
8
Image
10
183.760794
20
194.751059
70
0
0
VERTEX
8
Image
10
183.679909
20
194.577214
70
0
0
VERTEX
8
Image
10
183.766139
20
194.306334
70
0
0
VERTEX
8
Image
10
183.970324
20
194.152893
70
0
0
VERTEX
8
Image
10
184.212569
20
194.186303
70
0
0
VERTEX
8
Image
10
184.344666
20
194.381777
70
0
0
VERTEX
8
Image
10
184.198811
20
194.635999
70
0
0
VERTEX
8
Image
10
184.198679
20
194.635999
70
0
0
SEQEND
8
Image
0
POLYLINE
8
Image
62
7
70
0
10
0.000000
20
0.000000
66
1
0
VERTEX
8
Image
10
183.810562
20
195.880545
70
0
0
VERTEX
8
Image
10
183.817858
20
196.337872
70
0
0
VERTEX
8
Image
10
183.613421
20
196.076886
70
0
0
VERTEX
8
Image
10
183.474211
20
195.671292
70
0
0
VERTEX
8
Image
10
183.511054
20
195.349283
70
0
0
VERTEX
8
Image
10
183.506933
20
195.163902
70
0
0
VERTEX
8
Image
10
183.269093
20
195.086796
70
0
0
VERTEX
8
Image
10
183.010327
20
194.977703
70
0
0
VERTEX
8
Image
10
183.028322
20
194.660960
70
0
0
VERTEX
8
Image
10
183.210703
20
194.390203
70
0
0
VERTEX
8
Image
10
183.467398
20
194.727106
70
0
0
VERTEX
8
Image
10
183.810562
20
195.880545
70
0
0
VERTEX
8
Image
10
183.810562
20
195.880545
70
0
0
SEQEND
8
Image
0
POLYLINE
8
Image
62
7
70
0
10
0.000000
20
0.000000
66
1
0
VERTEX
8
Image
10
191.720959
20
195.358713
70
0
0
VERTEX
8
Image
10
191.602832
20
195.658024
70
0
0
VERTEX
8
Image
10
191.106465
20
195.733434
70
0
0
VERTEX
8
Image
10
190.609065
20
195.597462
70
0
0
VERTEX
8
Image
10
190.374020
20
195.302928
70
0
0
VERTEX
8
Image
10
190.493604
20
195.006052
70
0
0
VERTEX
8
Image
10
190.988514
20
194.928207
70
0
0
VERTEX
8
Image
10
191.487262
20
195.061926
70
0
0
VERTEX
8
Image
10
191.720959
20
195.358713
70
0
0
VERTEX
8
Image
10
191.720959
20
195.358713
70
0
0
SEQEND
8
Image
0
POLYLINE
8
Image
62
7
70
0
10
0.000000
20
0.000000
66
1
0
VERTEX
8
Image
10
190.668765
20
195.326704
70
0
0
VERTEX
8
Image
10
190.719598
20
195.455462
70
0
0
VERTEX
8
Image
10
191.050029
20
195.428137
70
0
0
VERTEX
8
Image
10
191.561194
20
195.196882
70
0
0
VERTEX
8
Image
10
191.198301
20
195.086796
70
0
0
VERTEX
8
Image
10
190.668765
20
195.326704
70
0
0
VERTEX
8
Image
10
190.668765
20
195.326704
70
0
0
SEQEND
8
Image
0
POLYLINE
8
Image
62
7
70
0
10
0.000000
20
0.000000
66
1
0
VERTEX
8
Image
10
172.529574
20
195.329773
70
0
0
VERTEX
8
Image
10
172.948609
20
195.519909
70
0
0
VERTEX
8
Image
10
172.213156
20
195.709576
70
0
0
VERTEX
8
Image
10
168.244411
20
196.846582
70
0
0
VERTEX
8
Image
10
165.665782
20
197.547728
70
0
0
VERTEX
8
Image
10
163.666043
20
197.903025
70
0
0
VERTEX
8
Image
10
161.771877
20
198.121470
70
0
0
VERTEX
8
Image
10
159.646129
20
198.544346
70
0
0
VERTEX
8
Image
10
154.273347
20
200.103310
70
0
0
VERTEX
8
Image
10
150.111214
20
201.418554
70
0
0
VERTEX
8
Image
10
149.167976
20
201.660770
70
0
0
VERTEX
8
Image
10
148.982229
20
201.626353
70
0
0
VERTEX
8
Image
10
151.116131
20
200.444952
70
0
0
VERTEX
8
Image
10
154.405638
20
198.990866
70
0
0
VERTEX
8
Image
10
156.756867
20
198.166154
70
0
0
VERTEX
8
Image
10
159.484782
20
197.384991
70
0
0
VERTEX
8
Image
10
166.311873
20
195.890511
70
0
0
VERTEX
8
Image
10
170.577876
20
195.198911
70
0
0
VERTEX
8
Image
10
171.687376
20
195.175570
70
0
0
VERTEX
8
Image
10
172.529574
20
195.329773
70
0
0
VERTEX
8
Image
10
172.529574
20
195.329773
70
0
0
SEQEND
8
Image
0
POLYLINE
8
Image
62
7
70
0
10
0.000000
20
0.000000
66
1
0
VERTEX
8
Image
10
185.443039
20
198.665662
70
0
0
VERTEX
8
Image
10
185.285371
20
198.630902
70
0
0
VERTEX
8
Image
10
185.114268
20
198.339344
70
0
0
VERTEX
8
Image
10
185.036501
20
198.026620
70
0
0
VERTEX
8
Image
10
185.262382
20
198.191230
70
0
0
VERTEX
8
Image
10
185.451076
20
198.465201
70
0
0
VERTEX
8
Image
10
185.443039
20
198.665662
70
0
0
VERTEX
8
Image
10
185.443039
20
198.665662
70
0
0
SEQEND
8
Image
0
POLYLINE
8
Image
62
7
70
0
10
0.000000
20
0.000000
66
1
0
VERTEX
8
Image
10
189.583869
20
198.772670
70
0
0
VERTEX
8
Image
10
189.612398
20
198.995439
70
0
0
VERTEX
8
Image
10
189.467214
20
199.185160
70
0
0
VERTEX
8
Image
10
189.277290
20
199.181366
70
0
0
VERTEX
8
Image
10
189.198292
20
198.938860
70
0
0
VERTEX
8
Image
10
189.306030
20
198.543864
70
0
0
VERTEX
8
Image
10
189.583869
20
198.772670
70
0
0
VERTEX
8
Image
10
189.583869
20
198.772670
70
0
0
SEQEND
8
Image
0
POLYLINE
8
Image
62
7
70
0
10
0.000000
20
0.000000
66
1
0
VERTEX
8
Image
10
187.875377
20
199.055535
70
0
0
VERTEX
8
Image
10
187.793075
20
199.242397
70
0
0
VERTEX
8
Image
10
187.595184
20
199.320118
70
0
0
VERTEX
8
Image
10
187.445334
20
199.242397
70
0
0
VERTEX
8
Image
10
187.478503
20
199.055535
70
0
0
VERTEX
8
Image
10
187.758722
20
198.790952
70
0
0
VERTEX
8
Image
10
187.875377
20
199.055535
70
0
0
VERTEX
8
Image
10
187.875377
20
199.055535
70
0
0
SEQEND
8
Image
0
POLYLINE
8
Image
62
7
70
0
10
0.000000
20
0.000000
66
1
0
VERTEX
8
Image
10
163.136877
20
199.461792
70
0
0
VERTEX
8
Image
10
159.686416
20
199.965632
70
0
0
VERTEX
8
Image
10
155.585379
20
200.508900
70
0
0
VERTEX
8
Image
10
154.934796
20
200.580640
70
0
0
VERTEX
8
Image
10
155.331679
20
200.384806
70
0
0
VERTEX
8
Image
10
158.654372
20
199.768533
70
0
0
VERTEX
8
Image
10
162.475420
20
199.368220
70
0
0
VERTEX
8
Image
10
163.051715
20
199.393102
70
0
0
VERTEX
8
Image
10
163.136877
20
199.461792
70
0
0
VERTEX
8
Image
10
163.136877
20
199.461792
70
0
0
SEQEND
8
Image
0
POLYLINE
8
Image
62
7
70
0
10
0.000000
20
0.000000
66
1
0
VERTEX
8
Image
10
185.669125
20
200.230287
70
0
0
VERTEX
8
Image
10
185.442616
20
200.475049
70
0
0
VERTEX
8
Image
10
185.107283
20
200.477973
70
0
0
VERTEX
8
Image
10
184.805879
20
200.299433
70
0
0
VERTEX
8
Image
10
184.716679
20
200.100863
70
0
0
VERTEX
8
Image
10
184.836811
20
199.917629
70
0
0
VERTEX
8
Image
10
185.163401
20
199.785094
70
0
0
VERTEX
8
Image
10
185.711836
20
199.772658
70
0
0
VERTEX
8
Image
10
185.669125
20
200.230287
70
0
0
VERTEX
8
Image
10
185.669125
20
200.230287
70
0
0
SEQEND
8
Image
0
POLYLINE
8
Image
62
7
70
0
10
0.000000
20
0.000000
66
1
0
VERTEX
8
Image
10
165.511330
20
200.629894
70
0
0
VERTEX
8
Image
10
165.822302
20
201.514130
70
0
0
VERTEX
8
Image
10
165.914258
20
202.540639
70
0
0
VERTEX
8
Image
10
165.787188
20
203.709455
70
0
0
VERTEX
8
Image
10
165.441080
20
205.020615
70
0
0
VERTEX
8
Image
10
164.091704
20
208.070101
70
0
0
VERTEX
8
Image
10
161.866037
20
211.689374
70
0
0
VERTEX
8
Image
10
160.452648
20
213.607600
70
0
0
VERTEX
8
Image
10
161.168806
20
212.218540
70
0
0
VERTEX
8
Image
10
162.594813
20
209.532478
70
0
0
VERTEX
8
Image
10
163.629790
20
207.039236
70
0
0
VERTEX
8
Image
10
164.175255
20
205.019999
70
0
0
VERTEX
8
Image
10
164.233646
20
204.276003
70
0
0
VERTEX
8
Image
10
164.132728
20
203.755953
70
0
0
VERTEX
8
Image
10
163.962351
20
203.460103
70
0
0
VERTEX
8
Image
10
163.796297
20
203.460431
70
0
0
VERTEX
8
Image
10
163.187667
20
204.611778
70
0
0
VERTEX
8
Image
10
161.674500
20
208.131206
70
0
0
VERTEX
8
Image
10
160.718586
20
210.086879
70
0
0
VERTEX
8
Image
10
161.165514
20
208.684118
70
0
0
VERTEX
8
Image
10
162.758272
20
203.950321
70
0
0
VERTEX
8
Image
10
163.592116
20
201.481241
70
0
0
VERTEX
8
Image
10
164.286485
20
200.155974
70
0
0
VERTEX
8
Image
10
164.601252
20
199.898288
70
0
0
VERTEX
8
Image
10
164.905013
20
199.897774
70
0
0
VERTEX
8
Image
10
165.205721
20
200.144841
70
0
0
VERTEX
8
Image
10
165.511330
20
200.629894
70
0
0
VERTEX
8
Image
10
165.511330
20
200.629894
70
0
0
SEQEND
8
Image
0
POLYLINE
8
Image
62
7
70
0
10
0.000000
20
0.000000
66
1
0
VERTEX
8
Image
10
158.638966
20
201.701365
70
0
0
VERTEX
8
Image
10
158.278805
20
201.896132
70
0
0
VERTEX
8
Image
10
156.981415
20
201.965948
70
0
0
VERTEX
8
Image
10
154.070208
20
202.190185
70
0
0
VERTEX
8
Image
10
150.745573
20
202.787930
70
0
0
VERTEX
8
Image
10
147.513667
20
203.646739
70
0
0
VERTEX
8
Image
10
144.880650
20
204.654167
70
0
0
VERTEX
8
Image
10
144.233386
20
204.924731
70
0
0
VERTEX
8
Image
10
144.324356
20
204.764382
70
0
0
VERTEX
8
Image
10
145.337554
20
204.188129
70
0
0
VERTEX
8
Image
10
147.002644
20
203.470811
70
0
0
VERTEX
8
Image
10
151.026178
20
202.112480
70
0
0
VERTEX
8
Image
10
153.209506
20
201.689098
70
0
0
VERTEX
8
Image
10
155.634778
20
201.456301
70
0
0
VERTEX
8
Image
10
157.658947
20
201.448815
70
0
0
VERTEX
8
Image
10
158.319666
20
201.540415
70
0
0
VERTEX
8
Image
10
158.638966
20
201.701365
70
0
0
VERTEX
8
Image
10
158.638966
20
201.701365
70
0
0
SEQEND
8
Image
0
POLYLINE
8
Image
62
7
70
0
10
0.000000
20
0.000000
66
1
0
VERTEX
8
Image
10
169.845855
20
206.225716
70
0
0
VERTEX
8
Image
10
170.422654
20
206.557818
70
0
0
VERTEX
8
Image
10
170.755190
20
207.019687
70
0
0
VERTEX
8
Image
10
170.865727
20
207.548374
70
0
0
VERTEX
8
Image
10
170.776533
20
208.080929
70
0
0
VERTEX
8
Image
10
170.509874
20
208.554402
70
0
0
VERTEX
8
Image
10
170.088017
20
208.905846
70
0
0
VERTEX
8
Image
10
169.533228
20
209.072309
70
0
0
VERTEX
8
Image
10
168.867774
20
208.990844
70
0
0
VERTEX
8
Image
10
168.346079
20
208.671508
70
0
0
VERTEX
8
Image
10
168.008146
20
208.160532
70
0
0
VERTEX
8
Image
10
167.894150
20
207.556989
70
0
0
VERTEX
8
Image
10
168.044262
20
206.959952
70
0
0
VERTEX
8
Image
10
168.527224
20
206.276657
70
0
0
VERTEX
8
Image
10
168.984368
20
205.938744
70
0
0
VERTEX
8
Image
10
169.845855
20
206.225716
70
0
0
VERTEX
8
Image
10
169.845855
20
206.225716
70
0
0
SEQEND
8
Image
0
POLYLINE
8
Image
62
7
70
0
10
0.000000
20
0.000000
66
1
0
VERTEX
8
Image
10
168.399309
20
206.841491
70
0
0
VERTEX
8
Image
10
168.272193
20
207.462711
70
0
0
VERTEX
8
Image
10
168.379584
20
207.983311
70
0
0
VERTEX
8
Image
10
168.699319
20
208.356897
70
0
0
VERTEX
8
Image
10
169.209240
20
208.537076
70
0
0
VERTEX
8
Image
10
169.742308
20
208.491773
70
0
0
VERTEX
8
Image
10
170.213280
20
208.267623
70
0
0
VERTEX
8
Image
10
170.549296
20
207.916560
70
0
0
VERTEX
8
Image
10
170.677493
20
207.490521
70
0
0
VERTEX
8
Image
10
170.591368
20
207.193886
70
0
0
VERTEX
8
Image
10
170.361866
20
206.934147
70
0
0
VERTEX
8
Image
10
169.645972
20
206.574712
70
0
0
VERTEX
8
Image
10
168.876292
20
206.510924
70
0
0
VERTEX
8
Image
10
168.579558
20
206.620744
70
0
0
VERTEX
8
Image
10
168.399309
20
206.841491
70
0
0
VERTEX
8
Image
10
168.399309
20
206.841491
70
0
0
SEQEND
8
Image
0
POLYLINE
8
Image
62
7
70
0
10
0.000000
20
0.000000
66
1
0
VERTEX
8
Image
10
62.198463
20
223.970332
70
0
0
VERTEX
8
Image
10
59.181789
20
228.126291
70
0
0
VERTEX
8
Image
10
53.311093
20
235.513995
70
0
0
VERTEX
8
Image
10
52.737093
20
236.123221
70
0
0
VERTEX
8
Image
10
52.424392
20
236.274825
70
0
0
VERTEX
8
Image
10
52.092813
20
236.221787
70
0
0
VERTEX
8
Image
10
51.979290
20
236.082831
70
0
0
VERTEX
8
Image
10
52.007841
20
235.842900
70
0
0
VERTEX
8
Image
10
52.514351
20
234.959908
70
0
0
VERTEX
8
Image
10
55.487318
20
230.880009
70
0
0
VERTEX
8
Image
10
60.631815
20
223.900062
70
0
0
VERTEX
8
Image
10
61.310436
20
223.290421
70
0
0
VERTEX
8
Image
10
61.676271
20
223.462928
70
0
0
VERTEX
8
Image
10
62.198463
20
223.970332
70
0
0
VERTEX
8
Image
10
62.198463
20
223.970332
70
0
0
SEQEND
8
Image
0
POLYLINE
8
Image
62
7
70
0
10
0.000000
20
0.000000
66
1
0
VERTEX
8
Image
10
50.243539
20
236.176632
70
0
0
VERTEX
8
Image
10
50.967836
20
236.309999
70
0
0
VERTEX
8
Image
10
51.087832
20
236.426128
70
0
0
VERTEX
8
Image
10
51.069238
20
236.598275
70
0
0
VERTEX
8
Image
10
49.951596
20
238.192840
70
0
0
VERTEX
8
Image
10
48.505544
20
240.331841
70
0
0
VERTEX
8
Image
10
47.815495
20
238.385881
70
0
0
VERTEX
8
Image
10
46.773015
20
235.915711
70
0
0
VERTEX
8
Image
10
46.572998
20
235.372841
70
0
0
VERTEX
8
Image
10
46.610226
20
235.269958
70
0
0
VERTEX
8
Image
10
46.760635
20
235.277727
70
0
0
VERTEX
8
Image
10
50.243539
20
236.176632
70
0
0
VERTEX
8
Image
10
50.243539
20
236.176632
70
0
0
SEQEND
8
Image
0
POLYLINE
8
Image
62
7
70
0
10
0.000000
20
0.000000
66
1
0
VERTEX
8
Image
10
52.385415
20
236.526228
70
0
0
VERTEX
8
Image
10
51.016438
20
238.204424
70
0
0
VERTEX
8
Image
10
49.300655
20
239.900917
70
0
0
VERTEX
8
Image
10
49.057059
20
239.996567
70
0
0
VERTEX
8
Image
10
49.111429
20
239.784742
70
0
0
VERTEX
8
Image
10
50.349528
20
238.015379
70
0
0
VERTEX
8
Image
10
51.167588
20
236.915656
70
0
0
VERTEX
8
Image
10
51.726106
20
236.388922
70
0
0
VERTEX
8
Image
10
52.385415
20
236.526228
70
0
0
VERTEX
8
Image
10
52.385415
20
236.526228
70
0
0
SEQEND
8
Image
0
POLYLINE
8
Image
62
7
70
0
10
0.000000
20
0.000000
66
1
0
VERTEX
8
Image
10
235.103443
20
34.778681
70
0
0
VERTEX
8
Image
10
231.399281
20
35.076012
70
0
0
VERTEX
8
Image
10
231.421608
20
35.091629
70
0
0
VERTEX
8
Image
10
231.793830
20
35.106044
70
0
0
VERTEX
8
Image
10
233.454862
20
35.130054
70
0
0
VERTEX
8
Image
10
239.511634
20
35.150256
70
0
0
VERTEX
8
Image
10
247.217713
20
35.245834
70
0
0
VERTEX
8
Image
10
248.554441
20
35.399384
70
0
0
VERTEX
8
Image
10
248.755755
20
35.511409
70
0
0
VERTEX
8
Image
10
248.707427
20
35.650292
70
0
0
VERTEX
8
Image
10
245.686763
20
36.186260
70
0
0
VERTEX
8
Image
10
241.313391
20
37.044077
70
0
0
VERTEX
8
Image
10
239.958048
20
37.527400
70
0
0
VERTEX
8
Image
10
239.047343
20
38.078230
70
0
0
VERTEX
8
Image
10
238.278439
20
38.714583
70
0
0
VERTEX
8
Image
10
239.010381
20
39.368903
70
0
0
VERTEX
8
Image
10
239.981348
20
39.994544
70
0
0
VERTEX
8
Image
10
241.289522
20
40.454415
70
0
0
VERTEX
8
Image
10
242.893819
20
40.738030
70
0
0
VERTEX
8
Image
10
244.753155
20
40.834899
70
0
0
VERTEX
8
Image
10
248.030607
20
40.529573
70
0
0
VERTEX
8
Image
10
249.461286
20
40.219096
70
0
0
VERTEX
8
Image
10
250.385228
20
39.866681
70
0
0
VERTEX
8
Image
10
250.483345
20
39.680365
70
0
0
VERTEX
8
Image
10
250.220723
20
39.486271
70
0
0
VERTEX
8
Image
10
248.729467
20
39.126687
70
0
0
VERTEX
8
Image
10
246.182618
20
38.501269
70
0
0
VERTEX
8
Image
10
245.343542
20
38.128423
70
0
0
VERTEX
8
Image
10
245.025305
20
37.798417
70
0
0
VERTEX
8
Image
10
245.633330
20
37.426417
70
0
0
VERTEX
8
Image
10
247.434439
20
37.007560
70
0
0
VERTEX
8
Image
10
250.281590
20
36.330721
70
0
0
VERTEX
8
Image
10
250.914676
20
36.003626
70
0
0
VERTEX
8
Image
10
251.110714
20
35.650890
70
0
0
VERTEX
8
Image
10
250.981754
20
35.364461
70
0
0
VERTEX
8
Image
10
250.499286
20
35.144758
70
0
0
VERTEX
8
Image
10
247.900290
20
34.743412
70
0
0
VERTEX
8
Image
10
245.402295
20
34.579878
70
0
0
VERTEX
8
Image
10
242.102665
20
34.532165
70
0
0
VERTEX
8
Image
10
235.103443
20
34.778681
70
0
0
VERTEX
8
Image
10
235.103443
20
34.778681
70
0
0
SEQEND
8
Image
 0 
ENDSEC
 0 
EOF