  0
SECTION
  2
HEADER
  9
$ACADVER
  1
AC1018
  9
$ACADMAINTVER
 70
     0
  9
$DWGCODEPAGE
  3
ANSI_1252
  9
$INSBASE
 10
0.0
 20
0.0
 30
0.0
  9
$EXTMIN
 10
1.000000000000000E+20
 20
1.000000000000000E+20
 30
1.000000000000000E+20
  9
$EXTMAX
 10
-1.000000000000000E+20
 20
-1.000000000000000E+20
 30
-1.000000000000000E+20
  9
$LIMMIN
 10
0.0
 20
0.0
  9
$LIMMAX
 10
12.0
 20
9.0
  9
$ORTHOMODE
 70
     0
  9
$REGENMODE
 70
     1
  9
$FILLMODE
 70
     1
  9
$QTEXTMODE
 70
     0
  9
$MIRRTEXT
 70
     1
  9
$LTSCALE
 40
1.0
  9
$ATTMODE
 70
     1
  9
$TEXTSIZE
 40
0.2
  9
$TRACEWID
 40
0.05
  9
$TEXTSTYLE
  7
Standard
  9
$CLAYER
  8
0
  9
$CELTYPE
  6
ByLayer
  9
$CECOLOR
 62
   256
  9
$CELTSCALE
 40
1.0
  9
$DISPSILH
 70
     0
  9
$DIMSCALE
 40
1.0
  9
$DIMASZ
 40
0.18
  9
$DIMEXO
 40
0.0625
  9
$DIMDLI
 40
0.38
  9
$DIMRND
 40
0.0
  9
$DIMDLE
 40
0.0
  9
$DIMEXE
 40
0.18
  9
$DIMTP
 40
0.0
  9
$DIMTM
 40
0.0
  9
$DIMTXT
 40
0.18
  9
$DIMCEN
 40
0.09
  9
$DIMTSZ
 40
0.0
  9
$DIMTOL
 70
     0
  9
$DIMLIM
 70
     0
  9
$DIMTIH
 70
     1
  9
$DIMTOH
 70
     1
  9
$DIMSE1
 70
     0
  9
$DIMSE2
 70
     0
  9
$DIMTAD
 70
     0
  9
$DIMZIN
 70
     0
  9
$DIMBLK
  1

  9
$DIMASO
 70
     1
  9
$DIMSHO
 70
     1
  9
$DIMPOST
  1

  9
$DIMAPOST
  1

  9
$DIMALT
 70
     0
  9
$DIMALTD
 70
     2
  9
$DIMALTF
 40
25.4
  9
$DIMLFAC
 40
1.0
  9
$DIMTOFL
 70
     0
  9
$DIMTVP
 40
0.0
  9
$DIMTIX
 70
     0
  9
$DIMSOXD
 70
     0
  9
$DIMSAH
 70
     0
  9
$DIMBLK1
  1

  9
$DIMBLK2
  1

  9
$DIMSTYLE
  2
Standard
  9
$DIMCLRD
 70
     0
  9
$DIMCLRE
 70
     0
  9
$DIMCLRT
 70
     0
  9
$DIMTFAC
 40
1.0
  9
$DIMGAP
 40
0.09
  9
$DIMJUST
 70
     0
  9
$DIMSD1
 70
     0
  9
$DIMSD2
 70
     0
  9
$DIMTOLJ
 70
     1
  9
$DIMTZIN
 70
     0
  9
$DIMALTZ
 70
     0
  9
$DIMALTTZ
 70
     0
  9
$DIMUPT
 70
     0
  9
$DIMDEC
 70
     4
  9
$DIMTDEC
 70
     4
  9
$DIMALTU
 70
     2
  9
$DIMALTTD
 70
     2
  9
$DIMTXSTY
  7
Standard
  9
$DIMAUNIT
 70
     0
  9
$DIMADEC
 70
     0
  9
$DIMALTRND
 40
0.0
  9
$DIMAZIN
 70
     0
  9
$DIMDSEP
 70
    46
  9
$DIMATFIT
 70
     3
  9
$DIMFRAC
 70
     0
  9
$DIMLDRBLK
  1

  9
$DIMLUNIT
 70
     2
  9
$DIMLWD
 70
    -2
  9
$DIMLWE
 70
    -2
  9
$DIMTMOVE
 70
     0
  9
$LUNITS
 70
     2
  9
$LUPREC
 70
     4
  9
$SKETCHINC
 40
0.1
  9
$FILLETRAD
 40
0.5
  9
$AUNITS
 70
     0
  9
$AUPREC
 70
     0
  9
$MENU
  1
.
  9
$ELEVATION
 40
0.0
  9
$PELEVATION
 40
0.0
  9
$THICKNESS
 40
0.0
  9
$LIMCHECK
 70
     0
  9
$CHAMFERA
 40
0.5
  9
$CHAMFERB
 40
0.5
  9
$CHAMFERC
 40
1.0
  9
$CHAMFERD
 40
0.0
  9
$SKPOLY
 70
     0
  9
$TDCREATE
 40
2459468.886160498
  9
$TDUCREATE
 40
2459468.594493831
  9
$TDUPDATE
 40
2459468.886160509
  9
$TDUUPDATE
 40
2459468.594493843
  9
$TDINDWG
 40
0.0000000116
  9
$TDUSRTIMER
 40
0.0000000116
  9
$USRTIMER
 70
     1
  9
$ANGBASE
 50
0.0
  9
$ANGDIR
 70
     0
  9
$PDMODE
 70
     0
  9
$PDSIZE
 40
0.0
  9
$PLINEWID
 40
0.0
  9
$SPLFRAME
 70
     0
  9
$SPLINETYPE
 70
     6
  9
$SPLINESEGS
 70
     8
  9
$HANDSEED
  5
105
  9
$SURFTAB1
 70
     6
  9
$SURFTAB2
 70
     6
  9
$SURFTYPE
 70
     6
  9
$SURFU
 70
     6
  9
$SURFV
 70
     6
  9
$UCSBASE
  2

  9
$UCSNAME
  2

  9
$UCSORG
 10
0.0
 20
0.0
 30
0.0
  9
$UCSXDIR
 10
1.0
 20
0.0
 30
0.0
  9
$UCSYDIR
 10
0.0
 20
1.0
 30
0.0
  9
$UCSORTHOREF
  2

  9
$UCSORTHOVIEW
 70
     0
  9
$UCSORGTOP
 10
0.0
 20
0.0
 30
0.0
  9
$UCSORGBOTTOM
 10
0.0
 20
0.0
 30
0.0
  9
$UCSORGLEFT
 10
0.0
 20
0.0
 30
0.0
  9
$UCSORGRIGHT
 10
0.0
 20
0.0
 30
0.0
  9
$UCSORGFRONT
 10
0.0
 20
0.0
 30
0.0
  9
$UCSORGBACK
 10
0.0
 20
0.0
 30
0.0
  9
$PUCSBASE
  2

  9
$PUCSNAME
  2

  9
$PUCSORG
 10
0.0
 20
0.0
 30
0.0
  9
$PUCSXDIR
 10
1.0
 20
0.0
 30
0.0
  9
$PUCSYDIR
 10
0.0
 20
1.0
 30
0.0
  9
$PUCSORTHOREF
  2

  9
$PUCSORTHOVIEW
 70
     0
  9
$PUCSORGTOP
 10
0.0
 20
0.0
 30
0.0
  9
$PUCSORGBOTTOM
 10
0.0
 20
0.0
 30
0.0
  9
$PUCSORGLEFT
 10
0.0
 20
0.0
 30
0.0
  9
$PUCSORGRIGHT
 10
0.0
 20
0.0
 30
0.0
  9
$PUCSORGFRONT
 10
0.0
 20
0.0
 30
0.0
  9
$PUCSORGBACK
 10
0.0
 20
0.0
 30
0.0
  9
$USERI1
 70
     0
  9
$USERI2
 70
     0
  9
$USERI3
 70
     0
  9
$USERI4
 70
     0
  9
$USERI5
 70
     0
  9
$USERR1
 40
0.0
  9
$USERR2
 40
0.0
  9
$USERR3
 40
0.0
  9
$USERR4
 40
0.0
  9
$USERR5
 40
0.0
  9
$WORLDVIEW
 70
     1
  9
$SHADEDGE
 70
     3
  9
$SHADEDIF
 70
    70
  9
$TILEMODE
 70
     1
  9
$MAXACTVP
 70
    64
  9
$PINSBASE
 10
0.0
 20
0.0
 30
0.0
  9
$PLIMCHECK
 70
     0
  9
$PEXTMIN
 10
1.000000000000000E+20
 20
1.000000000000000E+20
 30
1.000000000000000E+20
  9
$PEXTMAX
 10
-1.000000000000000E+20
 20
-1.000000000000000E+20
 30
-1.000000000000000E+20
  9
$PLIMMIN
 10
0.0
 20
0.0
  9
$PLIMMAX
 10
12.0
 20
9.0
  9
$UNITMODE
 70
     0
  9
$VISRETAIN
 70
     1
  9
$PLINEGEN
 70
     0
  9
$PSLTSCALE
 70
     1
  9
$TREEDEPTH
 70
  3020
  9
$CMLSTYLE
  2
Standard
  9
$CMLJUST
 70
     0
  9
$CMLSCALE
 40
1.0
  9
$PROXYGRAPHICS
 70
     1
  9
$MEASUREMENT
 70
     0
  9
$CELWEIGHT
370
    -1
  9
$ENDCAPS
280
     0
  9
$JOINSTYLE
280
     0
  9
$LWDISPLAY
290
     1
  9
$INSUNITS
 70
     1
  9
$HYPERLINKBASE
  1

  9
$STYLESHEET
  1

  9
$XEDIT
290
     1
  9
$CEPSNTYPE
380
     0
  9
$PSTYLEMODE
290
     1
  9
$FINGERPRINTGUID
  2
{E1D4B883-7747-4723-A1D1-B8F165D4F36C}
  9
$VERSIONGUID
  2
{FAEB1C32-E019-11D5-929B-00C0DF256EC4}
  9
$EXTNAMES
290
     1
  9
$PSVPSCALE
 40
0.0
  9
$OLESTARTUP
290
     0
  9
$SORTENTS
280
   127
  9
$INDEXCTL
280
     0
  9
$HIDETEXT
280
     1
  9
$XCLIPFRAME
290
     0
  9
$HALOGAP
280
     0
  9
$OBSCOLOR
 70
   257
  9
$OBSLTYPE
280
     0
  9
$INTERSECTIONDISPLAY
280
     0
  9
$INTERSECTIONCOLOR
 70
   257
  9
$DIMASSOC
280
     2
  9
$PROJECTNAME
  1

  0
ENDSEC
  0
SECTION
  2
CLASSES
  0
CLASS
  1
ACDBDICTIONARYWDFLT
  2
AcDbDictionaryWithDefault
  3
ObjectDBX Classes
 90
        0
 91
        3
280
     0
281
     0
  0
CLASS
  1
VISUALSTYLE
  2
AcDbVisualStyle
  3
ObjectDBX Classes
 90
     4095
 91
        3
280
     0
281
     0
  0
ENDSEC
  0
SECTION
  2
TABLES
  0
TABLE
  2
VPORT
  5
8
330
0
100
AcDbSymbolTable
 70
     1
  0
VPORT
  5
29
330
8
100
AcDbSymbolTableRecord
100
AcDbViewportTableRecord
  2
*Active
 70
     0
 10
0.0
 20
0.0
 11
1.0
 21
1.0
 12
0.0
 22
0.0
 13
0.0
 23
0.0
 14
0.5
 24
0.5
 15
0.5
 25
0.5
 16
0.0
 26
0.0
 36
1.0
 17
7.500058998776026
 27
-7.500058998776026
 37
0.0
 40
15.00011799755205
 41
1.0
 42
50.0
 43
0.0
 44
0.0
 50
0.0
 51
0.0
 71
     0
 72
   100
 73
     1
 74
     3
 75
     0
 76
     0
 77
     0
 78
     0
281
     0
 65
     1
110
0.0
120
0.0
130
0.0
111
1.0
121
0.0
131
0.0
112
0.0
122
1.0
132
0.0
 79
     0
146
0.0
  0
ENDTAB
  0
TABLE
  2
LTYPE
  5
5
330
0
100
AcDbSymbolTable
 70
     1
  0
LTYPE
  5
14
330
5
100
AcDbSymbolTableRecord
100
AcDbLinetypeTableRecord
  2
ByBlock
 70
     0
  3

 72
    65
 73
     0
 40
0.0
  0
LTYPE
  5
15
330
5
100
AcDbSymbolTableRecord
100
AcDbLinetypeTableRecord
  2
ByLayer
 70
     0
  3

 72
    65
 73
     0
 40
0.0
  0
LTYPE
  5
16
330
5
100
AcDbSymbolTableRecord
100
AcDbLinetypeTableRecord
  2
Continuous
 70
     0
  3
Solid line
 72
    65
 73
     0
 40
0.0
  0
ENDTAB
  0
TABLE
  2
LAYER
  5
2
330
0
100
AcDbSymbolTable
 70
     2
  0
LAYER
  5
10
330
2
100
AcDbSymbolTableRecord
100
AcDbLayerTableRecord
  2
0
 70
     0
 62
     7
  6
Continuous
370
    -3
390
F
  0
LAYER
  5
3B
330
2
100
AcDbSymbolTableRecord
100
AcDbLayerTableRecord
  2
Layer 1
 70
     0
 62
     7
  6
Continuous
370
    -3
390
F
  0
ENDTAB
  0
TABLE
  2
STYLE
  5
3
330
0
100
AcDbSymbolTable
 70
     1
  0
STYLE
  5
11
330
3
100
AcDbSymbolTableRecord
100
AcDbTextStyleTableRecord
  2
Standard
 70
     0
 40
0.0
 41
1.0
 50
0.0
 71
     0
 42
0.2
  3
txt
  4

  0
ENDTAB
  0
TABLE
  2
VIEW
  5
6
330
0
100
AcDbSymbolTable
 70
     0
  0
ENDTAB
  0
TABLE
  2
UCS
  5
7
330
0
100
AcDbSymbolTable
 70
     0
  0
ENDTAB
  0
TABLE
  2
APPID
  5
9
330
0
100
AcDbSymbolTable
 70
     1
  0
APPID
  5
12
330
9
100
AcDbSymbolTableRecord
100
AcDbRegAppTableRecord
  2
ACAD
 70
     0
  0
ENDTAB
  0
TABLE
  2
DIMSTYLE
  5
A
330
0
100
AcDbSymbolTable
 70
     1
100
AcDbDimStyleTable
  0
DIMSTYLE
105
27
330
A
100
AcDbSymbolTableRecord
100
AcDbDimStyleTableRecord
  2
Standard
 70
     0
340
11
  0
ENDTAB
  0
TABLE
  2
BLOCK_RECORD
  5
1
330
0
100
AcDbSymbolTable
 70
     3
  0
BLOCK_RECORD
  5
1F
330
1
100
AcDbSymbolTableRecord
100
AcDbBlockTableRecord
  2
*Model_Space
340
22
  0
BLOCK_RECORD
  5
1B
330
1
100
AcDbSymbolTableRecord
100
AcDbBlockTableRecord
  2
*Paper_Space
340
1E
  0
BLOCK_RECORD
  5
23
330
1
100
AcDbSymbolTableRecord
100
AcDbBlockTableRecord
  2
*Paper_Space0
340
26
  0
BLOCK_RECORD
  5
3C
330
1
100
AcDbSymbolTableRecord
100
AcDbBlockTableRecord
  2
block 2
340
0
102
{BLKREFS
331
3D
102
}
  0
BLOCK_RECORD
  5
5F
330
1
100
AcDbSymbolTableRecord
100
AcDbBlockTableRecord
  2
block 3
340
0
102
{BLKREFS
331
60
102
}
  0
ENDTAB
  0
ENDSEC
  0
SECTION
  2
BLOCKS
  0
BLOCK
  5
20
330
1F
100
AcDbEntity
  8
0
100
AcDbBlockBegin
  2
*Model_Space
 70
     0
 71
     0
 10
0.0
 20
0.0
 30
0.0
  3
*Model_Space
  1

  0
ENDBLK
  5
21
330
1F
100
AcDbEntity
  8
0
100
AcDbBlockEnd
  0
BLOCK
  5
1C
330
1B
100
AcDbEntity
 67
     1
  8
0
100
AcDbBlockBegin
  2
*Paper_Space
 70
     0
 71
     0
 10
0.0
 20
0.0
 30
0.0
  3
*Paper_Space
  1

  0
ENDBLK
  5
1D
330
1B
100
AcDbEntity
 67
     1
  8
0
100
AcDbBlockEnd
  0
BLOCK
  5
24
330
23
100
AcDbEntity
  8
0
100
AcDbBlockBegin
  2
*Paper_Space0
 70
     0
 71
     0
 10
0.0
 20
0.0
 30
0.0
  3
*Paper_Space0
  1

  0
ENDBLK
  5
25
330
23
100
AcDbEntity
  8
0
100
AcDbBlockEnd
  0
BLOCK
  5
3E
330
3C
100
AcDbEntity
  8
0
100
AcDbBlockBegin
  2
block 2
 70
     0
 71
     0
 10
0.0
 20
0.0
 30
0.0
  3
block 2
  1

  0
POLYLINE
  5
40
330
3C
100
AcDbEntity
  8
Layer 1
370
     0
100
AcDb2dPolyline
 66
     1
 10
0.0
 20
0.0
 30
0.0
  0
VERTEX
  5
41
330
40
100
AcDbEntity
  8
Layer 1
370
     0
100
AcDbVertex
100
AcDb2dVertex
 10
5.367045354561016
 20
-8.169286022263233
 30
0.0
  0
VERTEX
  5
42
330
40
100
AcDbEntity
  8
Layer 1
370
     0
100
AcDbVertex
100
AcDb2dVertex
 10
5.228173555550595
 20
-8.34753526267006
 30
0.0
  0
VERTEX
  5
43
330
40
100
AcDbEntity
  8
Layer 1
370
     0
100
AcDbVertex
100
AcDb2dVertex
 10
4.615670029228027
 20
-8.34753526267006
 30
0.0
  0
VERTEX
  5
44
330
40
100
AcDbEntity
  8
Layer 1
370
     0
100
AcDbVertex
100
AcDb2dVertex
 10
4.615670029228027
 20
-7.654175345308678
 30
0.0
  0
VERTEX
  5
45
330
40
100
AcDbEntity
  8
Layer 1
370
     0
100
AcDbVertex
100
AcDb2dVertex
 10
4.83021335057196
 20
-7.654175345308678
 30
0.0
  0
VERTEX
  5
46
330
40
100
AcDbEntity
  8
Layer 1
370
     0
100
AcDbVertex
100
AcDb2dVertex
 10
4.83021335057196
 20
-8.169286022263233
 30
0.0
  0
VERTEX
  5
47
330
40
100
AcDbEntity
  8
Layer 1
370
     0
100
AcDbVertex
100
AcDb2dVertex
 10
5.367045354561016
 20
-8.169286022263233
 30
0.0
  0
SEQEND
  5
48
330
40
100
AcDbEntity
  8
Layer 1
370
     0
  0
HATCH
  5
49
330
3C
100
AcDbEntity
  8
Layer 1
 62
   139
420
  4540750
100
AcDbHatch
 10
0.0
 20
0.0
 30
0.0
210
0.0
220
0.0
230
1.0
  2
SOLID
 70
     1
 71
     0
 91
        1
 92
        1
 93
        6
 72
     1
 10
5.367045354561016
 20
-8.169286022263233
 11
5.228173555550595
 21
-8.34753526267006
 72
     1
 10
5.228173555550595
 20
-8.34753526267006
 11
4.615670029228027
 21
-8.34753526267006
 72
     1
 10
4.615670029228027
 20
-8.34753526267006
 11
4.615670029228027
 21
-7.654175345308678
 72
     1
 10
4.615670029228027
 20
-7.654175345308678
 11
4.83021335057196
 21
-7.654175345308678
 72
     1
 10
4.83021335057196
 20
-7.654175345308678
 11
4.83021335057196
 21
-8.169286022263233
 72
     1
 10
4.83021335057196
 20
-8.169286022263233
 11
5.367045354561016
 21
-8.169286022263233
 97
        0
 75
     2
 76
     1
 98
        0
  0
SPLINE
  5
4A
330
3C
100
AcDbEntity
  8
Layer 1
370
     0
100
AcDbSpline
210
0.0
220
0.0
230
1.0
 70
    11
 71
     3
 72
    53
 73
    49
 74
     0
 42
0.0000000001
 43
0.0000000001
 40
0.0
 40
0.0
 40
0.0
 40
0.0
 40
1.0
 40
1.0
 40
1.0
 40
2.0
 40
2.0
 40
2.0
 40
3.0
 40
3.0
 40
3.0
 40
4.0
 40
4.0
 40
4.0
 40
5.0
 40
5.0
 40
5.0
 40
6.0
 40
6.0
 40
6.0
 40
7.0
 40
7.0
 40
7.0
 40
8.0
 40
8.0
 40
8.0
 40
9.0
 40
9.0
 40
9.0
 40
10.0
 40
10.0
 40
10.0
 40
11.0
 40
11.0
 40
11.0
 40
12.0
 40
12.0
 40
12.0
 40
13.0
 40
13.0
 40
13.0
 40
14.0
 40
14.0
 40
14.0
 40
15.0
 40
15.0
 40
15.0
 40
16.0
 40
16.0
 40
16.0
 40
16.0
 10
5.697653942803017
 20
-8.34753526267006
 30
0.0
 10
5.697653942803017
 20
-8.34753526267006
 30
0.0
 10
5.827206758525837
 20
-8.169286022263233
 30
0.0
 10
5.827206758525837
 20
-8.169286022263233
 30
0.0
 10
5.827206758525837
 20
-8.169286022263233
 30
0.0
 10
6.001304658872937
 20
-8.169286022263233
 30
0.0
 10
6.001304658872937
 20
-8.169286022263233
 30
0.0
 10
6.022044133694141
 20
-8.169286022263233
 30
0.0
 10
6.043627656909232
 20
-8.169286022263233
 30
0.0
 10
6.066089679473061
 20
-8.169286022263233
 30
0.0
 10
6.088534476559463
 20
-8.169286022263233
 30
0.0
 10
6.108050942483404
 20
-8.169975041360283
 30
0.0
 10
6.124639077244882
 20
-8.171353079554383
 30
0.0
 10
6.11495835893133
 20
-8.158881833897778
 30
0.0
 10
6.103727347649415
 20
-8.14317219848504
 30
0.0
 10
6.090963268876564
 20
-8.12415527140646
 30
0.0
 10
6.078164739148861
 20
-8.105207246237587
 30
0.0
 10
6.065900199221372
 20
-8.087396102578845
 30
0.0
 10
6.054169649094096
 20
-8.070825193294793
 30
0.0
 10
6.054169649094096
 20
-8.070825193294793
 30
0.0
 10
5.929801702076577
 20
-7.88737385870524
 30
0.0
 10
5.929801702076577
 20
-7.88737385870524
 30
0.0
 10
5.929801702076577
 20
-7.88737385870524
 30
0.0
 10
5.604377982539877
 20
-8.34753526267006
 30
0.0
 10
5.604377982539877
 20
-8.34753526267006
 30
0.0
 10
5.604377982539877
 20
-8.34753526267006
 30
0.0
 10
5.350474445276964
 20
-8.34753526267006
 30
0.0
 10
5.350474445276964
 20
-8.34753526267006
 30
0.0
 10
5.350474445276964
 20
-8.34753526267006
 30
0.0
 10
5.795081243125882
 20
-7.720527884354589
 30
0.0
 10
5.795081243125882
 20
-7.720527884354589
 30
0.0
 10
5.809585095118784
 20
-7.700477428630435
 30
0.0
 10
5.82787855214546
 20
-7.682528481152284
 30
0.0
 10
5.849996065160765
 20
-7.666646590965282
 30
0.0
 10
5.872113578176068
 20
-7.650730249823428
 30
0.0
 10
5.900087753516297
 20
-7.642806530207354
 30
0.0
 10
5.933953042136303
 20
-7.642806530207354
 30
0.0
 10
5.966423067084783
 20
-7.642806530207354
 30
0.0
 10
5.993535968553699
 20
-7.650213485500641
 30
0.0
 10
6.015308972020478
 20
-7.665061847042067
 30
0.0
 10
6.03706475000983
 20
-7.679944659538346
 30
0.0
 10
6.055547687288196
 20
-7.698410371339286
 30
0.0
 10
6.070740558378148
 20
-7.720527884354589
 30
0.0
 10
6.070740558378148
 20
-7.720527884354589
 30
0.0
 10
6.503944090170888
 20
-8.34753526267006
 30
0.0
 10
6.503944090170888
 20
-8.34753526267006
 30
0.0
 10
6.503944090170888
 20
-8.34753526267006
 30
0.0
 10
5.697653942803017
 20
-8.34753526267006
 30
0.0
 10
5.697653942803017
 20
-8.34753526267006
 30
0.0
  0
HATCH
  5
4B
330
3C
100
AcDbEntity
  8
Layer 1
 62
   139
420
  4540750
100
AcDbHatch
 10
0.0
 20
0.0
 30
0.0
210
0.0
220
0.0
230
1.0
  2
SOLID
 70
     1
 71
     0
 91
        1
 92
        1
 93
        1
 72
     4
 94
        3
 73
     0
 74
     1
 95
       53
 96
       49
 40
0.0
 40
0.0
 40
0.0
 40
0.0
 40
1.0
 40
1.0
 40
1.0
 40
2.0
 40
2.0
 40
2.0
 40
3.0
 40
3.0
 40
3.0
 40
4.0
 40
4.0
 40
4.0
 40
5.0
 40
5.0
 40
5.0
 40
6.0
 40
6.0
 40
6.0
 40
7.0
 40
7.0
 40
7.0
 40
8.0
 40
8.0
 40
8.0
 40
9.0
 40
9.0
 40
9.0
 40
10.0
 40
10.0
 40
10.0
 40
11.0
 40
11.0
 40
11.0
 40
12.0
 40
12.0
 40
12.0
 40
13.0
 40
13.0
 40
13.0
 40
14.0
 40
14.0
 40
14.0
 40
15.0
 40
15.0
 40
15.0
 40
16.0
 40
16.0
 40
16.0
 40
16.0
 10
5.697653942803017
 20
-8.34753526267006
 10
5.697653942803017
 20
-8.34753526267006
 10
5.827206758525837
 20
-8.169286022263233
 10
5.827206758525837
 20
-8.169286022263233
 10
5.827206758525837
 20
-8.169286022263233
 10
6.001304658872937
 20
-8.169286022263233
 10
6.001304658872937
 20
-8.169286022263233
 10
6.022044133694141
 20
-8.169286022263233
 10
6.043627656909232
 20
-8.169286022263233
 10
6.066089679473061
 20
-8.169286022263233
 10
6.088534476559463
 20
-8.169286022263233
 10
6.108050942483404
 20
-8.169975041360283
 10
6.124639077244882
 20
-8.171353079554383
 10
6.11495835893133
 20
-8.158881833897778
 10
6.103727347649415
 20
-8.14317219848504
 10
6.090963268876564
 20
-8.12415527140646
 10
6.078164739148861
 20
-8.105207246237587
 10
6.065900199221372
 20
-8.087396102578845
 10
6.054169649094096
 20
-8.070825193294793
 10
6.054169649094096
 20
-8.070825193294793
 10
5.929801702076577
 20
-7.88737385870524
 10
5.929801702076577
 20
-7.88737385870524
 10
5.929801702076577
 20
-7.88737385870524
 10
5.604377982539877
 20
-8.34753526267006
 10
5.604377982539877
 20
-8.34753526267006
 10
5.604377982539877
 20
-8.34753526267006
 10
5.350474445276964
 20
-8.34753526267006
 10
5.350474445276964
 20
-8.34753526267006
 10
5.350474445276964
 20
-8.34753526267006
 10
5.795081243125882
 20
-7.720527884354589
 10
5.795081243125882
 20
-7.720527884354589
 10
5.809585095118784
 20
-7.700477428630435
 10
5.82787855214546
 20
-7.682528481152284
 10
5.849996065160765
 20
-7.666646590965282
 10
5.872113578176068
 20
-7.650730249823428
 10
5.900087753516297
 20
-7.642806530207354
 10
5.933953042136303
 20
-7.642806530207354
 10
5.966423067084783
 20
-7.642806530207354
 10
5.993535968553699
 20
-7.650213485500641
 10
6.015308972020478
 20
-7.665061847042067
 10
6.03706475000983
 20
-7.679944659538346
 10
6.055547687288196
 20
-7.698410371339286
 10
6.070740558378148
 20
-7.720527884354589
 10
6.070740558378148
 20
-7.720527884354589
 10
6.503944090170888
 20
-8.34753526267006
 10
6.503944090170888
 20
-8.34753526267006
 10
6.503944090170888
 20
-8.34753526267006
 10
5.697653942803017
 20
-8.34753526267006
 10
5.697653942803017
 20
-8.34753526267006
 97
        0
 75
     2
 76
     1
 98
        0
  0
SPLINE
  5
4C
330
3C
100
AcDbEntity
  8
Layer 1
370
     0
100
AcDbSpline
210
0.0
220
0.0
230
1.0
 70
    11
 71
     3
 72
   137
 73
   133
 74
     0
 42
0.0000000001
 43
0.0000000001
 40
0.0
 40
0.0
 40
0.0
 40
0.0
 40
1.0
 40
1.0
 40
1.0
 40
2.0
 40
2.0
 40
2.0
 40
3.0
 40
3.0
 40
3.0
 40
4.0
 40
4.0
 40
4.0
 40
5.0
 40
5.0
 40
5.0
 40
6.0
 40
6.0
 40
6.0
 40
7.0
 40
7.0
 40
7.0
 40
8.0
 40
8.0
 40
8.0
 40
9.0
 40
9.0
 40
9.0
 40
10.0
 40
10.0
 40
10.0
 40
11.0
 40
11.0
 40
11.0
 40
12.0
 40
12.0
 40
12.0
 40
13.0
 40
13.0
 40
13.0
 40
14.0
 40
14.0
 40
14.0
 40
15.0
 40
15.0
 40
15.0
 40
16.0
 40
16.0
 40
16.0
 40
17.0
 40
17.0
 40
17.0
 40
18.0
 40
18.0
 40
18.0
 40
19.0
 40
19.0
 40
19.0
 40
20.0
 40
20.0
 40
20.0
 40
21.0
 40
21.0
 40
21.0
 40
22.0
 40
22.0
 40
22.0
 40
23.0
 40
23.0
 40
23.0
 40
24.0
 40
24.0
 40
24.0
 40
25.0
 40
25.0
 40
25.0
 40
26.0
 40
26.0
 40
26.0
 40
27.0
 40
27.0
 40
27.0
 40
28.0
 40
28.0
 40
28.0
 40
29.0
 40
29.0
 40
29.0
 40
30.0
 40
30.0
 40
30.0
 40
31.0
 40
31.0
 40
31.0
 40
32.0
 40
32.0
 40
32.0
 40
33.0
 40
33.0
 40
33.0
 40
34.0
 40
34.0
 40
34.0
 40
35.0
 40
35.0
 40
35.0
 40
36.0
 40
36.0
 40
36.0
 40
37.0
 40
37.0
 40
37.0
 40
38.0
 40
38.0
 40
38.0
 40
39.0
 40
39.0
 40
39.0
 40
40.0
 40
40.0
 40
40.0
 40
41.0
 40
41.0
 40
41.0
 40
42.0
 40
42.0
 40
42.0
 40
43.0
 40
43.0
 40
43.0
 40
44.0
 40
44.0
 40
44.0
 40
44.0
 10
7.173429495819489
 20
-8.089463159869995
 30
0.0
 10
7.158219399252111
 20
-8.062522513175342
 30
0.0
 10
7.145093585453309
 20
-8.038854707191675
 30
0.0
 10
7.134052054423083
 20
-8.018459741918996
 30
0.0
 10
7.122993297915432
 20
-7.998099227601169
 30
0.0
 10
7.112968070053355
 20
-7.979805770574492
 30
0.0
 10
7.103993596314279
 20
-7.963544919884114
 30
0.0
 10
7.095001897097776
 20
-7.947318520148587
 30
0.0
 10
7.087233206778539
 20
-7.93260796242657
 30
0.0
 10
7.080670299879137
 20
-7.919516599582621
 30
0.0
 10
7.074107392979736
 20
-7.906356334828966
 30
0.0
 10
7.067716740854598
 20
-7.893609481533542
 30
0.0
 10
7.061498343503722
 20
-7.881138235876938
 30
0.0
 10
7.055968965249896
 20
-7.893609481533542
 30
0.0
 10
7.049922822673283
 20
-7.906356334828966
 30
0.0
 10
7.043359915773881
 20
-7.919516599582621
 30
0.0
 10
7.036797008874481
 20
-7.93260796242657
 30
0.0
 10
7.029200573329505
 20
-7.947318520148587
 30
0.0
 10
7.020570609138954
 20
-7.963544919884114
 30
0.0
 10
7.011923419470977
 20
-7.979805770574492
 30
0.0
 10
7.002070446383162
 20
-7.997926972826907
 30
0.0
 10
6.991028915352937
 20
-8.017977428551061
 30
0.0
 10
6.979970158845285
 20
-8.037993433320363
 30
0.0
 10
6.966844345046483
 20
-8.061454533574913
 30
0.0
 10
6.951651473956531
 20
-8.08842963122442
 30
0.0
 10
6.951651473956531
 20
-8.08842963122442
 30
0.0
 10
6.840753850286339
 20
-8.285316838206448
 30
0.0
 10
6.840753850286339
 20
-8.285316838206448
 30
0.0
 10
6.828317055584587
 20
-8.307434351221753
 30
0.0
 10
6.812590194694422
 20
-8.325211043925641
 30
0.0
 10
6.793607718570695
 20
-8.33871581822782
 30
0.0
 10
6.774590791492115
 20
-8.352186141575148
 30
0.0
 10
6.750940210985876
 20
-8.358904077771385
 30
0.0
 10
6.722604300619696
 20
-8.358904077771385
 30
0.0
 10
6.695663653925042
 20
-8.358904077771385
 30
0.0
 10
6.671306828844326
 20
-8.351152612929573
 30
0.0
 10
6.649551050854972
 20
-8.335615232291095
 30
0.0
 10
6.627778047388194
 20
-8.320043400697767
 30
0.0
 10
6.612051186498029
 20
-8.296065536120427
 30
0.0
 10
6.602387693661902
 20
-8.263578285694521
 30
0.0
 10
6.602387693661902
 20
-8.263578285694521
 30
0.0
 10
6.426205510546226
 20
-7.654175345308678
 30
0.0
 10
6.426205510546226
 20
-7.654175345308678
 30
0.0
 10
6.426205510546226
 20
-7.654175345308678
 30
0.0
 10
6.640731606412733
 20
-7.654175345308678
 30
0.0
 10
6.640731606412733
 20
-7.654175345308678
 30
0.0
 10
6.640731606412733
 20
-7.654175345308678
 30
0.0
 10
6.706033391335644
 20
-7.895676538824691
 30
0.0
 10
6.706033391335644
 20
-7.895676538824691
 30
0.0
 10
6.71707492236587
 20
-7.935019529266245
 30
0.0
 10
6.726238876356634
 20
-7.969608287938153
 30
0.0
 10
6.733490802353085
 20
-7.999305011021007
 30
0.0
 10
6.740742728349536
 20
-8.02900173410386
 30
0.0
 10
6.747133380474675
 20
-8.058009438089664
 30
0.0
 10
6.7526627587285
 20
-8.086328122978417
 30
0.0
 10
6.763704289758726
 20
-8.062178003626816
 30
0.0
 10
6.776657848783266
 20
-8.035409611706426
 30
0.0
 10
6.791523435802119
 20
-8.006057398172096
 30
0.0
 10
6.806371797343545
 20
-7.976670733682915
 30
0.0
 10
6.825888263267486
 20
-7.939567055306775
 30
0.0
 10
6.850090059051366
 20
-7.894643010179117
 30
0.0
 10
6.850090059051366
 20
-7.894643010179117
 30
0.0
 10
6.943348793837079
 20
-7.720527884354589
 30
0.0
 10
6.943348793837079
 20
-7.720527884354589
 30
0.0
 10
6.952323267576155
 20
-7.703233505018636
 30
0.0
 10
6.961314966792657
 20
-7.689590926897046
 30
0.0
 10
6.970306666009159
 20
-7.679600149989821
 30
0.0
 10
6.979281139748235
 20
-7.669574922127745
 30
0.0
 10
6.988772377810098
 20
-7.66178900633108
 30
0.0
 10
6.998797605672175
 20
-7.656242402599828
 30
0.0
 10
7.008805608056826
 20
-7.650730249823428
 30
0.0
 10
7.019347600241691
 20
-7.647112899563916
 30
0.0
 10
7.030406356749342
 20
-7.645355900866439
 30
0.0
 10
7.041447887779568
 20
-7.643667804078666
 30
0.0
 10
7.053212888861697
 20
-7.642806530207354
 30
0.0
 10
7.065649683563448
 20
-7.642806530207354
 30
0.0
 10
7.078758271884824
 20
-7.642806530207354
 30
0.0
 10
7.090867782515477
 20
-7.643667804078666
 30
0.0
 10
7.101926539023129
 20
-7.645355900866439
 30
0.0
 10
7.112968070053355
 20
-7.647112899563916
 30
0.0
 10
7.123510062238219
 20
-7.650730249823428
 30
0.0
 10
7.133535290100296
 20
-7.656242402599828
 30
0.0
 10
7.143543292484947
 20
-7.66178900633108
 30
0.0
 10
7.153224010798499
 20
-7.669574922127745
 30
0.0
 10
7.1625429940861
 20
-7.679600149989821
 30
0.0
 10
7.171879202851127
 20
-7.689590926897046
 30
0.0
 10
7.181025931364466
 20
-7.703233505018636
 30
0.0
 10
7.190017630580967
 20
-7.720527884354589
 30
0.0
 10
7.190017630580967
 20
-7.720527884354589
 30
0.0
 10
7.282242836721106
 20
-7.895676538824691
 30
0.0
 10
7.282242836721106
 20
-7.895676538824691
 30
0.0
 10
7.295368650519907
 20
-7.919861109131145
 30
0.0
 10
7.306771916576085
 20
-7.941082897320284
 30
0.0
 10
7.316452634889636
 20
-7.959410805301814
 30
0.0
 10
7.326116127725762
 20
-7.97770426232849
 30
0.0
 10
7.334746091916313
 20
-7.994275171612542
 30
0.0
 10
7.342359752938715
 20
-8.009157984108821
 30
0.0
 10
7.349956188483691
 20
-8.024006345650248
 30
0.0
 10
7.356691350157354
 20
-8.037648923771837
 30
0.0
 10
7.362565237959705
 20
-8.05008571847359
 30
0.0
 10
7.368439125762056
 20
-8.062522513175342
 30
0.0
 10
7.374123533312718
 20
-8.074614798328568
 30
0.0
 10
7.379670137043971
 20
-8.086328122978417
 30
0.0
 10
7.385199515297797
 20
-8.058732908141566
 30
0.0
 10
7.39193467697146
 20
-8.02969075320091
 30
0.0
 10
7.399875622064961
 20
-7.999305011021007
 30
0.0
 10
7.407816567158462
 20
-7.968919268841103
 30
0.0
 10
7.416980521149227
 20
-7.934364961124047
 30
0.0
 10
7.427350258559828
 20
-7.895676538824691
 30
0.0
 10
7.427350258559828
 20
-7.895676538824691
 30
0.0
 10
7.492634818005313
 20
-7.654175345308678
 30
0.0
 10
7.492634818005313
 20
-7.654175345308678
 30
0.0
 10
7.492634818005313
 20
-7.654175345308678
 30
0.0
 10
7.701993270643945
 20
-7.654175345308678
 30
0.0
 10
7.701993270643945
 20
-7.654175345308678
 30
0.0
 10
7.701993270643945
 20
-7.654175345308678
 30
0.0
 10
7.522693276114118
 20
-8.263578285694521
 30
0.0
 10
7.522693276114118
 20
-8.263578285694521
 30
0.0
 10
7.513012557800566
 20
-8.296065536120427
 30
0.0
 10
7.497302922387827
 20
-8.320043400697767
 30
0.0
 10
7.475529918921048
 20
-8.335615232291095
 30
0.0
 10
7.453774140931695
 20
-8.351152612929573
 30
0.0
 10
7.429417315850978
 20
-8.358904077771385
 30
0.0
 10
7.402476669156325
 20
-8.358904077771385
 30
0.0
 10
7.374829777887195
 20
-8.358904077771385
 30
0.0
 10
7.351506481452053
 20
-8.352358396349409
 30
0.0
 10
7.332506779850901
 20
-8.339232582550608
 30
0.0
 10
7.313507078249748
 20
-8.326106768751806
 30
0.0
 10
7.297435707811057
 20
-8.308123370318802
 30
0.0
 10
7.284327119489681
 20
-8.285316838206448
 30
0.0
 10
7.284327119489681
 20
-8.285316838206448
 30
0.0
 10
7.173429495819489
 20
-8.089463159869995
 30
0.0
 10
7.173429495819489
 20
-8.089463159869995
 30
0.0
  0
HATCH
  5
4D
330
3C
100
AcDbEntity
  8
Layer 1
 62
   139
420
  4540750
100
AcDbHatch
 10
0.0
 20
0.0
 30
0.0
210
0.0
220
0.0
230
1.0
  2
SOLID
 70
     1
 71
     0
 91
        1
 92
        1
 93
        1
 72
     4
 94
        3
 73
     0
 74
     1
 95
      137
 96
      133
 40
0.0
 40
0.0
 40
0.0
 40
0.0
 40
1.0
 40
1.0
 40
1.0
 40
2.0
 40
2.0
 40
2.0
 40
3.0
 40
3.0
 40
3.0
 40
4.0
 40
4.0
 40
4.0
 40
5.0
 40
5.0
 40
5.0
 40
6.0
 40
6.0
 40
6.0
 40
7.0
 40
7.0
 40
7.0
 40
8.0
 40
8.0
 40
8.0
 40
9.0
 40
9.0
 40
9.0
 40
10.0
 40
10.0
 40
10.0
 40
11.0
 40
11.0
 40
11.0
 40
12.0
 40
12.0
 40
12.0
 40
13.0
 40
13.0
 40
13.0
 40
14.0
 40
14.0
 40
14.0
 40
15.0
 40
15.0
 40
15.0
 40
16.0
 40
16.0
 40
16.0
 40
17.0
 40
17.0
 40
17.0
 40
18.0
 40
18.0
 40
18.0
 40
19.0
 40
19.0
 40
19.0
 40
20.0
 40
20.0
 40
20.0
 40
21.0
 40
21.0
 40
21.0
 40
22.0
 40
22.0
 40
22.0
 40
23.0
 40
23.0
 40
23.0
 40
24.0
 40
24.0
 40
24.0
 40
25.0
 40
25.0
 40
25.0
 40
26.0
 40
26.0
 40
26.0
 40
27.0
 40
27.0
 40
27.0
 40
28.0
 40
28.0
 40
28.0
 40
29.0
 40
29.0
 40
29.0
 40
30.0
 40
30.0
 40
30.0
 40
31.0
 40
31.0
 40
31.0
 40
32.0
 40
32.0
 40
32.0
 40
33.0
 40
33.0
 40
33.0
 40
34.0
 40
34.0
 40
34.0
 40
35.0
 40
35.0
 40
35.0
 40
36.0
 40
36.0
 40
36.0
 40
37.0
 40
37.0
 40
37.0
 40
38.0
 40
38.0
 40
38.0
 40
39.0
 40
39.0
 40
39.0
 40
40.0
 40
40.0
 40
40.0
 40
41.0
 40
41.0
 40
41.0
 40
42.0
 40
42.0
 40
42.0
 40
43.0
 40
43.0
 40
43.0
 40
44.0
 40
44.0
 40
44.0
 40
44.0
 10
7.173429495819489
 20
-8.089463159869995
 10
7.158219399252111
 20
-8.062522513175342
 10
7.145093585453309
 20
-8.038854707191675
 10
7.134052054423083
 20
-8.018459741918996
 10
7.122993297915432
 20
-7.998099227601169
 10
7.112968070053355
 20
-7.979805770574492
 10
7.103993596314279
 20
-7.963544919884114
 10
7.095001897097776
 20
-7.947318520148587
 10
7.087233206778539
 20
-7.93260796242657
 10
7.080670299879137
 20
-7.919516599582621
 10
7.074107392979736
 20
-7.906356334828966
 10
7.067716740854598
 20
-7.893609481533542
 10
7.061498343503722
 20
-7.881138235876938
 10
7.055968965249896
 20
-7.893609481533542
 10
7.049922822673283
 20
-7.906356334828966
 10
7.043359915773881
 20
-7.919516599582621
 10
7.036797008874481
 20
-7.93260796242657
 10
7.029200573329505
 20
-7.947318520148587
 10
7.020570609138954
 20
-7.963544919884114
 10
7.011923419470977
 20
-7.979805770574492
 10
7.002070446383162
 20
-7.997926972826907
 10
6.991028915352937
 20
-8.017977428551061
 10
6.979970158845285
 20
-8.037993433320363
 10
6.966844345046483
 20
-8.061454533574913
 10
6.951651473956531
 20
-8.08842963122442
 10
6.951651473956531
 20
-8.08842963122442
 10
6.840753850286339
 20
-8.285316838206448
 10
6.840753850286339
 20
-8.285316838206448
 10
6.828317055584587
 20
-8.307434351221753
 10
6.812590194694422
 20
-8.325211043925641
 10
6.793607718570695
 20
-8.33871581822782
 10
6.774590791492115
 20
-8.352186141575148
 10
6.750940210985876
 20
-8.358904077771385
 10
6.722604300619696
 20
-8.358904077771385
 10
6.695663653925042
 20
-8.358904077771385
 10
6.671306828844326
 20
-8.351152612929573
 10
6.649551050854972
 20
-8.335615232291095
 10
6.627778047388194
 20
-8.320043400697767
 10
6.612051186498029
 20
-8.296065536120427
 10
6.602387693661902
 20
-8.263578285694521
 10
6.602387693661902
 20
-8.263578285694521
 10
6.426205510546226
 20
-7.654175345308678
 10
6.426205510546226
 20
-7.654175345308678
 10
6.426205510546226
 20
-7.654175345308678
 10
6.640731606412733
 20
-7.654175345308678
 10
6.640731606412733
 20
-7.654175345308678
 10
6.640731606412733
 20
-7.654175345308678
 10
6.706033391335644
 20
-7.895676538824691
 10
6.706033391335644
 20
-7.895676538824691
 10
6.71707492236587
 20
-7.935019529266245
 10
6.726238876356634
 20
-7.969608287938153
 10
6.733490802353085
 20
-7.999305011021007
 10
6.740742728349536
 20
-8.02900173410386
 10
6.747133380474675
 20
-8.058009438089664
 10
6.7526627587285
 20
-8.086328122978417
 10
6.763704289758726
 20
-8.062178003626816
 10
6.776657848783266
 20
-8.035409611706426
 10
6.791523435802119
 20
-8.006057398172096
 10
6.806371797343545
 20
-7.976670733682915
 10
6.825888263267486
 20
-7.939567055306775
 10
6.850090059051366
 20
-7.894643010179117
 10
6.850090059051366
 20
-7.894643010179117
 10
6.943348793837079
 20
-7.720527884354589
 10
6.943348793837079
 20
-7.720527884354589
 10
6.952323267576155
 20
-7.703233505018636
 10
6.961314966792657
 20
-7.689590926897046
 10
6.970306666009159
 20
-7.679600149989821
 10
6.979281139748235
 20
-7.669574922127745
 10
6.988772377810098
 20
-7.66178900633108
 10
6.998797605672175
 20
-7.656242402599828
 10
7.008805608056826
 20
-7.650730249823428
 10
7.019347600241691
 20
-7.647112899563916
 10
7.030406356749342
 20
-7.645355900866439
 10
7.041447887779568
 20
-7.643667804078666
 10
7.053212888861697
 20
-7.642806530207354
 10
7.065649683563448
 20
-7.642806530207354
 10
7.078758271884824
 20
-7.642806530207354
 10
7.090867782515477
 20
-7.643667804078666
 10
7.101926539023129
 20
-7.645355900866439
 10
7.112968070053355
 20
-7.647112899563916
 10
7.123510062238219
 20
-7.650730249823428
 10
7.133535290100296
 20
-7.656242402599828
 10
7.143543292484947
 20
-7.66178900633108
 10
7.153224010798499
 20
-7.669574922127745
 10
7.1625429940861
 20
-7.679600149989821
 10
7.171879202851127
 20
-7.689590926897046
 10
7.181025931364466
 20
-7.703233505018636
 10
7.190017630580967
 20
-7.720527884354589
 10
7.190017630580967
 20
-7.720527884354589
 10
7.282242836721106
 20
-7.895676538824691
 10
7.282242836721106
 20
-7.895676538824691
 10
7.295368650519907
 20
-7.919861109131145
 10
7.306771916576085
 20
-7.941082897320284
 10
7.316452634889636
 20
-7.959410805301814
 10
7.326116127725762
 20
-7.97770426232849
 10
7.334746091916313
 20
-7.994275171612542
 10
7.342359752938715
 20
-8.009157984108821
 10
7.349956188483691
 20
-8.024006345650248
 10
7.356691350157354
 20
-8.037648923771837
 10
7.362565237959705
 20
-8.05008571847359
 10
7.368439125762056
 20
-8.062522513175342
 10
7.374123533312718
 20
-8.074614798328568
 10
7.379670137043971
 20
-8.086328122978417
 10
7.385199515297797
 20
-8.058732908141566
 10
7.39193467697146
 20
-8.02969075320091
 10
7.399875622064961
 20
-7.999305011021007
 10
7.407816567158462
 20
-7.968919268841103
 10
7.416980521149227
 20
-7.934364961124047
 10
7.427350258559828
 20
-7.895676538824691
 10
7.427350258559828
 20
-7.895676538824691
 10
7.492634818005313
 20
-7.654175345308678
 10
7.492634818005313
 20
-7.654175345308678
 10
7.492634818005313
 20
-7.654175345308678
 10
7.701993270643945
 20
-7.654175345308678
 10
7.701993270643945
 20
-7.654175345308678
 10
7.701993270643945
 20
-7.654175345308678
 10
7.522693276114118
 20
-8.263578285694521
 10
7.522693276114118
 20
-8.263578285694521
 10
7.513012557800566
 20
-8.296065536120427
 10
7.497302922387827
 20
-8.320043400697767
 10
7.475529918921048
 20
-8.335615232291095
 10
7.453774140931695
 20
-8.351152612929573
 10
7.429417315850978
 20
-8.358904077771385
 10
7.402476669156325
 20
-8.358904077771385
 10
7.374829777887195
 20
-8.358904077771385
 10
7.351506481452053
 20
-8.352358396349409
 10
7.332506779850901
 20
-8.339232582550608
 10
7.313507078249748
 20
-8.326106768751806
 10
7.297435707811057
 20
-8.308123370318802
 10
7.284327119489681
 20
-8.285316838206448
 10
7.284327119489681
 20
-8.285316838206448
 10
7.173429495819489
 20
-8.089463159869995
 10
7.173429495819489
 20
-8.089463159869995
 97
        0
 75
     2
 76
     1
 98
        0
  0
POLYLINE
  5
4E
330
3C
100
AcDbEntity
  8
Layer 1
370
     0
100
AcDb2dPolyline
 66
     1
 10
0.0
 20
0.0
 30
0.0
  0
VERTEX
  5
4F
330
4E
100
AcDbEntity
  8
Layer 1
370
     0
100
AcDbVertex
100
AcDb2dVertex
 10
8.645088159731088
 20
-7.654175345308678
 30
0.0
  0
VERTEX
  5
50
330
4E
100
AcDbEntity
  8
Layer 1
370
     0
100
AcDbVertex
100
AcDb2dVertex
 10
8.506216360720668
 20
-7.834491643006654
 30
0.0
  0
VERTEX
  5
51
330
4E
100
AcDbEntity
  8
Layer 1
370
     0
100
AcDbVertex
100
AcDb2dVertex
 10
8.258513995331205
 20
-7.834491643006654
 30
0.0
  0
VERTEX
  5
52
330
4E
100
AcDbEntity
  8
Layer 1
370
     0
100
AcDbVertex
100
AcDb2dVertex
 10
8.258513995331205
 20
-8.34753526267006
 30
0.0
  0
VERTEX
  5
53
330
4E
100
AcDbEntity
  8
Layer 1
370
     0
100
AcDbVertex
100
AcDb2dVertex
 10
8.043987899464696
 20
-8.34753526267006
 30
0.0
  0
VERTEX
  5
54
330
4E
100
AcDbEntity
  8
Layer 1
370
     0
100
AcDbVertex
100
AcDb2dVertex
 10
8.043987899464696
 20
-7.834491643006654
 30
0.0
  0
VERTEX
  5
55
330
4E
100
AcDbEntity
  8
Layer 1
370
     0
100
AcDbVertex
100
AcDb2dVertex
 10
7.718564179927998
 20
-7.834491643006654
 30
0.0
  0
VERTEX
  5
56
330
4E
100
AcDbEntity
  8
Layer 1
370
     0
100
AcDbVertex
100
AcDb2dVertex
 10
7.857435978938418
 20
-7.654175345308678
 30
0.0
  0
VERTEX
  5
57
330
4E
100
AcDbEntity
  8
Layer 1
370
     0
100
AcDbVertex
100
AcDb2dVertex
 10
8.645088159731088
 20
-7.654175345308678
 30
0.0
  0
SEQEND
  5
58
330
4E
100
AcDbEntity
  8
Layer 1
370
     0
  0
HATCH
  5
59
330
3C
100
AcDbEntity
  8
Layer 1
 62
   139
420
  4540750
100
AcDbHatch
 10
0.0
 20
0.0
 30
0.0
210
0.0
220
0.0
230
1.0
  2
SOLID
 70
     1
 71
     0
 91
        1
 92
        1
 93
        8
 72
     1
 10
8.645088159731088
 20
-7.654175345308678
 11
8.506216360720668
 21
-7.834491643006654
 72
     1
 10
8.506216360720668
 20
-7.834491643006654
 11
8.258513995331205
 21
-7.834491643006654
 72
     1
 10
8.258513995331205
 20
-7.834491643006654
 11
8.258513995331205
 21
-8.34753526267006
 72
     1
 10
8.258513995331205
 20
-8.34753526267006
 11
8.043987899464696
 21
-8.34753526267006
 72
     1
 10
8.043987899464696
 20
-8.34753526267006
 11
8.043987899464696
 21
-7.834491643006654
 72
     1
 10
8.043987899464696
 20
-7.834491643006654
 11
7.718564179927998
 21
-7.834491643006654
 72
     1
 10
7.718564179927998
 20
-7.834491643006654
 11
7.857435978938418
 21
-7.654175345308678
 72
     1
 10
7.857435978938418
 20
-7.654175345308678
 11
8.645088159731088
 21
-7.654175345308678
 97
        0
 75
     2
 76
     1
 98
        0
  0
SPLINE
  5
5A
330
3C
100
AcDbEntity
  8
Layer 1
370
     0
100
AcDbSpline
210
0.0
220
0.0
230
1.0
 70
    11
 71
     3
 72
    29
 73
    25
 74
     0
 42
0.0000000001
 43
0.0000000001
 40
0.0
 40
0.0
 40
0.0
 40
0.0
 40
1.0
 40
1.0
 40
1.0
 40
2.0
 40
2.0
 40
2.0
 40
3.0
 40
3.0
 40
3.0
 40
4.0
 40
4.0
 40
4.0
 40
5.0
 40
5.0
 40
5.0
 40
6.0
 40
6.0
 40
6.0
 40
7.0
 40
7.0
 40
7.0
 40
8.0
 40
8.0
 40
8.0
 40
8.0
 10
9.096912432621604
 20
-7.642806530207354
 30
0.0
 10
9.265515405669731
 20
-7.642806530207354
 30
0.0
 10
9.392157115707516
 20
-7.671469724644632
 30
0.0
 10
9.476768660825252
 20
-7.72879611351919
 30
0.0
 10
9.561380205942987
 20
-7.786156953348599
 30
0.0
 10
9.603754880411561
 20
-7.876659611746113
 30
0.0
 10
9.603754880411561
 20
-8.000338539666581
 30
0.0
 10
9.603754880411561
 20
-8.1247064866841
 30
0.0
 10
9.561586911672103
 20
-8.215553654630138
 30
0.0
 10
9.477319876102891
 20
-8.272914494459549
 30
0.0
 10
9.392983938623976
 20
-8.330240883334106
 30
0.0
 10
9.266204424766782
 20
-8.358904077771385
 30
0.0
 10
9.096912432621604
 20
-8.358904077771385
 30
0.0
 10
8.927000323289082
 20
-8.358904077771385
 30
0.0
 10
8.800014103702773
 20
-8.330240883334106
 30
0.0
 10
8.716091577682088
 20
-8.272914494459549
 30
0.0
 10
8.632134600706548
 20
-8.215553654630138
 30
0.0
 10
8.590138886741354
 20
-8.1247064866841
 30
0.0
 10
8.590138886741354
 20
-8.000338539666581
 30
0.0
 10
8.590138886741354
 20
-7.876659611746113
 30
0.0
 10
8.632306855480811
 20
-7.786156953348599
 30
0.0
 10
8.716573891050023
 20
-7.72879611351919
 30
0.0
 10
8.800875377574085
 20
-7.671469724644632
 30
0.0
 10
8.92765489143128
 20
-7.642806530207354
 30
0.0
 10
9.096912432621604
 20
-7.642806530207354
 30
0.0
  0
SPLINE
  5
5B
330
3C
100
AcDbEntity
  8
Layer 1
370
     0
100
AcDbSpline
210
0.0
220
0.0
230
1.0
 70
    11
 71
     3
 72
    53
 73
    49
 74
     0
 42
0.0000000001
 43
0.0000000001
 40
0.0
 40
0.0
 40
0.0
 40
0.0
 40
1.0
 40
1.0
 40
1.0
 40
2.0
 40
2.0
 40
2.0
 40
3.0
 40
3.0
 40
3.0
 40
4.0
 40
4.0
 40
4.0
 40
5.0
 40
5.0
 40
5.0
 40
6.0
 40
6.0
 40
6.0
 40
7.0
 40
7.0
 40
7.0
 40
8.0
 40
8.0
 40
8.0
 40
9.0
 40
9.0
 40
9.0
 40
10.0
 40
10.0
 40
10.0
 40
11.0
 40
11.0
 40
11.0
 40
12.0
 40
12.0
 40
12.0
 40
13.0
 40
13.0
 40
13.0
 40
14.0
 40
14.0
 40
14.0
 40
15.0
 40
15.0
 40
15.0
 40
16.0
 40
16.0
 40
16.0
 40
16.0
 10
9.096912432621604
 20
-8.178587780073409
 30
0.0
 10
9.150862627920617
 20
-8.178587780073409
 30
0.0
 10
9.19640679023562
 20
-8.176348468007996
 30
0.0
 10
9.233751625295728
 20
-8.171835392922318
 30
0.0
 10
9.271027558446132
 20
-8.167356768791494
 30
0.0
 10
9.301275496806625
 20
-8.158537324349254
 30
0.0
 10
9.324426538467504
 20
-8.145445961505304
 30
0.0
 10
9.347577580128382
 20
-8.13228569675165
 30
0.0
 10
9.364320744186697
 20
-8.114164494499237
 30
0.0
 10
9.374656030642447
 20
-8.091013452838357
 30
0.0
 10
9.3850602190079
 20
-8.067862411177478
 30
0.0
 10
9.390227862235776
 20
-8.037648923771837
 30
0.0
 10
9.390227862235776
 20
-8.000338539666581
 30
0.0
 10
9.390227862235776
 20
-7.963028155561326
 30
0.0
 10
9.3850602190079
 20
-7.932814668155685
 30
0.0
 10
9.374656030642447
 20
-7.909663626494805
 30
0.0
 10
9.364320744186697
 20
-7.886512584833927
 30
0.0
 10
9.347577580128382
 20
-7.868529186400923
 30
0.0
 10
9.324426538467504
 20
-7.855782333105498
 30
0.0
 10
9.301275496806625
 20
-7.842966577900369
 30
0.0
 10
9.271027558446132
 20
-7.834353839187244
 30
0.0
 10
9.233751625295728
 20
-7.829875215056419
 30
0.0
 10
9.19640679023562
 20
-7.825362139970742
 30
0.0
 10
9.150862627920617
 20
-7.82312282790533
 30
0.0
 10
9.096912432621604
 20
-7.82312282790533
 30
0.0
 10
9.043031139232298
 20
-7.82312282790533
 30
0.0
 10
8.99741807500759
 20
-7.825362139970742
 30
0.0
 10
8.960142141857187
 20
-7.829875215056419
 30
0.0
 10
8.922831757751931
 20
-7.834353839187244
 30
0.0
 10
8.89261827034629
 20
-7.842966577900369
 30
0.0
 10
8.86946722868541
 20
-7.855782333105498
 30
0.0
 10
8.84631618702453
 20
-7.868529186400923
 30
0.0
 10
8.829573022966217
 20
-7.886512584833927
 30
0.0
 10
8.819168834600763
 20
-7.909663626494805
 30
0.0
 10
8.808833548145014
 20
-7.932814668155685
 30
0.0
 10
8.803665904917139
 20
-7.963028155561326
 30
0.0
 10
8.803665904917139
 20
-8.000338539666581
 30
0.0
 10
8.803665904917139
 20
-8.037648923771837
 30
0.0
 10
8.808833548145014
 20
-8.067862411177478
 30
0.0
 10
8.819168834600763
 20
-8.091013452838357
 30
0.0
 10
8.829573022966217
 20
-8.114164494499237
 30
0.0
 10
8.84631618702453
 20
-8.13228569675165
 30
0.0
 10
8.86946722868541
 20
-8.145445961505304
 30
0.0
 10
8.89261827034629
 20
-8.158537324349254
 30
0.0
 10
8.922831757751931
 20
-8.167356768791494
 30
0.0
 10
8.960142141857187
 20
-8.171835392922318
 30
0.0
 10
8.99741807500759
 20
-8.176348468007996
 30
0.0
 10
9.043031139232298
 20
-8.178587780073409
 30
0.0
 10
9.096912432621604
 20
-8.178587780073409
 30
0.0
  0
HATCH
  5
5C
330
3C
100
AcDbEntity
  8
Layer 1
 62
   139
420
  4540750
100
AcDbHatch
 10
0.0
 20
0.0
 30
0.0
210
0.0
220
0.0
230
1.0
  2
SOLID
 70
     1
 71
     0
 91
        2
 92
        1
 93
        1
 72
     4
 94
        3
 73
     0
 74
     1
 95
       29
 96
       25
 40
0.0
 40
0.0
 40
0.0
 40
0.0
 40
1.0
 40
1.0
 40
1.0
 40
2.0
 40
2.0
 40
2.0
 40
3.0
 40
3.0
 40
3.0
 40
4.0
 40
4.0
 40
4.0
 40
5.0
 40
5.0
 40
5.0
 40
6.0
 40
6.0
 40
6.0
 40
7.0
 40
7.0
 40
7.0
 40
8.0
 40
8.0
 40
8.0
 40
8.0
 10
9.096912432621604
 20
-7.642806530207354
 10
9.265515405669731
 20
-7.642806530207354
 10
9.392157115707516
 20
-7.671469724644632
 10
9.476768660825252
 20
-7.72879611351919
 10
9.561380205942987
 20
-7.786156953348599
 10
9.603754880411561
 20
-7.876659611746113
 10
9.603754880411561
 20
-8.000338539666581
 10
9.603754880411561
 20
-8.1247064866841
 10
9.561586911672103
 20
-8.215553654630138
 10
9.477319876102891
 20
-8.272914494459549
 10
9.392983938623976
 20
-8.330240883334106
 10
9.266204424766782
 20
-8.358904077771385
 10
9.096912432621604
 20
-8.358904077771385
 10
8.927000323289082
 20
-8.358904077771385
 10
8.800014103702773
 20
-8.330240883334106
 10
8.716091577682088
 20
-8.272914494459549
 10
8.632134600706548
 20
-8.215553654630138
 10
8.590138886741354
 20
-8.1247064866841
 10
8.590138886741354
 20
-8.000338539666581
 10
8.590138886741354
 20
-7.876659611746113
 10
8.632306855480811
 20
-7.786156953348599
 10
8.716573891050023
 20
-7.72879611351919
 10
8.800875377574085
 20
-7.671469724644632
 10
8.92765489143128
 20
-7.642806530207354
 10
9.096912432621604
 20
-7.642806530207354
 97
        0
 92
        1
 93
        1
 72
     4
 94
        3
 73
     0
 74
     1
 95
       53
 96
       49
 40
0.0
 40
0.0
 40
0.0
 40
0.0
 40
1.0
 40
1.0
 40
1.0
 40
2.0
 40
2.0
 40
2.0
 40
3.0
 40
3.0
 40
3.0
 40
4.0
 40
4.0
 40
4.0
 40
5.0
 40
5.0
 40
5.0
 40
6.0
 40
6.0
 40
6.0
 40
7.0
 40
7.0
 40
7.0
 40
8.0
 40
8.0
 40
8.0
 40
9.0
 40
9.0
 40
9.0
 40
10.0
 40
10.0
 40
10.0
 40
11.0
 40
11.0
 40
11.0
 40
12.0
 40
12.0
 40
12.0
 40
13.0
 40
13.0
 40
13.0
 40
14.0
 40
14.0
 40
14.0
 40
15.0
 40
15.0
 40
15.0
 40
16.0
 40
16.0
 40
16.0
 40
16.0
 10
9.096912432621604
 20
-8.178587780073409
 10
9.150862627920617
 20
-8.178587780073409
 10
9.19640679023562
 20
-8.176348468007996
 10
9.233751625295728
 20
-8.171835392922318
 10
9.271027558446132
 20
-8.167356768791494
 10
9.301275496806625
 20
-8.158537324349254
 10
9.324426538467504
 20
-8.145445961505304
 10
9.347577580128382
 20
-8.13228569675165
 10
9.364320744186697
 20
-8.114164494499237
 10
9.374656030642447
 20
-8.091013452838357
 10
9.3850602190079
 20
-8.067862411177478
 10
9.390227862235776
 20
-8.037648923771837
 10
9.390227862235776
 20
-8.000338539666581
 10
9.390227862235776
 20
-7.963028155561326
 10
9.3850602190079
 20
-7.932814668155685
 10
9.374656030642447
 20
-7.909663626494805
 10
9.364320744186697
 20
-7.886512584833927
 10
9.347577580128382
 20
-7.868529186400923
 10
9.324426538467504
 20
-7.855782333105498
 10
9.301275496806625
 20
-7.842966577900369
 10
9.271027558446132
 20
-7.834353839187244
 10
9.233751625295728
 20
-7.829875215056419
 10
9.19640679023562
 20
-7.825362139970742
 10
9.150862627920617
 20
-7.82312282790533
 10
9.096912432621604
 20
-7.82312282790533
 10
9.043031139232298
 20
-7.82312282790533
 10
8.99741807500759
 20
-7.825362139970742
 10
8.960142141857187
 20
-7.829875215056419
 10
8.922831757751931
 20
-7.834353839187244
 10
8.89261827034629
 20
-7.842966577900369
 10
8.86946722868541
 20
-7.855782333105498
 10
8.84631618702453
 20
-7.868529186400923
 10
8.829573022966217
 20
-7.886512584833927
 10
8.819168834600763
 20
-7.909663626494805
 10
8.808833548145014
 20
-7.932814668155685
 10
8.803665904917139
 20
-7.963028155561326
 10
8.803665904917139
 20
-8.000338539666581
 10
8.803665904917139
 20
-8.037648923771837
 10
8.808833548145014
 20
-8.067862411177478
 10
8.819168834600763
 20
-8.091013452838357
 10
8.829573022966217
 20
-8.114164494499237
 10
8.84631618702453
 20
-8.13228569675165
 10
8.86946722868541
 20
-8.145445961505304
 10
8.89261827034629
 20
-8.158537324349254
 10
8.922831757751931
 20
-8.167356768791494
 10
8.960142141857187
 20
-8.171835392922318
 10
8.99741807500759
 20
-8.176348468007996
 10
9.043031139232298
 20
-8.178587780073409
 10
9.096912432621604
 20
-8.178587780073409
 97
        0
 75
     2
 76
     1
 98
        0
  0
SPLINE
  5
5D
330
3C
100
AcDbEntity
  8
Layer 1
370
     0
100
AcDbSpline
210
0.0
220
0.0
230
1.0
 70
    11
 71
     3
 72
    65
 73
    61
 74
     0
 42
0.0000000001
 43
0.0000000001
 40
0.0
 40
0.0
 40
0.0
 40
0.0
 40
1.0
 40
1.0
 40
1.0
 40
2.0
 40
2.0
 40
2.0
 40
3.0
 40
3.0
 40
3.0
 40
4.0
 40
4.0
 40
4.0
 40
5.0
 40
5.0
 40
5.0
 40
6.0
 40
6.0
 40
6.0
 40
7.0
 40
7.0
 40
7.0
 40
8.0
 40
8.0
 40
8.0
 40
9.0
 40
9.0
 40
9.0
 40
10.0
 40
10.0
 40
10.0
 40
11.0
 40
11.0
 40
11.0
 40
12.0
 40
12.0
 40
12.0
 40
13.0
 40
13.0
 40
13.0
 40
14.0
 40
14.0
 40
14.0
 40
15.0
 40
15.0
 40
15.0
 40
16.0
 40
16.0
 40
16.0
 40
17.0
 40
17.0
 40
17.0
 40
18.0
 40
18.0
 40
18.0
 40
19.0
 40
19.0
 40
19.0
 40
20.0
 40
20.0
 40
20.0
 40
20.0
 10
10.41521267100731
 20
-8.358904077771385
 30
0.0
 10
10.4013633871566
 20
-8.358904077771385
 30
0.0
 10
10.38772080903501
 20
-8.356664765705972
 30
0.0
 10
10.37428493664254
 20
-8.352186141575148
 30
0.0
 10
10.36078016234036
 20
-8.34767306648947
 30
0.0
 10
10.34575954602467
 20
-8.337510034807982
 30
0.0
 10
10.32915418578577
 20
-8.32162814462098
 30
0.0
 10
10.32915418578577
 20
-8.32162814462098
 30
0.0
 10
9.904236108635052
 20
-7.940221623448972
 30
0.0
 10
9.904236108635052
 20
-7.940221623448972
 30
0.0
 10
9.904236108635052
 20
-7.940221623448972
 30
0.0
 10
9.904236108635052
 20
-8.34753526267006
 30
0.0
 10
9.904236108635052
 20
-8.34753526267006
 30
0.0
 10
9.904236108635052
 20
-8.34753526267006
 30
0.0
 10
9.709450409899025
 20
-8.34753526267006
 30
0.0
 10
9.709450409899025
 20
-8.34753526267006
 30
0.0
 10
9.709450409899025
 20
-8.34753526267006
 30
0.0
 10
9.709450409899025
 20
-7.772342120452747
 30
0.0
 10
9.709450409899025
 20
-7.772342120452747
 30
0.0
 10
9.709450409899025
 20
-7.749535588340393
 30
0.0
 10
9.71268879965516
 20
-7.729829642164765
 30
0.0
 10
9.71930338298684
 20
-7.713258732880712
 30
0.0
 10
9.725849064408814
 20
-7.696687823596661
 30
0.0
 10
9.73446180312194
 20
-7.683183049294481
 30
0.0
 10
9.745210501035919
 20
-7.672847762838732
 30
0.0
 10
9.755890297040194
 20
-7.66247802542813
 30
0.0
 10
9.768292640787093
 20
-7.654864364405728
 30
0.0
 10
9.782486434186323
 20
-7.650041230726378
 30
0.0
 10
9.79668022758555
 20
-7.645218097047028
 30
0.0
 10
9.811356334352716
 20
-7.642806530207354
 30
0.0
 10
9.826514754487816
 20
-7.642806530207354
 30
0.0
 10
9.839675019241469
 20
-7.642806530207354
 30
0.0
 10
9.852973087814533
 20
-7.645011391317913
 30
0.0
 10
9.866408960207009
 20
-7.649524466403591
 30
0.0
 10
9.879913734509188
 20
-7.654037541489267
 30
0.0
 10
9.895278860373402
 20
-7.664235024125607
 30
0.0
 10
9.912573239709356
 20
-7.680082463357756
 30
0.0
 10
9.912573239709356
 20
-7.680082463357756
 30
0.0
 10
10.33749131686007
 20
-8.061454533574913
 30
0.0
 10
10.33749131686007
 20
-8.061454533574913
 30
0.0
 10
10.33749131686007
 20
-8.061454533574913
 30
0.0
 10
10.33749131686007
 20
-7.654175345308678
 30
0.0
 10
10.33749131686007
 20
-7.654175345308678
 30
0.0
 10
10.33749131686007
 20
-7.654175345308678
 30
0.0
 10
10.53337944615138
 20
-7.654175345308678
 30
0.0
 10
10.53337944615138
 20
-7.654175345308678
 30
0.0
 10
10.53337944615138
 20
-7.654175345308678
 30
0.0
 10
10.53337944615138
 20
-8.228334958880415
 30
0.0
 10
10.53337944615138
 20
-8.228334958880415
 30
0.0
 10
10.53337944615138
 20
-8.251141490992769
 30
0.0
 10
10.53007215448554
 20
-8.270847437168399
 30
0.0
 10
10.52352647306356
 20
-8.287383895497598
 30
0.0
 10
10.51691188973188
 20
-8.303989255736502
 30
0.0
 10
10.50829915101876
 20
-8.31763183385809
 30
0.0
 10
10.49761935501448
 20
-8.328346080817218
 30
0.0
 10
10.4868706571005
 20
-8.339060327776345
 30
0.0
 10
10.47426160762449
 20
-8.34684624357301
 30
0.0
 10
10.45979220658644
 20
-8.35166937725236
 30
0.0
 10
10.44525390363868
 20
-8.356492510931709
 30
0.0
 10
10.43037109114241
 20
-8.358904077771385
 30
0.0
 10
10.41521267100731
 20
-8.358904077771385
 30
0.0
  0
HATCH
  5
5E
330
3C
100
AcDbEntity
  8
Layer 1
 62
   139
420
  4540750
100
AcDbHatch
 10
0.0
 20
0.0
 30
0.0
210
0.0
220
0.0
230
1.0
  2
SOLID
 70
     1
 71
     0
 91
        1
 92
        1
 93
        1
 72
     4
 94
        3
 73
     0
 74
     1
 95
       65
 96
       61
 40
0.0
 40
0.0
 40
0.0
 40
0.0
 40
1.0
 40
1.0
 40
1.0
 40
2.0
 40
2.0
 40
2.0
 40
3.0
 40
3.0
 40
3.0
 40
4.0
 40
4.0
 40
4.0
 40
5.0
 40
5.0
 40
5.0
 40
6.0
 40
6.0
 40
6.0
 40
7.0
 40
7.0
 40
7.0
 40
8.0
 40
8.0
 40
8.0
 40
9.0
 40
9.0
 40
9.0
 40
10.0
 40
10.0
 40
10.0
 40
11.0
 40
11.0
 40
11.0
 40
12.0
 40
12.0
 40
12.0
 40
13.0
 40
13.0
 40
13.0
 40
14.0
 40
14.0
 40
14.0
 40
15.0
 40
15.0
 40
15.0
 40
16.0
 40
16.0
 40
16.0
 40
17.0
 40
17.0
 40
17.0
 40
18.0
 40
18.0
 40
18.0
 40
19.0
 40
19.0
 40
19.0
 40
20.0
 40
20.0
 40
20.0
 40
20.0
 10
10.41521267100731
 20
-8.358904077771385
 10
10.4013633871566
 20
-8.358904077771385
 10
10.38772080903501
 20
-8.356664765705972
 10
10.37428493664254
 20
-8.352186141575148
 10
10.36078016234036
 20
-8.34767306648947
 10
10.34575954602467
 20
-8.337510034807982
 10
10.32915418578577
 20
-8.32162814462098
 10
10.32915418578577
 20
-8.32162814462098
 10
9.904236108635052
 20
-7.940221623448972
 10
9.904236108635052
 20
-7.940221623448972
 10
9.904236108635052
 20
-7.940221623448972
 10
9.904236108635052
 20
-8.34753526267006
 10
9.904236108635052
 20
-8.34753526267006
 10
9.904236108635052
 20
-8.34753526267006
 10
9.709450409899025
 20
-8.34753526267006
 10
9.709450409899025
 20
-8.34753526267006
 10
9.709450409899025
 20
-8.34753526267006
 10
9.709450409899025
 20
-7.772342120452747
 10
9.709450409899025
 20
-7.772342120452747
 10
9.709450409899025
 20
-7.749535588340393
 10
9.71268879965516
 20
-7.729829642164765
 10
9.71930338298684
 20
-7.713258732880712
 10
9.725849064408814
 20
-7.696687823596661
 10
9.73446180312194
 20
-7.683183049294481
 10
9.745210501035919
 20
-7.672847762838732
 10
9.755890297040194
 20
-7.66247802542813
 10
9.768292640787093
 20
-7.654864364405728
 10
9.782486434186323
 20
-7.650041230726378
 10
9.79668022758555
 20
-7.645218097047028
 10
9.811356334352716
 20
-7.642806530207354
 10
9.826514754487816
 20
-7.642806530207354
 10
9.839675019241469
 20
-7.642806530207354
 10
9.852973087814533
 20
-7.645011391317913
 10
9.866408960207009
 20
-7.649524466403591
 10
9.879913734509188
 20
-7.654037541489267
 10
9.895278860373402
 20
-7.664235024125607
 10
9.912573239709356
 20
-7.680082463357756
 10
9.912573239709356
 20
-7.680082463357756
 10
10.33749131686007
 20
-8.061454533574913
 10
10.33749131686007
 20
-8.061454533574913
 10
10.33749131686007
 20
-8.061454533574913
 10
10.33749131686007
 20
-7.654175345308678
 10
10.33749131686007
 20
-7.654175345308678
 10
10.33749131686007
 20
-7.654175345308678
 10
10.53337944615138
 20
-7.654175345308678
 10
10.53337944615138
 20
-7.654175345308678
 10
10.53337944615138
 20
-7.654175345308678
 10
10.53337944615138
 20
-8.228334958880415
 10
10.53337944615138
 20
-8.228334958880415
 10
10.53337944615138
 20
-8.251141490992769
 10
10.53007215448554
 20
-8.270847437168399
 10
10.52352647306356
 20
-8.287383895497598
 10
10.51691188973188
 20
-8.303989255736502
 10
10.50829915101876
 20
-8.31763183385809
 10
10.49761935501448
 20
-8.328346080817218
 10
10.4868706571005
 20
-8.339060327776345
 10
10.47426160762449
 20
-8.34684624357301
 10
10.45979220658644
 20
-8.35166937725236
 10
10.44525390363868
 20
-8.356492510931709
 10
10.43037109114241
 20
-8.358904077771385
 10
10.41521267100731
 20
-8.358904077771385
 97
        0
 75
     2
 76
     1
 98
        0
  0
ENDBLK
  5
3F
330
3C
100
AcDbEntity
  8
0
100
AcDbBlockEnd
  0
BLOCK
  5
61
330
5F
100
AcDbEntity
  8
0
100
AcDbBlockBegin
  2
block 3
 70
     0
 71
     0
 10
0.0
 20
0.0
 30
0.0
  3
block 3
  1

  0
POLYLINE
  5
63
330
5F
100
AcDbEntity
  8
Layer 1
370
     0
100
AcDb2dPolyline
 66
     1
 10
0.0
 20
0.0
 30
0.0
  0
VERTEX
  5
64
330
63
100
AcDbEntity
  8
Layer 1
370
     0
100
AcDbVertex
100
AcDb2dVertex
 10
4.918545598813766
 20
-8.725186629763147
 30
0.0
  0
VERTEX
  5
65
330
63
100
AcDbEntity
  8
Layer 1
370
     0
100
AcDbVertex
100
AcDb2dVertex
 10
4.871847329511205
 20
-8.78561360457443
 30
0.0
  0
VERTEX
  5
66
330
63
100
AcDbEntity
  8
Layer 1
370
     0
100
AcDbVertex
100
AcDb2dVertex
 10
4.645659585427127
 20
-8.78561360457443
 30
0.0
  0
VERTEX
  5
67
330
63
100
AcDbEntity
  8
Layer 1
370
     0
100
AcDbVertex
100
AcDb2dVertex
 10
4.645659585427127
 20
-8.55065809248039
 30
0.0
  0
VERTEX
  5
68
330
63
100
AcDbEntity
  8
Layer 1
370
     0
100
AcDbVertex
100
AcDb2dVertex
 10
4.917856579716716
 20
-8.55065809248039
 30
0.0
  0
VERTEX
  5
69
330
63
100
AcDbEntity
  8
Layer 1
370
     0
100
AcDbVertex
100
AcDb2dVertex
 10
4.870779349910777
 20
-8.611774086388722
 30
0.0
  0
VERTEX
  5
6A
330
63
100
AcDbEntity
  8
Layer 1
370
     0
100
AcDbVertex
100
AcDb2dVertex
 10
4.718712835191849
 20
-8.611774086388722
 30
0.0
  0
VERTEX
  5
6B
330
63
100
AcDbEntity
  8
Layer 1
370
     0
100
AcDbVertex
100
AcDb2dVertex
 10
4.718712835191849
 20
-8.639886065548362
 30
0.0
  0
VERTEX
  5
6C
330
63
100
AcDbEntity
  8
Layer 1
370
     0
100
AcDbVertex
100
AcDb2dVertex
 10
4.904851344259898
 20
-8.639886065548362
 30
0.0
  0
VERTEX
  5
6D
330
63
100
AcDbEntity
  8
Layer 1
370
     0
100
AcDbVertex
100
AcDb2dVertex
 10
4.863062336023817
 20
-8.69325059461488
 30
0.0
  0
VERTEX
  5
6E
330
63
100
AcDbEntity
  8
Layer 1
370
     0
100
AcDbVertex
100
AcDb2dVertex
 10
4.718712835191849
 20
-8.69325059461488
 30
0.0
  0
VERTEX
  5
6F
330
63
100
AcDbEntity
  8
Layer 1
370
     0
100
AcDbVertex
100
AcDb2dVertex
 10
4.718712835191849
 20
-8.725186629763147
 30
0.0
  0
VERTEX
  5
70
330
63
100
AcDbEntity
  8
Layer 1
370
     0
100
AcDbVertex
100
AcDb2dVertex
 10
4.918545598813766
 20
-8.725186629763147
 30
0.0
  0
SEQEND
  5
71
330
63
100
AcDbEntity
  8
Layer 1
370
     0
  0
HATCH
  5
72
330
5F
100
AcDbEntity
  8
Layer 1
 62
   139
420
  4540750
100
AcDbHatch
 10
0.0
 20
0.0
 30
0.0
210
0.0
220
0.0
230
1.0
  2
SOLID
 70
     1
 71
     0
 91
        1
 92
        1
 93
       12
 72
     1
 10
4.918545598813766
 20
-8.725186629763147
 11
4.871847329511205
 21
-8.78561360457443
 72
     1
 10
4.871847329511205
 20
-8.78561360457443
 11
4.645659585427127
 21
-8.78561360457443
 72
     1
 10
4.645659585427127
 20
-8.78561360457443
 11
4.645659585427127
 21
-8.55065809248039
 72
     1
 10
4.645659585427127
 20
-8.55065809248039
 11
4.917856579716716
 21
-8.55065809248039
 72
     1
 10
4.917856579716716
 20
-8.55065809248039
 11
4.870779349910777
 21
-8.611774086388722
 72
     1
 10
4.870779349910777
 20
-8.611774086388722
 11
4.718712835191849
 21
-8.611774086388722
 72
     1
 10
4.718712835191849
 20
-8.611774086388722
 11
4.718712835191849
 21
-8.639886065548362
 72
     1
 10
4.718712835191849
 20
-8.639886065548362
 11
4.904851344259898
 21
-8.639886065548362
 72
     1
 10
4.904851344259898
 20
-8.639886065548362
 11
4.863062336023817
 21
-8.69325059461488
 72
     1
 10
4.863062336023817
 20
-8.69325059461488
 11
4.718712835191849
 21
-8.69325059461488
 72
     1
 10
4.718712835191849
 20
-8.69325059461488
 11
4.718712835191849
 21
-8.725186629763147
 72
     1
 10
4.718712835191849
 20
-8.725186629763147
 11
4.918545598813766
 21
-8.725186629763147
 97
        0
 75
     2
 76
     1
 98
        0
  0
SPLINE
  5
73
330
5F
100
AcDbEntity
  8
Layer 1
370
     0
100
AcDbSpline
210
0.0
220
0.0
230
1.0
 70
    11
 71
     3
 72
    65
 73
    61
 74
     0
 42
0.0000000001
 43
0.0000000001
 40
0.0
 40
0.0
 40
0.0
 40
0.0
 40
1.0
 40
1.0
 40
1.0
 40
2.0
 40
2.0
 40
2.0
 40
3.0
 40
3.0
 40
3.0
 40
4.0
 40
4.0
 40
4.0
 40
5.0
 40
5.0
 40
5.0
 40
6.0
 40
6.0
 40
6.0
 40
7.0
 40
7.0
 40
7.0
 40
8.0
 40
8.0
 40
8.0
 40
9.0
 40
9.0
 40
9.0
 40
10.0
 40
10.0
 40
10.0
 40
11.0
 40
11.0
 40
11.0
 40
12.0
 40
12.0
 40
12.0
 40
13.0
 40
13.0
 40
13.0
 40
14.0
 40
14.0
 40
14.0
 40
15.0
 40
15.0
 40
15.0
 40
16.0
 40
16.0
 40
16.0
 40
17.0
 40
17.0
 40
17.0
 40
18.0
 40
18.0
 40
18.0
 40
19.0
 40
19.0
 40
19.0
 40
20.0
 40
20.0
 40
20.0
 40
20.0
 10
5.462216117341042
 20
-8.78947211151791
 30
0.0
 10
5.457530787481103
 20
-8.78947211151791
 30
0.0
 10
5.452914359530868
 20
-8.788714190511154
 30
0.0
 10
5.448332382535486
 20
-8.787198348497645
 30
0.0
 10
5.44376763101753
 20
-8.785682506484134
 30
0.0
 10
5.438686115176786
 20
-8.782237410998885
 30
0.0
 10
5.433070609535829
 20
-8.776828611087042
 30
0.0
 10
5.433070609535829
 20
-8.776828611087042
 30
0.0
 10
5.289065618252386
 20
-8.64760307943532
 30
0.0
 10
5.289065618252386
 20
-8.64760307943532
 30
0.0
 10
5.289065618252386
 20
-8.64760307943532
 30
0.0
 10
5.289065618252386
 20
-8.78561360457443
 30
0.0
 10
5.289065618252386
 20
-8.78561360457443
 30
0.0
 10
5.289065618252386
 20
-8.78561360457443
 30
0.0
 10
5.223040363277573
 20
-8.78561360457443
 30
0.0
 10
5.223040363277573
 20
-8.78561360457443
 30
0.0
 10
5.223040363277573
 20
-8.78561360457443
 30
0.0
 10
5.223040363277573
 20
-8.590690102018993
 30
0.0
 10
5.223040363277573
 20
-8.590690102018993
 30
0.0
 10
5.223040363277573
 20
-8.582973088132034
 30
0.0
 10
5.224160019310279
 20
-8.576289602890649
 30
0.0
 10
5.226382105898265
 20
-8.570674097249691
 30
0.0
 10
5.228604192486252
 20
-8.565058591608734
 30
0.0
 10
5.231532523648713
 20
-8.560511065568205
 30
0.0
 10
5.235167099385652
 20
-8.55699706817325
 30
0.0
 10
5.238784449645165
 20
-8.553483070778295
 30
0.0
 10
5.243004691614596
 20
-8.550899249164358
 30
0.0
 10
5.247810599816519
 20
-8.54928005428629
 30
0.0
 10
5.252599282541016
 20
-8.54762640845337
 30
0.0
 10
5.257577445517202
 20
-8.546799585536911
 30
0.0
 10
5.262727863267651
 20
-8.546799585536911
 30
0.0
 10
5.267172036443624
 20
-8.546799585536911
 30
0.0
 10
5.2716851115293
 20
-8.547557506543665
 30
0.0
 10
5.276249863047257
 20
-8.549073348557176
 30
0.0
 10
5.280814614565212
 20
-8.550589190570685
 30
0.0
 10
5.286033934225366
 20
-8.554034286055936
 30
0.0
 10
5.291873371072865
 20
-8.559443085967777
 30
0.0
 10
5.291873371072865
 20
-8.559443085967777
 30
0.0
 10
5.435878362356307
 20
-8.688668617619498
 30
0.0
 10
5.435878362356307
 20
-8.688668617619498
 30
0.0
 10
5.435878362356307
 20
-8.688668617619498
 30
0.0
 10
5.435878362356307
 20
-8.55065809248039
 30
0.0
 10
5.435878362356307
 20
-8.55065809248039
 30
0.0
 10
5.435878362356307
 20
-8.55065809248039
 30
0.0
 10
5.502248126879646
 20
-8.55065809248039
 30
0.0
 10
5.502248126879646
 20
-8.55065809248039
 30
0.0
 10
5.502248126879646
 20
-8.55065809248039
 30
0.0
 10
5.502248126879646
 20
-8.745237085487302
 30
0.0
 10
5.502248126879646
 20
-8.745237085487302
 30
0.0
 10
5.502248126879646
 20
-8.75295409937426
 30
0.0
 10
5.50112847084694
 20
-8.759637584615646
 30
0.0
 10
5.498906384258953
 20
-8.76521863930175
 30
0.0
 10
5.496684297670967
 20
-8.77086859589756
 30
0.0
 10
5.493755966508505
 20
-8.775485023847795
 30
0.0
 10
5.490138616248993
 20
-8.77913682506216
 30
0.0
 10
5.486504040512054
 20
-8.782754175321672
 30
0.0
 10
5.482232122110345
 20
-8.785406898845315
 30
0.0
 10
5.477322861043863
 20
-8.787026093723382
 30
0.0
 10
5.472396374499956
 20
-8.78864528860145
 30
0.0
 10
5.467366535091491
 20
-8.78947211151791
 30
0.0
 10
5.462216117341042
 20
-8.78947211151791
 30
0.0
  0
HATCH
  5
74
330
5F
100
AcDbEntity
  8
Layer 1
 62
   139
420
  4540750
100
AcDbHatch
 10
0.0
 20
0.0
 30
0.0
210
0.0
220
0.0
230
1.0
  2
SOLID
 70
     1
 71
     0
 91
        1
 92
        1
 93
        1
 72
     4
 94
        3
 73
     0
 74
     1
 95
       65
 96
       61
 40
0.0
 40
0.0
 40
0.0
 40
0.0
 40
1.0
 40
1.0
 40
1.0
 40
2.0
 40
2.0
 40
2.0
 40
3.0
 40
3.0
 40
3.0
 40
4.0
 40
4.0
 40
4.0
 40
5.0
 40
5.0
 40
5.0
 40
6.0
 40
6.0
 40
6.0
 40
7.0
 40
7.0
 40
7.0
 40
8.0
 40
8.0
 40
8.0
 40
9.0
 40
9.0
 40
9.0
 40
10.0
 40
10.0
 40
10.0
 40
11.0
 40
11.0
 40
11.0
 40
12.0
 40
12.0
 40
12.0
 40
13.0
 40
13.0
 40
13.0
 40
14.0
 40
14.0
 40
14.0
 40
15.0
 40
15.0
 40
15.0
 40
16.0
 40
16.0
 40
16.0
 40
17.0
 40
17.0
 40
17.0
 40
18.0
 40
18.0
 40
18.0
 40
19.0
 40
19.0
 40
19.0
 40
20.0
 40
20.0
 40
20.0
 40
20.0
 10
5.462216117341042
 20
-8.78947211151791
 10
5.457530787481103
 20
-8.78947211151791
 10
5.452914359530868
 20
-8.788714190511154
 10
5.448332382535486
 20
-8.787198348497645
 10
5.44376763101753
 20
-8.785682506484134
 10
5.438686115176786
 20
-8.782237410998885
 10
5.433070609535829
 20
-8.776828611087042
 10
5.433070609535829
 20
-8.776828611087042
 10
5.289065618252386
 20
-8.64760307943532
 10
5.289065618252386
 20
-8.64760307943532
 10
5.289065618252386
 20
-8.64760307943532
 10
5.289065618252386
 20
-8.78561360457443
 10
5.289065618252386
 20
-8.78561360457443
 10
5.289065618252386
 20
-8.78561360457443
 10
5.223040363277573
 20
-8.78561360457443
 10
5.223040363277573
 20
-8.78561360457443
 10
5.223040363277573
 20
-8.78561360457443
 10
5.223040363277573
 20
-8.590690102018993
 10
5.223040363277573
 20
-8.590690102018993
 10
5.223040363277573
 20
-8.582973088132034
 10
5.224160019310279
 20
-8.576289602890649
 10
5.226382105898265
 20
-8.570674097249691
 10
5.228604192486252
 20
-8.565058591608734
 10
5.231532523648713
 20
-8.560511065568205
 10
5.235167099385652
 20
-8.55699706817325
 10
5.238784449645165
 20
-8.553483070778295
 10
5.243004691614596
 20
-8.550899249164358
 10
5.247810599816519
 20
-8.54928005428629
 10
5.252599282541016
 20
-8.54762640845337
 10
5.257577445517202
 20
-8.546799585536911
 10
5.262727863267651
 20
-8.546799585536911
 10
5.267172036443624
 20
-8.546799585536911
 10
5.2716851115293
 20
-8.547557506543665
 10
5.276249863047257
 20
-8.549073348557176
 10
5.280814614565212
 20
-8.550589190570685
 10
5.286033934225366
 20
-8.554034286055936
 10
5.291873371072865
 20
-8.559443085967777
 10
5.291873371072865
 20
-8.559443085967777
 10
5.435878362356307
 20
-8.688668617619498
 10
5.435878362356307
 20
-8.688668617619498
 10
5.435878362356307
 20
-8.688668617619498
 10
5.435878362356307
 20
-8.55065809248039
 10
5.435878362356307
 20
-8.55065809248039
 10
5.435878362356307
 20
-8.55065809248039
 10
5.502248126879646
 20
-8.55065809248039
 10
5.502248126879646
 20
-8.55065809248039
 10
5.502248126879646
 20
-8.55065809248039
 10
5.502248126879646
 20
-8.745237085487302
 10
5.502248126879646
 20
-8.745237085487302
 10
5.502248126879646
 20
-8.75295409937426
 10
5.50112847084694
 20
-8.759637584615646
 10
5.498906384258953
 20
-8.76521863930175
 10
5.496684297670967
 20
-8.77086859589756
 10
5.493755966508505
 20
-8.775485023847795
 10
5.490138616248993
 20
-8.77913682506216
 10
5.486504040512054
 20
-8.782754175321672
 10
5.482232122110345
 20
-8.785406898845315
 10
5.477322861043863
 20
-8.787026093723382
 10
5.472396374499956
 20
-8.78864528860145
 10
5.467366535091491
 20
-8.78947211151791
 10
5.462216117341042
 20
-8.78947211151791
 97
        0
 75
     2
 76
     1
 98
        0
  0
SPLINE
  5
75
330
5F
100
AcDbEntity
  8
Layer 1
370
     0
100
AcDbSpline
210
0.0
220
0.0
230
1.0
 70
    11
 71
     3
 72
    83
 73
    79
 74
     0
 42
0.0000000001
 43
0.0000000001
 40
0.0
 40
0.0
 40
0.0
 40
0.0
 40
1.0
 40
1.0
 40
1.0
 40
2.0
 40
2.0
 40
2.0
 40
3.0
 40
3.0
 40
3.0
 40
4.0
 40
4.0
 40
4.0
 40
5.0
 40
5.0
 40
5.0
 40
6.0
 40
6.0
 40
6.0
 40
7.0
 40
7.0
 40
7.0
 40
8.0
 40
8.0
 40
8.0
 40
9.0
 40
9.0
 40
9.0
 40
10.0
 40
10.0
 40
10.0
 40
11.0
 40
11.0
 40
11.0
 40
12.0
 40
12.0
 40
12.0
 40
13.0
 40
13.0
 40
13.0
 40
14.0
 40
14.0
 40
14.0
 40
15.0
 40
15.0
 40
15.0
 40
16.0
 40
16.0
 40
16.0
 40
17.0
 40
17.0
 40
17.0
 40
18.0
 40
18.0
 40
18.0
 40
19.0
 40
19.0
 40
19.0
 40
20.0
 40
20.0
 40
20.0
 40
21.0
 40
21.0
 40
21.0
 40
22.0
 40
22.0
 40
22.0
 40
23.0
 40
23.0
 40
23.0
 40
24.0
 40
24.0
 40
24.0
 40
25.0
 40
25.0
 40
25.0
 40
26.0
 40
26.0
 40
26.0
 40
26.0
 10
5.970746661918771
 20
-8.638818085947934
 30
0.0
 10
5.970746661918771
 20
-8.638818085947934
 30
0.0
 10
6.121056177940222
 20
-8.638818085947934
 30
0.0
 10
6.121056177940222
 20
-8.638818085947934
 30
0.0
 10
6.121056177940222
 20
-8.638818085947934
 30
0.0
 10
6.121056177940222
 20
-8.78561360457443
 30
0.0
 10
6.121056177940222
 20
-8.78561360457443
 30
0.0
 10
6.121056177940222
 20
-8.78561360457443
 30
0.0
 10
5.959860160185381
 20
-8.78561360457443
 30
0.0
 10
5.959860160185381
 20
-8.78561360457443
 30
0.0
 10
5.939482420390129
 20
-8.78561360457443
 30
0.0
 10
5.920637748085812
 20
-8.78258192054741
 30
0.0
 10
5.903308917795005
 20
-8.776484101538518
 30
0.0
 10
5.885980087504199
 20
-8.770386282529625
 30
0.0
 10
5.871062824053067
 20
-8.76204915145532
 30
0.0
 10
5.858539901964184
 20
-8.751369355451047
 30
0.0
 10
5.845999754397875
 20
-8.740724010401625
 30
0.0
 10
5.836181232264913
 20
-8.728080509970757
 30
0.0
 10
5.829032659133019
 20
-8.713438854158445
 30
0.0
 10
5.821884086001126
 20
-8.698797198346133
 30
0.0
 10
5.818318412173892
 20
-8.682949759113985
 30
0.0
 10
5.818318412173892
 20
-8.665862085507145
 30
0.0
 10
5.818318412173892
 20
-8.648774411900305
 30
0.0
 10
5.821884086001126
 20
-8.633133678397272
 30
0.0
 10
5.829032659133019
 20
-8.618974335952895
 30
0.0
 10
5.836181232264913
 20
-8.604814993508517
 30
0.0
 10
5.845999754397875
 20
-8.592619355490733
 30
0.0
 10
5.858539901964184
 20
-8.582421872854393
 30
0.0
 10
5.871062824053067
 20
-8.572258841172907
 30
0.0
 10
5.885980087504199
 20
-8.56443847442139
 30
0.0
 10
5.903308917795005
 20
-8.55892632164499
 30
0.0
 10
5.920637748085812
 20
-8.55341416886859
 30
0.0
 10
5.939482420390129
 20
-8.55065809248039
 30
0.0
 10
5.959860160185381
 20
-8.55065809248039
 30
0.0
 10
5.959860160185381
 20
-8.55065809248039
 30
0.0
 10
6.128084172730131
 20
-8.55065809248039
 30
0.0
 10
6.128084172730131
 20
-8.55065809248039
 30
0.0
 10
6.128084172730131
 20
-8.55065809248039
 30
0.0
 10
6.081024168401618
 20
-8.611774086388722
 30
0.0
 10
6.081024168401618
 20
-8.611774086388722
 30
0.0
 10
6.081024168401618
 20
-8.611774086388722
 30
0.0
 10
5.959860160185381
 20
-8.611774086388722
 30
0.0
 10
5.959860160185381
 20
-8.611774086388722
 30
0.0
 10
5.950024412574994
 20
-8.611774086388722
 30
0.0
 10
5.940894909539082
 20
-8.613152124582822
 30
0.0
 10
5.932471651077646
 20
-8.615977102880727
 30
0.0
 10
5.924031167138783
 20
-8.618802081178632
 30
0.0
 10
5.916710339232628
 20
-8.622798391941522
 30
0.0
 10
5.910509167359177
 20
-8.627931584214544
 30
0.0
 10
5.904307995485728
 20
-8.633064776487567
 30
0.0
 10
5.899450410851526
 20
-8.639128144541607
 30
0.0
 10
5.895936413456571
 20
-8.646018335512107
 30
0.0
 10
5.892422416061616
 20
-8.652908526482605
 30
0.0
 10
5.890665417364139
 20
-8.660591089414712
 30
0.0
 10
5.890665417364139
 20
-8.669031573353575
 30
0.0
 10
5.890665417364139
 20
-8.677437606337584
 30
0.0
 10
5.892370739629338
 20
-8.685120169269691
 30
0.0
 10
5.895764158682309
 20
-8.692010360240191
 30
0.0
 10
5.89915757773528
 20
-8.698935002165543
 30
0.0
 10
5.903963485937203
 20
-8.704860566400173
 30
0.0
 10
5.910164657810653
 20
-8.709752601989228
 30
0.0
 10
5.916365829684103
 20
-8.714679088533135
 30
0.0
 10
5.923686657590259
 20
-8.718503144521762
 30
0.0
 10
5.932109916051695
 20
-8.721190319000257
 30
0.0
 10
5.94053317451313
 20
-8.723877493478753
 30
0.0
 10
5.949783255891026
 20
-8.725186629763147
 30
0.0
 10
5.959860160185381
 20
-8.725186629763147
 30
0.0
 10
5.959860160185381
 20
-8.725186629763147
 30
0.0
 10
6.048709172749975
 20
-8.725186629763147
 30
0.0
 10
6.048709172749975
 20
-8.725186629763147
 30
0.0
 10
6.048709172749975
 20
-8.725186629763147
 30
0.0
 10
6.048709172749975
 20
-8.69114908636888
 30
0.0
 10
6.048709172749975
 20
-8.69114908636888
 30
0.0
 10
6.048709172749975
 20
-8.69114908636888
 30
0.0
 10
5.927200654985214
 20
-8.69114908636888
 30
0.0
 10
5.927200654985214
 20
-8.69114908636888
 30
0.0
 10
5.927200654985214
 20
-8.69114908636888
 30
0.0
 10
5.970746661918771
 20
-8.638818085947934
 30
0.0
 10
5.970746661918771
 20
-8.638818085947934
 30
0.0
  0
HATCH
  5
76
330
5F
100
AcDbEntity
  8
Layer 1
 62
   139
420
  4540750
100
AcDbHatch
 10
0.0
 20
0.0
 30
0.0
210
0.0
220
0.0
230
1.0
  2
SOLID
 70
     1
 71
     0
 91
        1
 92
        1
 93
        1
 72
     4
 94
        3
 73
     0
 74
     1
 95
       83
 96
       79
 40
0.0
 40
0.0
 40
0.0
 40
0.0
 40
1.0
 40
1.0
 40
1.0
 40
2.0
 40
2.0
 40
2.0
 40
3.0
 40
3.0
 40
3.0
 40
4.0
 40
4.0
 40
4.0
 40
5.0
 40
5.0
 40
5.0
 40
6.0
 40
6.0
 40
6.0
 40
7.0
 40
7.0
 40
7.0
 40
8.0
 40
8.0
 40
8.0
 40
9.0
 40
9.0
 40
9.0
 40
10.0
 40
10.0
 40
10.0
 40
11.0
 40
11.0
 40
11.0
 40
12.0
 40
12.0
 40
12.0
 40
13.0
 40
13.0
 40
13.0
 40
14.0
 40
14.0
 40
14.0
 40
15.0
 40
15.0
 40
15.0
 40
16.0
 40
16.0
 40
16.0
 40
17.0
 40
17.0
 40
17.0
 40
18.0
 40
18.0
 40
18.0
 40
19.0
 40
19.0
 40
19.0
 40
20.0
 40
20.0
 40
20.0
 40
21.0
 40
21.0
 40
21.0
 40
22.0
 40
22.0
 40
22.0
 40
23.0
 40
23.0
 40
23.0
 40
24.0
 40
24.0
 40
24.0
 40
25.0
 40
25.0
 40
25.0
 40
26.0
 40
26.0
 40
26.0
 40
26.0
 10
5.970746661918771
 20
-8.638818085947934
 10
5.970746661918771
 20
-8.638818085947934
 10
6.121056177940222
 20
-8.638818085947934
 10
6.121056177940222
 20
-8.638818085947934
 10
6.121056177940222
 20
-8.638818085947934
 10
6.121056177940222
 20
-8.78561360457443
 10
6.121056177940222
 20
-8.78561360457443
 10
6.121056177940222
 20
-8.78561360457443
 10
5.959860160185381
 20
-8.78561360457443
 10
5.959860160185381
 20
-8.78561360457443
 10
5.939482420390129
 20
-8.78561360457443
 10
5.920637748085812
 20
-8.78258192054741
 10
5.903308917795005
 20
-8.776484101538518
 10
5.885980087504199
 20
-8.770386282529625
 10
5.871062824053067
 20
-8.76204915145532
 10
5.858539901964184
 20
-8.751369355451047
 10
5.845999754397875
 20
-8.740724010401625
 10
5.836181232264913
 20
-8.728080509970757
 10
5.829032659133019
 20
-8.713438854158445
 10
5.821884086001126
 20
-8.698797198346133
 10
5.818318412173892
 20
-8.682949759113985
 10
5.818318412173892
 20
-8.665862085507145
 10
5.818318412173892
 20
-8.648774411900305
 10
5.821884086001126
 20
-8.633133678397272
 10
5.829032659133019
 20
-8.618974335952895
 10
5.836181232264913
 20
-8.604814993508517
 10
5.845999754397875
 20
-8.592619355490733
 10
5.858539901964184
 20
-8.582421872854393
 10
5.871062824053067
 20
-8.572258841172907
 10
5.885980087504199
 20
-8.56443847442139
 10
5.903308917795005
 20
-8.55892632164499
 10
5.920637748085812
 20
-8.55341416886859
 10
5.939482420390129
 20
-8.55065809248039
 10
5.959860160185381
 20
-8.55065809248039
 10
5.959860160185381
 20
-8.55065809248039
 10
6.128084172730131
 20
-8.55065809248039
 10
6.128084172730131
 20
-8.55065809248039
 10
6.128084172730131
 20
-8.55065809248039
 10
6.081024168401618
 20
-8.611774086388722
 10
6.081024168401618
 20
-8.611774086388722
 10
6.081024168401618
 20
-8.611774086388722
 10
5.959860160185381
 20
-8.611774086388722
 10
5.959860160185381
 20
-8.611774086388722
 10
5.950024412574994
 20
-8.611774086388722
 10
5.940894909539082
 20
-8.613152124582822
 10
5.932471651077646
 20
-8.615977102880727
 10
5.924031167138783
 20
-8.618802081178632
 10
5.916710339232628
 20
-8.622798391941522
 10
5.910509167359177
 20
-8.627931584214544
 10
5.904307995485728
 20
-8.633064776487567
 10
5.899450410851526
 20
-8.639128144541607
 10
5.895936413456571
 20
-8.646018335512107
 10
5.892422416061616
 20
-8.652908526482605
 10
5.890665417364139
 20
-8.660591089414712
 10
5.890665417364139
 20
-8.669031573353575
 10
5.890665417364139
 20
-8.677437606337584
 10
5.892370739629338
 20
-8.685120169269691
 10
5.895764158682309
 20
-8.692010360240191
 10
5.89915757773528
 20
-8.698935002165543
 10
5.903963485937203
 20
-8.704860566400173
 10
5.910164657810653
 20
-8.709752601989228
 10
5.916365829684103
 20
-8.714679088533135
 10
5.923686657590259
 20
-8.718503144521762
 10
5.932109916051695
 20
-8.721190319000257
 10
5.94053317451313
 20
-8.723877493478753
 10
5.949783255891026
 20
-8.725186629763147
 10
5.959860160185381
 20
-8.725186629763147
 10
5.959860160185381
 20
-8.725186629763147
 10
6.048709172749975
 20
-8.725186629763147
 10
6.048709172749975
 20
-8.725186629763147
 10
6.048709172749975
 20
-8.725186629763147
 10
6.048709172749975
 20
-8.69114908636888
 10
6.048709172749975
 20
-8.69114908636888
 10
6.048709172749975
 20
-8.69114908636888
 10
5.927200654985214
 20
-8.69114908636888
 10
5.927200654985214
 20
-8.69114908636888
 10
5.927200654985214
 20
-8.69114908636888
 10
5.970746661918771
 20
-8.638818085947934
 10
5.970746661918771
 20
-8.638818085947934
 97
        0
 75
     2
 76
     1
 98
        0
  0
POLYLINE
  5
77
330
5F
100
AcDbEntity
  8
Layer 1
370
     0
100
AcDb2dPolyline
 66
     1
 10
0.0
 20
0.0
 30
0.0
  0
VERTEX
  5
78
330
77
100
AcDbEntity
  8
Layer 1
370
     0
100
AcDbVertex
100
AcDb2dVertex
 10
6.5172077077891
 20
-8.78561360457443
 30
0.0
  0
VERTEX
  5
79
330
77
100
AcDbEntity
  8
Layer 1
370
     0
100
AcDbVertex
100
AcDb2dVertex
 10
6.444516193050329
 20
-8.78561360457443
 30
0.0
  0
VERTEX
  5
7A
330
77
100
AcDbEntity
  8
Layer 1
370
     0
100
AcDbVertex
100
AcDb2dVertex
 10
6.444516193050329
 20
-8.55065809248039
 30
0.0
  0
VERTEX
  5
7B
330
77
100
AcDbEntity
  8
Layer 1
370
     0
100
AcDbVertex
100
AcDb2dVertex
 10
6.5172077077891
 20
-8.55065809248039
 30
0.0
  0
VERTEX
  5
7C
330
77
100
AcDbEntity
  8
Layer 1
370
     0
100
AcDbVertex
100
AcDb2dVertex
 10
6.5172077077891
 20
-8.78561360457443
 30
0.0
  0
SEQEND
  5
7D
330
77
100
AcDbEntity
  8
Layer 1
370
     0
  0
HATCH
  5
7E
330
5F
100
AcDbEntity
  8
Layer 1
 62
   139
420
  4540750
100
AcDbHatch
 10
0.0
 20
0.0
 30
0.0
210
0.0
220
0.0
230
1.0
  2
SOLID
 70
     1
 71
     0
 91
        1
 92
        1
 93
        4
 72
     1
 10
6.5172077077891
 20
-8.78561360457443
 11
6.444516193050329
 21
-8.78561360457443
 72
     1
 10
6.444516193050329
 20
-8.78561360457443
 11
6.444516193050329
 21
-8.55065809248039
 72
     1
 10
6.444516193050329
 20
-8.55065809248039
 11
6.5172077077891
 21
-8.55065809248039
 72
     1
 10
6.5172077077891
 20
-8.55065809248039
 11
6.5172077077891
 21
-8.78561360457443
 97
        0
 75
     2
 76
     1
 98
        0
  0
SPLINE
  5
7F
330
5F
100
AcDbEntity
  8
Layer 1
370
     0
100
AcDbSpline
210
0.0
220
0.0
230
1.0
 70
    11
 71
     3
 72
    65
 73
    61
 74
     0
 42
0.0000000001
 43
0.0000000001
 40
0.0
 40
0.0
 40
0.0
 40
0.0
 40
1.0
 40
1.0
 40
1.0
 40
2.0
 40
2.0
 40
2.0
 40
3.0
 40
3.0
 40
3.0
 40
4.0
 40
4.0
 40
4.0
 40
5.0
 40
5.0
 40
5.0
 40
6.0
 40
6.0
 40
6.0
 40
7.0
 40
7.0
 40
7.0
 40
8.0
 40
8.0
 40
8.0
 40
9.0
 40
9.0
 40
9.0
 40
10.0
 40
10.0
 40
10.0
 40
11.0
 40
11.0
 40
11.0
 40
12.0
 40
12.0
 40
12.0
 40
13.0
 40
13.0
 40
13.0
 40
14.0
 40
14.0
 40
14.0
 40
15.0
 40
15.0
 40
15.0
 40
16.0
 40
16.0
 40
16.0
 40
17.0
 40
17.0
 40
17.0
 40
18.0
 40
18.0
 40
18.0
 40
19.0
 40
19.0
 40
19.0
 40
20.0
 40
20.0
 40
20.0
 40
20.0
 10
7.081238740634204
 20
-8.78947211151791
 30
0.0
 10
7.076553410774264
 20
-8.78947211151791
 30
0.0
 10
7.071936982824029
 20
-8.788714190511154
 30
0.0
 10
7.067355005828647
 20
-8.787198348497645
 30
0.0
 10
7.06279025431069
 20
-8.785682506484134
 30
0.0
 10
7.057708738469947
 20
-8.782237410998885
 30
0.0
 10
7.05209323282899
 20
-8.776828611087042
 30
0.0
 10
7.05209323282899
 20
-8.776828611087042
 30
0.0
 10
6.908088241545546
 20
-8.64760307943532
 30
0.0
 10
6.908088241545546
 20
-8.64760307943532
 30
0.0
 10
6.908088241545546
 20
-8.64760307943532
 30
0.0
 10
6.908088241545546
 20
-8.78561360457443
 30
0.0
 10
6.908088241545546
 20
-8.78561360457443
 30
0.0
 10
6.908088241545546
 20
-8.78561360457443
 30
0.0
 10
6.842062986570734
 20
-8.78561360457443
 30
0.0
 10
6.842062986570734
 20
-8.78561360457443
 30
0.0
 10
6.842062986570734
 20
-8.78561360457443
 30
0.0
 10
6.842062986570734
 20
-8.590690102018993
 30
0.0
 10
6.842062986570734
 20
-8.590690102018993
 30
0.0
 10
6.842062986570734
 20
-8.582973088132034
 30
0.0
 10
6.84318264260344
 20
-8.576289602890649
 30
0.0
 10
6.845404729191426
 20
-8.570674097249691
 30
0.0
 10
6.847626815779412
 20
-8.565058591608734
 30
0.0
 10
6.850555146941875
 20
-8.560511065568205
 30
0.0
 10
6.854189722678814
 20
-8.55699706817325
 30
0.0
 10
6.857807072938326
 20
-8.553483070778295
 30
0.0
 10
6.862027314907756
 20
-8.550899249164358
 30
0.0
 10
6.86683322310968
 20
-8.54928005428629
 30
0.0
 10
6.871621905834178
 20
-8.54762640845337
 30
0.0
 10
6.876600068810363
 20
-8.546799585536911
 30
0.0
 10
6.881750486560811
 20
-8.546799585536911
 30
0.0
 10
6.886194659736784
 20
-8.546799585536911
 30
0.0
 10
6.890707734822461
 20
-8.547557506543665
 30
0.0
 10
6.895272486340417
 20
-8.549073348557176
 30
0.0
 10
6.899837237858374
 20
-8.550589190570685
 30
0.0
 10
6.905056557518527
 20
-8.554034286055936
 30
0.0
 10
6.910895994366025
 20
-8.559443085967777
 30
0.0
 10
6.910895994366025
 20
-8.559443085967777
 30
0.0
 10
7.054900985649469
 20
-8.688668617619498
 30
0.0
 10
7.054900985649469
 20
-8.688668617619498
 30
0.0
 10
7.054900985649469
 20
-8.688668617619498
 30
0.0
 10
7.054900985649469
 20
-8.55065809248039
 30
0.0
 10
7.054900985649469
 20
-8.55065809248039
 30
0.0
 10
7.054900985649469
 20
-8.55065809248039
 30
0.0
 10
7.121270750172807
 20
-8.55065809248039
 30
0.0
 10
7.121270750172807
 20
-8.55065809248039
 30
0.0
 10
7.121270750172807
 20
-8.55065809248039
 30
0.0
 10
7.121270750172807
 20
-8.745237085487302
 30
0.0
 10
7.121270750172807
 20
-8.745237085487302
 30
0.0
 10
7.121270750172807
 20
-8.75295409937426
 30
0.0
 10
7.120151094140101
 20
-8.759637584615646
 30
0.0
 10
7.117929007552115
 20
-8.76521863930175
 30
0.0
 10
7.115706920964128
 20
-8.77086859589756
 30
0.0
 10
7.112778589801666
 20
-8.775485023847795
 30
0.0
 10
7.109161239542154
 20
-8.77913682506216
 30
0.0
 10
7.105526663805215
 20
-8.782754175321672
 30
0.0
 10
7.101254745403505
 20
-8.785406898845315
 30
0.0
 10
7.096345484337024
 20
-8.787026093723382
 30
0.0
 10
7.091418997793117
 20
-8.78864528860145
 30
0.0
 10
7.086389158384653
 20
-8.78947211151791
 30
0.0
 10
7.081238740634204
 20
-8.78947211151791
 30
0.0
  0
HATCH
  5
80
330
5F
100
AcDbEntity
  8
Layer 1
 62
   139
420
  4540750
100
AcDbHatch
 10
0.0
 20
0.0
 30
0.0
210
0.0
220
0.0
230
1.0
  2
SOLID
 70
     1
 71
     0
 91
        1
 92
        1
 93
        1
 72
     4
 94
        3
 73
     0
 74
     1
 95
       65
 96
       61
 40
0.0
 40
0.0
 40
0.0
 40
0.0
 40
1.0
 40
1.0
 40
1.0
 40
2.0
 40
2.0
 40
2.0
 40
3.0
 40
3.0
 40
3.0
 40
4.0
 40
4.0
 40
4.0
 40
5.0
 40
5.0
 40
5.0
 40
6.0
 40
6.0
 40
6.0
 40
7.0
 40
7.0
 40
7.0
 40
8.0
 40
8.0
 40
8.0
 40
9.0
 40
9.0
 40
9.0
 40
10.0
 40
10.0
 40
10.0
 40
11.0
 40
11.0
 40
11.0
 40
12.0
 40
12.0
 40
12.0
 40
13.0
 40
13.0
 40
13.0
 40
14.0
 40
14.0
 40
14.0
 40
15.0
 40
15.0
 40
15.0
 40
16.0
 40
16.0
 40
16.0
 40
17.0
 40
17.0
 40
17.0
 40
18.0
 40
18.0
 40
18.0
 40
19.0
 40
19.0
 40
19.0
 40
20.0
 40
20.0
 40
20.0
 40
20.0
 10
7.081238740634204
 20
-8.78947211151791
 10
7.076553410774264
 20
-8.78947211151791
 10
7.071936982824029
 20
-8.788714190511154
 10
7.067355005828647
 20
-8.787198348497645
 10
7.06279025431069
 20
-8.785682506484134
 10
7.057708738469947
 20
-8.782237410998885
 10
7.05209323282899
 20
-8.776828611087042
 10
7.05209323282899
 20
-8.776828611087042
 10
6.908088241545546
 20
-8.64760307943532
 10
6.908088241545546
 20
-8.64760307943532
 10
6.908088241545546
 20
-8.64760307943532
 10
6.908088241545546
 20
-8.78561360457443
 10
6.908088241545546
 20
-8.78561360457443
 10
6.908088241545546
 20
-8.78561360457443
 10
6.842062986570734
 20
-8.78561360457443
 10
6.842062986570734
 20
-8.78561360457443
 10
6.842062986570734
 20
-8.78561360457443
 10
6.842062986570734
 20
-8.590690102018993
 10
6.842062986570734
 20
-8.590690102018993
 10
6.842062986570734
 20
-8.582973088132034
 10
6.84318264260344
 20
-8.576289602890649
 10
6.845404729191426
 20
-8.570674097249691
 10
6.847626815779412
 20
-8.565058591608734
 10
6.850555146941875
 20
-8.560511065568205
 10
6.854189722678814
 20
-8.55699706817325
 10
6.857807072938326
 20
-8.553483070778295
 10
6.862027314907756
 20
-8.550899249164358
 10
6.86683322310968
 20
-8.54928005428629
 10
6.871621905834178
 20
-8.54762640845337
 10
6.876600068810363
 20
-8.546799585536911
 10
6.881750486560811
 20
-8.546799585536911
 10
6.886194659736784
 20
-8.546799585536911
 10
6.890707734822461
 20
-8.547557506543665
 10
6.895272486340417
 20
-8.549073348557176
 10
6.899837237858374
 20
-8.550589190570685
 10
6.905056557518527
 20
-8.554034286055936
 10
6.910895994366025
 20
-8.559443085967777
 10
6.910895994366025
 20
-8.559443085967777
 10
7.054900985649469
 20
-8.688668617619498
 10
7.054900985649469
 20
-8.688668617619498
 10
7.054900985649469
 20
-8.688668617619498
 10
7.054900985649469
 20
-8.55065809248039
 10
7.054900985649469
 20
-8.55065809248039
 10
7.054900985649469
 20
-8.55065809248039
 10
7.121270750172807
 20
-8.55065809248039
 10
7.121270750172807
 20
-8.55065809248039
 10
7.121270750172807
 20
-8.55065809248039
 10
7.121270750172807
 20
-8.745237085487302
 10
7.121270750172807
 20
-8.745237085487302
 10
7.121270750172807
 20
-8.75295409937426
 10
7.120151094140101
 20
-8.759637584615646
 10
7.117929007552115
 20
-8.76521863930175
 10
7.115706920964128
 20
-8.77086859589756
 10
7.112778589801666
 20
-8.775485023847795
 10
7.109161239542154
 20
-8.77913682506216
 10
7.105526663805215
 20
-8.782754175321672
 10
7.101254745403505
 20
-8.785406898845315
 10
7.096345484337024
 20
-8.787026093723382
 10
7.091418997793117
 20
-8.78864528860145
 10
7.086389158384653
 20
-8.78947211151791
 10
7.081238740634204
 20
-8.78947211151791
 97
        0
 75
     2
 76
     1
 98
        0
  0
POLYLINE
  5
81
330
5F
100
AcDbEntity
  8
Layer 1
370
     0
100
AcDb2dPolyline
 66
     1
 10
0.0
 20
0.0
 30
0.0
  0
VERTEX
  5
82
330
81
100
AcDbEntity
  8
Layer 1
370
     0
100
AcDbVertex
100
AcDb2dVertex
 10
7.717599553192128
 20
-8.725186629763147
 30
0.0
  0
VERTEX
  5
83
330
81
100
AcDbEntity
  8
Layer 1
370
     0
100
AcDbVertex
100
AcDb2dVertex
 10
7.670918509366992
 20
-8.78561360457443
 30
0.0
  0
VERTEX
  5
84
330
81
100
AcDbEntity
  8
Layer 1
370
     0
100
AcDbVertex
100
AcDb2dVertex
 10
7.444713539805488
 20
-8.78561360457443
 30
0.0
  0
VERTEX
  5
85
330
81
100
AcDbEntity
  8
Layer 1
370
     0
100
AcDbVertex
100
AcDb2dVertex
 10
7.444713539805488
 20
-8.55065809248039
 30
0.0
  0
VERTEX
  5
86
330
81
100
AcDbEntity
  8
Layer 1
370
     0
100
AcDbVertex
100
AcDb2dVertex
 10
7.716910534095077
 20
-8.55065809248039
 30
0.0
  0
VERTEX
  5
87
330
81
100
AcDbEntity
  8
Layer 1
370
     0
100
AcDbVertex
100
AcDb2dVertex
 10
7.669816078811712
 20
-8.611774086388722
 30
0.0
  0
VERTEX
  5
88
330
81
100
AcDbEntity
  8
Layer 1
370
     0
100
AcDbVertex
100
AcDb2dVertex
 10
7.517766789570211
 20
-8.611774086388722
 30
0.0
  0
VERTEX
  5
89
330
81
100
AcDbEntity
  8
Layer 1
370
     0
100
AcDbVertex
100
AcDb2dVertex
 10
7.517766789570211
 20
-8.639886065548362
 30
0.0
  0
VERTEX
  5
8A
330
81
100
AcDbEntity
  8
Layer 1
370
     0
100
AcDbVertex
100
AcDb2dVertex
 10
7.703922524115685
 20
-8.639886065548362
 30
0.0
  0
VERTEX
  5
8B
330
81
100
AcDbEntity
  8
Layer 1
370
     0
100
AcDbVertex
100
AcDb2dVertex
 10
7.662099064924752
 20
-8.69325059461488
 30
0.0
  0
VERTEX
  5
8C
330
81
100
AcDbEntity
  8
Layer 1
370
     0
100
AcDbVertex
100
AcDb2dVertex
 10
7.517766789570211
 20
-8.69325059461488
 30
0.0
  0
VERTEX
  5
8D
330
81
100
AcDbEntity
  8
Layer 1
370
     0
100
AcDbVertex
100
AcDb2dVertex
 10
7.517766789570211
 20
-8.725186629763147
 30
0.0
  0
VERTEX
  5
8E
330
81
100
AcDbEntity
  8
Layer 1
370
     0
100
AcDbVertex
100
AcDb2dVertex
 10
7.717599553192128
 20
-8.725186629763147
 30
0.0
  0
SEQEND
  5
8F
330
81
100
AcDbEntity
  8
Layer 1
370
     0
  0
HATCH
  5
90
330
5F
100
AcDbEntity
  8
Layer 1
 62
   139
420
  4540750
100
AcDbHatch
 10
0.0
 20
0.0
 30
0.0
210
0.0
220
0.0
230
1.0
  2
SOLID
 70
     1
 71
     0
 91
        1
 92
        1
 93
       12
 72
     1
 10
7.717599553192128
 20
-8.725186629763147
 11
7.670918509366992
 21
-8.78561360457443
 72
     1
 10
7.670918509366992
 20
-8.78561360457443
 11
7.444713539805488
 21
-8.78561360457443
 72
     1
 10
7.444713539805488
 20
-8.78561360457443
 11
7.444713539805488
 21
-8.55065809248039
 72
     1
 10
7.444713539805488
 20
-8.55065809248039
 11
7.716910534095077
 21
-8.55065809248039
 72
     1
 10
7.716910534095077
 20
-8.55065809248039
 11
7.669816078811712
 21
-8.611774086388722
 72
     1
 10
7.669816078811712
 20
-8.611774086388722
 11
7.517766789570211
 21
-8.611774086388722
 72
     1
 10
7.517766789570211
 20
-8.611774086388722
 11
7.517766789570211
 21
-8.639886065548362
 72
     1
 10
7.517766789570211
 20
-8.639886065548362
 11
7.703922524115685
 21
-8.639886065548362
 72
     1
 10
7.703922524115685
 20
-8.639886065548362
 11
7.662099064924752
 21
-8.69325059461488
 72
     1
 10
7.662099064924752
 20
-8.69325059461488
 11
7.517766789570211
 21
-8.69325059461488
 72
     1
 10
7.517766789570211
 20
-8.69325059461488
 11
7.517766789570211
 21
-8.725186629763147
 72
     1
 10
7.517766789570211
 20
-8.725186629763147
 11
7.717599553192128
 21
-8.725186629763147
 97
        0
 75
     2
 76
     1
 98
        0
  0
POLYLINE
  5
91
330
5F
100
AcDbEntity
  8
Layer 1
370
     0
100
AcDb2dPolyline
 66
     1
 10
0.0
 20
0.0
 30
0.0
  0
VERTEX
  5
92
330
91
100
AcDbEntity
  8
Layer 1
370
     0
100
AcDbVertex
100
AcDb2dVertex
 10
8.295996634210722
 20
-8.725186629763147
 30
0.0
  0
VERTEX
  5
93
330
91
100
AcDbEntity
  8
Layer 1
370
     0
100
AcDbVertex
100
AcDb2dVertex
 10
8.249315590385587
 20
-8.78561360457443
 30
0.0
  0
VERTEX
  5
94
330
91
100
AcDbEntity
  8
Layer 1
370
     0
100
AcDbVertex
100
AcDb2dVertex
 10
8.023145071778936
 20
-8.78561360457443
 30
0.0
  0
VERTEX
  5
95
330
91
100
AcDbEntity
  8
Layer 1
370
     0
100
AcDbVertex
100
AcDb2dVertex
 10
8.023145071778936
 20
-8.55065809248039
 30
0.0
  0
VERTEX
  5
96
330
91
100
AcDbEntity
  8
Layer 1
370
     0
100
AcDbVertex
100
AcDb2dVertex
 10
8.295307615113673
 20
-8.55065809248039
 30
0.0
  0
VERTEX
  5
97
330
91
100
AcDbEntity
  8
Layer 1
370
     0
100
AcDbVertex
100
AcDb2dVertex
 10
8.24824761078516
 20
-8.611774086388722
 30
0.0
  0
VERTEX
  5
98
330
91
100
AcDbEntity
  8
Layer 1
370
     0
100
AcDbVertex
100
AcDb2dVertex
 10
8.096181096066232
 20
-8.611774086388722
 30
0.0
  0
VERTEX
  5
99
330
91
100
AcDbEntity
  8
Layer 1
370
     0
100
AcDbVertex
100
AcDb2dVertex
 10
8.096181096066232
 20
-8.639886065548362
 30
0.0
  0
VERTEX
  5
9A
330
91
100
AcDbEntity
  8
Layer 1
370
     0
100
AcDbVertex
100
AcDb2dVertex
 10
8.28231960513428
 20
-8.639886065548362
 30
0.0
  0
VERTEX
  5
9B
330
91
100
AcDbEntity
  8
Layer 1
370
     0
100
AcDbVertex
100
AcDb2dVertex
 10
8.2405305968982
 20
-8.69325059461488
 30
0.0
  0
VERTEX
  5
9C
330
91
100
AcDbEntity
  8
Layer 1
370
     0
100
AcDbVertex
100
AcDb2dVertex
 10
8.096181096066232
 20
-8.69325059461488
 30
0.0
  0
VERTEX
  5
9D
330
91
100
AcDbEntity
  8
Layer 1
370
     0
100
AcDbVertex
100
AcDb2dVertex
 10
8.096181096066232
 20
-8.725186629763147
 30
0.0
  0
VERTEX
  5
9E
330
91
100
AcDbEntity
  8
Layer 1
370
     0
100
AcDbVertex
100
AcDb2dVertex
 10
8.295996634210722
 20
-8.725186629763147
 30
0.0
  0
SEQEND
  5
9F
330
91
100
AcDbEntity
  8
Layer 1
370
     0
  0
HATCH
  5
A0
330
5F
100
AcDbEntity
  8
Layer 1
 62
   139
420
  4540750
100
AcDbHatch
 10
0.0
 20
0.0
 30
0.0
210
0.0
220
0.0
230
1.0
  2
SOLID
 70
     1
 71
     0
 91
        1
 92
        1
 93
       12
 72
     1
 10
8.295996634210722
 20
-8.725186629763147
 11
8.249315590385587
 21
-8.78561360457443
 72
     1
 10
8.249315590385587
 20
-8.78561360457443
 11
8.023145071778936
 21
-8.78561360457443
 72
     1
 10
8.023145071778936
 20
-8.78561360457443
 11
8.023145071778936
 21
-8.55065809248039
 72
     1
 10
8.023145071778936
 20
-8.55065809248039
 11
8.295307615113673
 21
-8.55065809248039
 72
     1
 10
8.295307615113673
 20
-8.55065809248039
 11
8.24824761078516
 21
-8.611774086388722
 72
     1
 10
8.24824761078516
 20
-8.611774086388722
 11
8.096181096066232
 21
-8.611774086388722
 72
     1
 10
8.096181096066232
 20
-8.611774086388722
 11
8.096181096066232
 21
-8.639886065548362
 72
     1
 10
8.096181096066232
 20
-8.639886065548362
 11
8.28231960513428
 21
-8.639886065548362
 72
     1
 10
8.28231960513428
 20
-8.639886065548362
 11
8.2405305968982
 21
-8.69325059461488
 72
     1
 10
8.2405305968982
 20
-8.69325059461488
 11
8.096181096066232
 21
-8.69325059461488
 72
     1
 10
8.096181096066232
 20
-8.69325059461488
 11
8.096181096066232
 21
-8.725186629763147
 72
     1
 10
8.096181096066232
 20
-8.725186629763147
 11
8.295996634210722
 21
-8.725186629763147
 97
        0
 75
     2
 76
     1
 98
        0
  0
SPLINE
  5
A1
330
5F
100
AcDbEntity
  8
Layer 1
370
     0
100
AcDbSpline
210
0.0
220
0.0
230
1.0
 70
    11
 71
     3
 72
    80
 73
    76
 74
     0
 42
0.0000000001
 43
0.0000000001
 40
0.0
 40
0.0
 40
0.0
 40
0.0
 40
1.0
 40
1.0
 40
1.0
 40
2.0
 40
2.0
 40
2.0
 40
3.0
 40
3.0
 40
3.0
 40
4.0
 40
4.0
 40
4.0
 40
5.0
 40
5.0
 40
5.0
 40
6.0
 40
6.0
 40
6.0
 40
7.0
 40
7.0
 40
7.0
 40
8.0
 40
8.0
 40
8.0
 40
9.0
 40
9.0
 40
9.0
 40
10.0
 40
10.0
 40
10.0
 40
11.0
 40
11.0
 40
11.0
 40
12.0
 40
12.0
 40
12.0
 40
13.0
 40
13.0
 40
13.0
 40
14.0
 40
14.0
 40
14.0
 40
15.0
 40
15.0
 40
15.0
 40
16.0
 40
16.0
 40
16.0
 40
17.0
 40
17.0
 40
17.0
 40
18.0
 40
18.0
 40
18.0
 40
19.0
 40
19.0
 40
19.0
 40
20.0
 40
20.0
 40
20.0
 40
21.0
 40
21.0
 40
21.0
 40
22.0
 40
22.0
 40
22.0
 40
23.0
 40
23.0
 40
23.0
 40
24.0
 40
24.0
 40
24.0
 40
25.0
 40
25.0
 40
25.0
 40
25.0
 10
8.934855140995452
 20
-8.78561360457443
 30
0.0
 10
8.934855140995452
 20
-8.78561360457443
 30
0.0
 10
8.837565644491997
 20
-8.78561360457443
 30
0.0
 10
8.837565644491997
 20
-8.78561360457443
 30
0.0
 10
8.837565644491997
 20
-8.78561360457443
 30
0.0
 10
8.785269095025905
 20
-8.723464082020522
 30
0.0
 10
8.785269095025905
 20
-8.723464082020522
 30
0.0
 10
8.785269095025905
 20
-8.723464082020522
 30
0.0
 10
8.673579099394104
 20
-8.723464082020522
 30
0.0
 10
8.673579099394104
 20
-8.723464082020522
 30
0.0
 10
8.673579099394104
 20
-8.723464082020522
 30
0.0
 10
8.673579099394104
 20
-8.78561360457443
 30
0.0
 10
8.673579099394104
 20
-8.78561360457443
 30
0.0
 10
8.673579099394104
 20
-8.78561360457443
 30
0.0
 10
8.600887584655332
 20
-8.78561360457443
 30
0.0
 10
8.600887584655332
 20
-8.78561360457443
 30
0.0
 10
8.600887584655332
 20
-8.78561360457443
 30
0.0
 10
8.600887584655332
 20
-8.66551757595862
 30
0.0
 10
8.600887584655332
 20
-8.66551757595862
 30
0.0
 10
8.600887584655332
 20
-8.66551757595862
 30
0.0
 10
8.805250648840353
 20
-8.66551757595862
 30
0.0
 10
8.805250648840353
 20
-8.66551757595862
 30
0.0
 10
8.816481660122268
 20
-8.66551757595862
 30
0.0
 10
8.825990123661557
 20
-8.66317491102865
 30
0.0
 10
8.833707137548517
 20
-8.65848958116871
 30
0.0
 10
8.841424151435477
 20
-8.65380425130877
 30
0.0
 10
8.845282658378956
 20
-8.647361922751353
 30
0.0
 10
8.845282658378956
 20
-8.639162595496458
 30
0.0
 10
8.845282658378956
 20
-8.630033092460547
 30
0.0
 10
8.841768660984002
 20
-8.6231773524449
 30
0.0
 10
8.834740666194092
 20
-8.618595375449518
 30
0.0
 10
8.827747122359035
 20
-8.614047849408987
 30
0.0
 10
8.817928600226073
 20
-8.611774086388722
 30
0.0
 10
8.805250648840353
 20
-8.611774086388722
 30
0.0
 10
8.805250648840353
 20
-8.611774086388722
 30
0.0
 10
8.600887584655332
 20
-8.611774086388722
 30
0.0
 10
8.600887584655332
 20
-8.611774086388722
 30
0.0
 10
8.600887584655332
 20
-8.611774086388722
 30
0.0
 10
8.648292098532371
 20
-8.55065809248039
 30
0.0
 10
8.648292098532371
 20
-8.55065809248039
 30
0.0
 10
8.648292098532371
 20
-8.55065809248039
 30
0.0
 10
8.799290633650871
 20
-8.55065809248039
 30
0.0
 10
8.799290633650871
 20
-8.55065809248039
 30
0.0
 10
8.812623153178787
 20
-8.55065809248039
 30
0.0
 10
8.826472437029492
 20
-8.551898326855081
 30
0.0
 10
8.840735132338427
 20
-8.554344344649607
 30
0.0
 10
8.854997827647361
 20
-8.556790362444135
 30
0.0
 10
8.868020288581606
 20
-8.561200084665256
 30
0.0
 10
8.879733613231455
 20
-8.567539060358115
 30
0.0
 10
8.891446937881303
 20
-8.573843585096121
 30
0.0
 10
8.901093205240004
 20
-8.582387421899542
 30
0.0
 10
8.908672415307553
 20
-8.593170570768374
 30
0.0
 10
8.916320527284809
 20
-8.603919268682352
 30
0.0
 10
8.920110132318582
 20
-8.617734101578204
 30
0.0
 10
8.920110132318582
 20
-8.634580618501076
 30
0.0
 10
8.920110132318582
 20
-8.64374457249184
 30
0.0
 10
8.918697643169631
 20
-8.652391762159818
 30
0.0
 10
8.915907115826577
 20
-8.660591089414712
 30
0.0
 10
8.913082137528674
 20
-8.668790416669607
 30
0.0
 10
8.90905137581093
 20
-8.676162921008041
 30
0.0
 10
8.9037803797185
 20
-8.682708602430017
 30
0.0
 10
8.898509383626067
 20
-8.689288734806844
 30
0.0
 10
8.89206705506865
 20
-8.694835338538097
 30
0.0
 10
8.884453394046247
 20
-8.699417315533479
 30
0.0
 10
8.876839733023845
 20
-8.703964841574008
 30
0.0
 10
8.86822699431072
 20
-8.707203231330142
 30
0.0
 10
8.858649628861725
 20
-8.709063582892178
 30
0.0
 10
8.862645939624615
 20
-8.712095266919198
 30
0.0
 10
8.867055661845736
 20
-8.715953773862678
 30
0.0
 10
8.872016599344494
 20
-8.720639103722617
 30
0.0
 10
8.87690863493355
 20
-8.725324433582557
 30
0.0
 10
8.883454316355525
 20
-8.731766762139975
 30
0.0
 10
8.89165364361042
 20
-8.73996608939487
 30
0.0
 10
8.89165364361042
 20
-8.73996608939487
 30
0.0
 10
8.934855140995452
 20
-8.78561360457443
 30
0.0
 10
8.934855140995452
 20
-8.78561360457443
 30
0.0
  0
HATCH
  5
A2
330
5F
100
AcDbEntity
  8
Layer 1
 62
   139
420
  4540750
100
AcDbHatch
 10
0.0
 20
0.0
 30
0.0
210
0.0
220
0.0
230
1.0
  2
SOLID
 70
     1
 71
     0
 91
        1
 92
        1
 93
        1
 72
     4
 94
        3
 73
     0
 74
     1
 95
       80
 96
       76
 40
0.0
 40
0.0
 40
0.0
 40
0.0
 40
1.0
 40
1.0
 40
1.0
 40
2.0
 40
2.0
 40
2.0
 40
3.0
 40
3.0
 40
3.0
 40
4.0
 40
4.0
 40
4.0
 40
5.0
 40
5.0
 40
5.0
 40
6.0
 40
6.0
 40
6.0
 40
7.0
 40
7.0
 40
7.0
 40
8.0
 40
8.0
 40
8.0
 40
9.0
 40
9.0
 40
9.0
 40
10.0
 40
10.0
 40
10.0
 40
11.0
 40
11.0
 40
11.0
 40
12.0
 40
12.0
 40
12.0
 40
13.0
 40
13.0
 40
13.0
 40
14.0
 40
14.0
 40
14.0
 40
15.0
 40
15.0
 40
15.0
 40
16.0
 40
16.0
 40
16.0
 40
17.0
 40
17.0
 40
17.0
 40
18.0
 40
18.0
 40
18.0
 40
19.0
 40
19.0
 40
19.0
 40
20.0
 40
20.0
 40
20.0
 40
21.0
 40
21.0
 40
21.0
 40
22.0
 40
22.0
 40
22.0
 40
23.0
 40
23.0
 40
23.0
 40
24.0
 40
24.0
 40
24.0
 40
25.0
 40
25.0
 40
25.0
 40
25.0
 10
8.934855140995452
 20
-8.78561360457443
 10
8.934855140995452
 20
-8.78561360457443
 10
8.837565644491997
 20
-8.78561360457443
 10
8.837565644491997
 20
-8.78561360457443
 10
8.837565644491997
 20
-8.78561360457443
 10
8.785269095025905
 20
-8.723464082020522
 10
8.785269095025905
 20
-8.723464082020522
 10
8.785269095025905
 20
-8.723464082020522
 10
8.673579099394104
 20
-8.723464082020522
 10
8.673579099394104
 20
-8.723464082020522
 10
8.673579099394104
 20
-8.723464082020522
 10
8.673579099394104
 20
-8.78561360457443
 10
8.673579099394104
 20
-8.78561360457443
 10
8.673579099394104
 20
-8.78561360457443
 10
8.600887584655332
 20
-8.78561360457443
 10
8.600887584655332
 20
-8.78561360457443
 10
8.600887584655332
 20
-8.78561360457443
 10
8.600887584655332
 20
-8.66551757595862
 10
8.600887584655332
 20
-8.66551757595862
 10
8.600887584655332
 20
-8.66551757595862
 10
8.805250648840353
 20
-8.66551757595862
 10
8.805250648840353
 20
-8.66551757595862
 10
8.816481660122268
 20
-8.66551757595862
 10
8.825990123661557
 20
-8.66317491102865
 10
8.833707137548517
 20
-8.65848958116871
 10
8.841424151435477
 20
-8.65380425130877
 10
8.845282658378956
 20
-8.647361922751353
 10
8.845282658378956
 20
-8.639162595496458
 10
8.845282658378956
 20
-8.630033092460547
 10
8.841768660984002
 20
-8.6231773524449
 10
8.834740666194092
 20
-8.618595375449518
 10
8.827747122359035
 20
-8.614047849408987
 10
8.817928600226073
 20
-8.611774086388722
 10
8.805250648840353
 20
-8.611774086388722
 10
8.805250648840353
 20
-8.611774086388722
 10
8.600887584655332
 20
-8.611774086388722
 10
8.600887584655332
 20
-8.611774086388722
 10
8.600887584655332
 20
-8.611774086388722
 10
8.648292098532371
 20
-8.55065809248039
 10
8.648292098532371
 20
-8.55065809248039
 10
8.648292098532371
 20
-8.55065809248039
 10
8.799290633650871
 20
-8.55065809248039
 10
8.799290633650871
 20
-8.55065809248039
 10
8.812623153178787
 20
-8.55065809248039
 10
8.826472437029492
 20
-8.551898326855081
 10
8.840735132338427
 20
-8.554344344649607
 10
8.854997827647361
 20
-8.556790362444135
 10
8.868020288581606
 20
-8.561200084665256
 10
8.879733613231455
 20
-8.567539060358115
 10
8.891446937881303
 20
-8.573843585096121
 10
8.901093205240004
 20
-8.582387421899542
 10
8.908672415307553
 20
-8.593170570768374
 10
8.916320527284809
 20
-8.603919268682352
 10
8.920110132318582
 20
-8.617734101578204
 10
8.920110132318582
 20
-8.634580618501076
 10
8.920110132318582
 20
-8.64374457249184
 10
8.918697643169631
 20
-8.652391762159818
 10
8.915907115826577
 20
-8.660591089414712
 10
8.913082137528674
 20
-8.668790416669607
 10
8.90905137581093
 20
-8.676162921008041
 10
8.9037803797185
 20
-8.682708602430017
 10
8.898509383626067
 20
-8.689288734806844
 10
8.89206705506865
 20
-8.694835338538097
 10
8.884453394046247
 20
-8.699417315533479
 10
8.876839733023845
 20
-8.703964841574008
 10
8.86822699431072
 20
-8.707203231330142
 10
8.858649628861725
 20
-8.709063582892178
 10
8.862645939624615
 20
-8.712095266919198
 10
8.867055661845736
 20
-8.715953773862678
 10
8.872016599344494
 20
-8.720639103722617
 10
8.87690863493355
 20
-8.725324433582557
 10
8.883454316355525
 20
-8.731766762139975
 10
8.89165364361042
 20
-8.73996608939487
 10
8.89165364361042
 20
-8.73996608939487
 10
8.934855140995452
 20
-8.78561360457443
 10
8.934855140995452
 20
-8.78561360457443
 97
        0
 75
     2
 76
     1
 98
        0
  0
POLYLINE
  5
A3
330
5F
100
AcDbEntity
  8
Layer 1
370
     0
100
AcDb2dPolyline
 66
     1
 10
0.0
 20
0.0
 30
0.0
  0
VERTEX
  5
A4
330
A3
100
AcDbEntity
  8
Layer 1
370
     0
100
AcDbVertex
100
AcDb2dVertex
 10
9.315193682567035
 20
-8.78561360457443
 30
0.0
  0
VERTEX
  5
A5
330
A3
100
AcDbEntity
  8
Layer 1
370
     0
100
AcDbVertex
100
AcDb2dVertex
 10
9.242502167828263
 20
-8.78561360457443
 30
0.0
  0
VERTEX
  5
A6
330
A3
100
AcDbEntity
  8
Layer 1
370
     0
100
AcDbVertex
100
AcDb2dVertex
 10
9.242502167828263
 20
-8.55065809248039
 30
0.0
  0
VERTEX
  5
A7
330
A3
100
AcDbEntity
  8
Layer 1
370
     0
100
AcDbVertex
100
AcDb2dVertex
 10
9.315193682567035
 20
-8.55065809248039
 30
0.0
  0
VERTEX
  5
A8
330
A3
100
AcDbEntity
  8
Layer 1
370
     0
100
AcDbVertex
100
AcDb2dVertex
 10
9.315193682567035
 20
-8.78561360457443
 30
0.0
  0
SEQEND
  5
A9
330
A3
100
AcDbEntity
  8
Layer 1
370
     0
  0
HATCH
  5
AA
330
5F
100
AcDbEntity
  8
Layer 1
 62
   139
420
  4540750
100
AcDbHatch
 10
0.0
 20
0.0
 30
0.0
210
0.0
220
0.0
230
1.0
  2
SOLID
 70
     1
 71
     0
 91
        1
 92
        1
 93
        4
 72
     1
 10
9.315193682567035
 20
-8.78561360457443
 11
9.242502167828263
 21
-8.78561360457443
 72
     1
 10
9.242502167828263
 20
-8.78561360457443
 11
9.242502167828263
 21
-8.55065809248039
 72
     1
 10
9.242502167828263
 20
-8.55065809248039
 11
9.315193682567035
 21
-8.55065809248039
 72
     1
 10
9.315193682567035
 20
-8.55065809248039
 11
9.315193682567035
 21
-8.78561360457443
 97
        0
 75
     2
 76
     1
 98
        0
  0
SPLINE
  5
AB
330
5F
100
AcDbEntity
  8
Layer 1
370
     0
100
AcDbSpline
210
0.0
220
0.0
230
1.0
 70
    11
 71
     3
 72
    65
 73
    61
 74
     0
 42
0.0000000001
 43
0.0000000001
 40
0.0
 40
0.0
 40
0.0
 40
0.0
 40
1.0
 40
1.0
 40
1.0
 40
2.0
 40
2.0
 40
2.0
 40
3.0
 40
3.0
 40
3.0
 40
4.0
 40
4.0
 40
4.0
 40
5.0
 40
5.0
 40
5.0
 40
6.0
 40
6.0
 40
6.0
 40
7.0
 40
7.0
 40
7.0
 40
8.0
 40
8.0
 40
8.0
 40
9.0
 40
9.0
 40
9.0
 40
10.0
 40
10.0
 40
10.0
 40
11.0
 40
11.0
 40
11.0
 40
12.0
 40
12.0
 40
12.0
 40
13.0
 40
13.0
 40
13.0
 40
14.0
 40
14.0
 40
14.0
 40
15.0
 40
15.0
 40
15.0
 40
16.0
 40
16.0
 40
16.0
 40
17.0
 40
17.0
 40
17.0
 40
18.0
 40
18.0
 40
18.0
 40
19.0
 40
19.0
 40
19.0
 40
20.0
 40
20.0
 40
20.0
 40
20.0
 10
9.879224715412137
 20
-8.78947211151791
 30
0.0
 10
9.874539385552199
 20
-8.78947211151791
 30
0.0
 10
9.869922957601963
 20
-8.788714190511154
 30
0.0
 10
9.865375431561434
 20
-8.787198348497645
 30
0.0
 10
9.860827905520903
 20
-8.785682506484134
 30
0.0
 10
9.855729164202733
 20
-8.782237410998885
 30
0.0
 10
9.850079207606925
 20
-8.776828611087042
 30
0.0
 10
9.850079207606925
 20
-8.776828611087042
 30
0.0
 10
9.706074216323481
 20
-8.64760307943532
 30
0.0
 10
9.706074216323481
 20
-8.64760307943532
 30
0.0
 10
9.706074216323481
 20
-8.64760307943532
 30
0.0
 10
9.706074216323481
 20
-8.78561360457443
 30
0.0
 10
9.706074216323481
 20
-8.78561360457443
 30
0.0
 10
9.706074216323481
 20
-8.78561360457443
 30
0.0
 10
9.640066186826093
 20
-8.78561360457443
 30
0.0
 10
9.640066186826093
 20
-8.78561360457443
 30
0.0
 10
9.640066186826093
 20
-8.78561360457443
 30
0.0
 10
9.640066186826093
 20
-8.590690102018993
 30
0.0
 10
9.640066186826093
 20
-8.590690102018993
 30
0.0
 10
9.640066186826093
 20
-8.582973088132034
 30
0.0
 10
9.641168617381373
 20
-8.576289602890649
 30
0.0
 10
9.643373478491934
 20
-8.570674097249691
 30
0.0
 10
9.645647241512199
 20
-8.565058591608734
 30
0.0
 10
9.64854112171981
 20
-8.560511065568205
 30
0.0
 10
9.652192922934173
 20
-8.55699706817325
 30
0.0
 10
9.655844724148539
 20
-8.553483070778295
 30
0.0
 10
9.660047740640543
 20
-8.550899249164358
 30
0.0
 10
9.664801972410189
 20
-8.54928005428629
 30
0.0
 10
9.669625106089537
 20
-8.54762640845337
 30
0.0
 10
9.674586043588297
 20
-8.546799585536911
 30
0.0
 10
9.679753686816172
 20
-8.546799585536911
 30
0.0
 10
9.684232310946998
 20
-8.546799585536911
 30
0.0
 10
9.688710935077822
 20
-8.547557506543665
 30
0.0
 10
9.69325846111835
 20
-8.549073348557176
 30
0.0
 10
9.697874889068586
 20
-8.550589190570685
 30
0.0
 10
9.703042532296461
 20
-8.554034286055936
 30
0.0
 10
9.708899194621386
 20
-8.559443085967777
 30
0.0
 10
9.708899194621386
 20
-8.559443085967777
 30
0.0
 10
9.852904185904828
 20
-8.688668617619498
 30
0.0
 10
9.852904185904828
 20
-8.688668617619498
 30
0.0
 10
9.852904185904828
 20
-8.688668617619498
 30
0.0
 10
9.852904185904828
 20
-8.55065809248039
 30
0.0
 10
9.852904185904828
 20
-8.55065809248039
 30
0.0
 10
9.852904185904828
 20
-8.55065809248039
 30
0.0
 10
9.91925672495074
 20
-8.55065809248039
 30
0.0
 10
9.91925672495074
 20
-8.55065809248039
 30
0.0
 10
9.91925672495074
 20
-8.55065809248039
 30
0.0
 10
9.91925672495074
 20
-8.745237085487302
 30
0.0
 10
9.91925672495074
 20
-8.745237085487302
 30
0.0
 10
9.91925672495074
 20
-8.75295409937426
 30
0.0
 10
9.91815429439546
 20
-8.759637584615646
 30
0.0
 10
9.9159494332849
 20
-8.76521863930175
 30
0.0
 10
9.913744572174341
 20
-8.77086859589756
 30
0.0
 10
9.910781790057026
 20
-8.775485023847795
 30
0.0
 10
9.90712998884266
 20
-8.77913682506216
 30
0.0
 10
9.903547089538002
 20
-8.782754175321672
 30
0.0
 10
9.899275171136292
 20
-8.785406898845315
 30
0.0
 10
9.894314233637532
 20
-8.787026093723382
 30
0.0
 10
9.889422198048477
 20
-8.78864528860145
 30
0.0
 10
9.884392358640012
 20
-8.78947211151791
 30
0.0
 10
9.879224715412137
 20
-8.78947211151791
 30
0.0
  0
HATCH
  5
AC
330
5F
100
AcDbEntity
  8
Layer 1
 62
   139
420
  4540750
100
AcDbHatch
 10
0.0
 20
0.0
 30
0.0
210
0.0
220
0.0
230
1.0
  2
SOLID
 70
     1
 71
     0
 91
        1
 92
        1
 93
        1
 72
     4
 94
        3
 73
     0
 74
     1
 95
       65
 96
       61
 40
0.0
 40
0.0
 40
0.0
 40
0.0
 40
1.0
 40
1.0
 40
1.0
 40
2.0
 40
2.0
 40
2.0
 40
3.0
 40
3.0
 40
3.0
 40
4.0
 40
4.0
 40
4.0
 40
5.0
 40
5.0
 40
5.0
 40
6.0
 40
6.0
 40
6.0
 40
7.0
 40
7.0
 40
7.0
 40
8.0
 40
8.0
 40
8.0
 40
9.0
 40
9.0
 40
9.0
 40
10.0
 40
10.0
 40
10.0
 40
11.0
 40
11.0
 40
11.0
 40
12.0
 40
12.0
 40
12.0
 40
13.0
 40
13.0
 40
13.0
 40
14.0
 40
14.0
 40
14.0
 40
15.0
 40
15.0
 40
15.0
 40
16.0
 40
16.0
 40
16.0
 40
17.0
 40
17.0
 40
17.0
 40
18.0
 40
18.0
 40
18.0
 40
19.0
 40
19.0
 40
19.0
 40
20.0
 40
20.0
 40
20.0
 40
20.0
 10
9.879224715412137
 20
-8.78947211151791
 10
9.874539385552199
 20
-8.78947211151791
 10
9.869922957601963
 20
-8.788714190511154
 10
9.865375431561434
 20
-8.787198348497645
 10
9.860827905520903
 20
-8.785682506484134
 10
9.855729164202733
 20
-8.782237410998885
 10
9.850079207606925
 20
-8.776828611087042
 10
9.850079207606925
 20
-8.776828611087042
 10
9.706074216323481
 20
-8.64760307943532
 10
9.706074216323481
 20
-8.64760307943532
 10
9.706074216323481
 20
-8.64760307943532
 10
9.706074216323481
 20
-8.78561360457443
 10
9.706074216323481
 20
-8.78561360457443
 10
9.706074216323481
 20
-8.78561360457443
 10
9.640066186826093
 20
-8.78561360457443
 10
9.640066186826093
 20
-8.78561360457443
 10
9.640066186826093
 20
-8.78561360457443
 10
9.640066186826093
 20
-8.590690102018993
 10
9.640066186826093
 20
-8.590690102018993
 10
9.640066186826093
 20
-8.582973088132034
 10
9.641168617381373
 20
-8.576289602890649
 10
9.643373478491934
 20
-8.570674097249691
 10
9.645647241512199
 20
-8.565058591608734
 10
9.64854112171981
 20
-8.560511065568205
 10
9.652192922934173
 20
-8.55699706817325
 10
9.655844724148539
 20
-8.553483070778295
 10
9.660047740640543
 20
-8.550899249164358
 10
9.664801972410189
 20
-8.54928005428629
 10
9.669625106089537
 20
-8.54762640845337
 10
9.674586043588297
 20
-8.546799585536911
 10
9.679753686816172
 20
-8.546799585536911
 10
9.684232310946998
 20
-8.546799585536911
 10
9.688710935077822
 20
-8.547557506543665
 10
9.69325846111835
 20
-8.549073348557176
 10
9.697874889068586
 20
-8.550589190570685
 10
9.703042532296461
 20
-8.554034286055936
 10
9.708899194621386
 20
-8.559443085967777
 10
9.708899194621386
 20
-8.559443085967777
 10
9.852904185904828
 20
-8.688668617619498
 10
9.852904185904828
 20
-8.688668617619498
 10
9.852904185904828
 20
-8.688668617619498
 10
9.852904185904828
 20
-8.55065809248039
 10
9.852904185904828
 20
-8.55065809248039
 10
9.852904185904828
 20
-8.55065809248039
 10
9.91925672495074
 20
-8.55065809248039
 10
9.91925672495074
 20
-8.55065809248039
 10
9.91925672495074
 20
-8.55065809248039
 10
9.91925672495074
 20
-8.745237085487302
 10
9.91925672495074
 20
-8.745237085487302
 10
9.91925672495074
 20
-8.75295409937426
 10
9.91815429439546
 20
-8.759637584615646
 10
9.9159494332849
 20
-8.76521863930175
 10
9.913744572174341
 20
-8.77086859589756
 10
9.910781790057026
 20
-8.775485023847795
 10
9.90712998884266
 20
-8.77913682506216
 10
9.903547089538002
 20
-8.782754175321672
 10
9.899275171136292
 20
-8.785406898845315
 10
9.894314233637532
 20
-8.787026093723382
 10
9.889422198048477
 20
-8.78864528860145
 10
9.884392358640012
 20
-8.78947211151791
 10
9.879224715412137
 20
-8.78947211151791
 97
        0
 75
     2
 76
     1
 98
        0
  0
SPLINE
  5
AD
330
5F
100
AcDbEntity
  8
Layer 1
370
     0
100
AcDbSpline
210
0.0
220
0.0
230
1.0
 70
    11
 71
     3
 72
    83
 73
    79
 74
     0
 42
0.0000000001
 43
0.0000000001
 40
0.0
 40
0.0
 40
0.0
 40
0.0
 40
1.0
 40
1.0
 40
1.0
 40
2.0
 40
2.0
 40
2.0
 40
3.0
 40
3.0
 40
3.0
 40
4.0
 40
4.0
 40
4.0
 40
5.0
 40
5.0
 40
5.0
 40
6.0
 40
6.0
 40
6.0
 40
7.0
 40
7.0
 40
7.0
 40
8.0
 40
8.0
 40
8.0
 40
9.0
 40
9.0
 40
9.0
 40
10.0
 40
10.0
 40
10.0
 40
11.0
 40
11.0
 40
11.0
 40
12.0
 40
12.0
 40
12.0
 40
13.0
 40
13.0
 40
13.0
 40
14.0
 40
14.0
 40
14.0
 40
15.0
 40
15.0
 40
15.0
 40
16.0
 40
16.0
 40
16.0
 40
17.0
 40
17.0
 40
17.0
 40
18.0
 40
18.0
 40
18.0
 40
19.0
 40
19.0
 40
19.0
 40
20.0
 40
20.0
 40
20.0
 40
21.0
 40
21.0
 40
21.0
 40
22.0
 40
22.0
 40
22.0
 40
23.0
 40
23.0
 40
23.0
 40
24.0
 40
24.0
 40
24.0
 40
25.0
 40
25.0
 40
25.0
 40
26.0
 40
26.0
 40
26.0
 40
26.0
 10
10.38772080903501
 20
-8.638818085947934
 30
0.0
 10
10.38772080903501
 20
-8.638818085947934
 30
0.0
 10
10.53806477601132
 20
-8.638818085947934
 30
0.0
 10
10.53806477601132
 20
-8.638818085947934
 30
0.0
 10
10.53806477601132
 20
-8.638818085947934
 30
0.0
 10
10.53806477601132
 20
-8.78561360457443
 30
0.0
 10
10.53806477601132
 20
-8.78561360457443
 30
0.0
 10
10.53806477601132
 20
-8.78561360457443
 30
0.0
 10
10.37683430730162
 20
-8.78561360457443
 30
0.0
 10
10.37683430730162
 20
-8.78561360457443
 30
0.0
 10
10.35650824393865
 20
-8.78561360457443
 30
0.0
 10
10.33762912067948
 20
-8.78258192054741
 30
0.0
 10
10.32033474134353
 20
-8.776484101538518
 30
0.0
 10
10.30297146009787
 20
-8.770386282529625
 30
0.0
 10
10.28808864760159
 20
-8.76204915145532
 30
0.0
 10
10.27554850003528
 20
-8.751369355451047
 30
0.0
 10
10.26300835246897
 20
-8.740724010401625
 30
0.0
 10
10.25315537938116
 20
-8.728080509970757
 30
0.0
 10
10.24605848268154
 20
-8.713438854158445
 30
0.0
 10
10.23889268407222
 20
-8.698797198346133
 30
0.0
 10
10.23530978476756
 20
-8.682949759113985
 30
0.0
 10
10.23530978476756
 20
-8.665862085507145
 30
0.0
 10
10.23530978476756
 20
-8.648774411900305
 30
0.0
 10
10.23889268407222
 20
-8.633133678397272
 30
0.0
 10
10.24605848268154
 20
-8.618974335952895
 30
0.0
 10
10.25315537938116
 20
-8.604814993508517
 30
0.0
 10
10.26300835246897
 20
-8.592619355490733
 30
0.0
 10
10.27554850003528
 20
-8.582421872854393
 30
0.0
 10
10.28808864760159
 20
-8.572258841172907
 30
0.0
 10
10.30297146009787
 20
-8.56443847442139
 30
0.0
 10
10.32033474134353
 20
-8.55892632164499
 30
0.0
 10
10.33762912067948
 20
-8.55341416886859
 30
0.0
 10
10.35650824393865
 20
-8.55065809248039
 30
0.0
 10
10.37683430730162
 20
-8.55065809248039
 30
0.0
 10
10.37683430730162
 20
-8.55065809248039
 30
0.0
 10
10.54509277080123
 20
-8.55065809248039
 30
0.0
 10
10.54509277080123
 20
-8.55065809248039
 30
0.0
 10
10.54509277080123
 20
-8.55065809248039
 30
0.0
 10
10.49803276647271
 20
-8.611774086388722
 30
0.0
 10
10.49803276647271
 20
-8.611774086388722
 30
0.0
 10
10.49803276647271
 20
-8.611774086388722
 30
0.0
 10
10.37683430730162
 20
-8.611774086388722
 30
0.0
 10
10.37683430730162
 20
-8.611774086388722
 30
0.0
 10
10.36705023612351
 20
-8.611774086388722
 30
0.0
 10
10.35788628213275
 20
-8.613152124582822
 30
0.0
 10
10.34948024914874
 20
-8.615977102880727
 30
0.0
 10
10.34107421616473
 20
-8.618802081178632
 30
0.0
 10
10.3337017118263
 20
-8.622798391941522
 30
0.0
 10
10.32750053995285
 20
-8.627931584214544
 30
0.0
 10
10.3212993680794
 20
-8.633064776487567
 30
0.0
 10
10.31647623440005
 20
-8.639128144541607
 30
0.0
 10
10.31296223700509
 20
-8.646018335512107
 30
0.0
 10
10.30944823961014
 20
-8.652908526482605
 30
0.0
 10
10.30765678995781
 20
-8.660591089414712
 30
0.0
 10
10.30765678995781
 20
-8.669031573353575
 30
0.0
 10
10.30765678995781
 20
-8.677437606337584
 30
0.0
 10
10.30937933770043
 20
-8.685120169269691
 30
0.0
 10
10.31275553127598
 20
-8.692010360240191
 30
0.0
 10
10.31613172485152
 20
-8.698935002165543
 30
0.0
 10
10.32095485853087
 20
-8.704860566400173
 30
0.0
 10
10.32715603040432
 20
-8.709752601989228
 30
0.0
 10
10.33335720227777
 20
-8.714679088533135
 30
0.0
 10
10.3406608047065
 20
-8.718503144521762
 30
0.0
 10
10.34913573960022
 20
-8.721190319000257
 30
0.0
 10
10.35754177258423
 20
-8.723877493478753
 30
0.0
 10
10.36677462848469
 20
-8.725186629763147
 30
0.0
 10
10.37683430730162
 20
-8.725186629763147
 30
0.0
 10
10.37683430730162
 20
-8.725186629763147
 30
0.0
 10
10.46571777082107
 20
-8.725186629763147
 30
0.0
 10
10.46571777082107
 20
-8.725186629763147
 30
0.0
 10
10.46571777082107
 20
-8.725186629763147
 30
0.0
 10
10.46571777082107
 20
-8.69114908636888
 30
0.0
 10
10.46571777082107
 20
-8.69114908636888
 30
0.0
 10
10.46571777082107
 20
-8.69114908636888
 30
0.0
 10
10.34417480210146
 20
-8.69114908636888
 30
0.0
 10
10.34417480210146
 20
-8.69114908636888
 30
0.0
 10
10.34417480210146
 20
-8.69114908636888
 30
0.0
 10
10.38772080903501
 20
-8.638818085947934
 30
0.0
 10
10.38772080903501
 20
-8.638818085947934
 30
0.0
  0
HATCH
  5
AE
330
5F
100
AcDbEntity
  8
Layer 1
 62
   139
420
  4540750
100
AcDbHatch
 10
0.0
 20
0.0
 30
0.0
210
0.0
220
0.0
230
1.0
  2
SOLID
 70
     1
 71
     0
 91
        1
 92
        1
 93
        1
 72
     4
 94
        3
 73
     0
 74
     1
 95
       83
 96
       79
 40
0.0
 40
0.0
 40
0.0
 40
0.0
 40
1.0
 40
1.0
 40
1.0
 40
2.0
 40
2.0
 40
2.0
 40
3.0
 40
3.0
 40
3.0
 40
4.0
 40
4.0
 40
4.0
 40
5.0
 40
5.0
 40
5.0
 40
6.0
 40
6.0
 40
6.0
 40
7.0
 40
7.0
 40
7.0
 40
8.0
 40
8.0
 40
8.0
 40
9.0
 40
9.0
 40
9.0
 40
10.0
 40
10.0
 40
10.0
 40
11.0
 40
11.0
 40
11.0
 40
12.0
 40
12.0
 40
12.0
 40
13.0
 40
13.0
 40
13.0
 40
14.0
 40
14.0
 40
14.0
 40
15.0
 40
15.0
 40
15.0
 40
16.0
 40
16.0
 40
16.0
 40
17.0
 40
17.0
 40
17.0
 40
18.0
 40
18.0
 40
18.0
 40
19.0
 40
19.0
 40
19.0
 40
20.0
 40
20.0
 40
20.0
 40
21.0
 40
21.0
 40
21.0
 40
22.0
 40
22.0
 40
22.0
 40
23.0
 40
23.0
 40
23.0
 40
24.0
 40
24.0
 40
24.0
 40
25.0
 40
25.0
 40
25.0
 40
26.0
 40
26.0
 40
26.0
 40
26.0
 10
10.38772080903501
 20
-8.638818085947934
 10
10.38772080903501
 20
-8.638818085947934
 10
10.53806477601132
 20
-8.638818085947934
 10
10.53806477601132
 20
-8.638818085947934
 10
10.53806477601132
 20
-8.638818085947934
 10
10.53806477601132
 20
-8.78561360457443
 10
10.53806477601132
 20
-8.78561360457443
 10
10.53806477601132
 20
-8.78561360457443
 10
10.37683430730162
 20
-8.78561360457443
 10
10.37683430730162
 20
-8.78561360457443
 10
10.35650824393865
 20
-8.78561360457443
 10
10.33762912067948
 20
-8.78258192054741
 10
10.32033474134353
 20
-8.776484101538518
 10
10.30297146009787
 20
-8.770386282529625
 10
10.28808864760159
 20
-8.76204915145532
 10
10.27554850003528
 20
-8.751369355451047
 10
10.26300835246897
 20
-8.740724010401625
 10
10.25315537938116
 20
-8.728080509970757
 10
10.24605848268154
 20
-8.713438854158445
 10
10.23889268407222
 20
-8.698797198346133
 10
10.23530978476756
 20
-8.682949759113985
 10
10.23530978476756
 20
-8.665862085507145
 10
10.23530978476756
 20
-8.648774411900305
 10
10.23889268407222
 20
-8.633133678397272
 10
10.24605848268154
 20
-8.618974335952895
 10
10.25315537938116
 20
-8.604814993508517
 10
10.26300835246897
 20
-8.592619355490733
 10
10.27554850003528
 20
-8.582421872854393
 10
10.28808864760159
 20
-8.572258841172907
 10
10.30297146009787
 20
-8.56443847442139
 10
10.32033474134353
 20
-8.55892632164499
 10
10.33762912067948
 20
-8.55341416886859
 10
10.35650824393865
 20
-8.55065809248039
 10
10.37683430730162
 20
-8.55065809248039
 10
10.37683430730162
 20
-8.55065809248039
 10
10.54509277080123
 20
-8.55065809248039
 10
10.54509277080123
 20
-8.55065809248039
 10
10.54509277080123
 20
-8.55065809248039
 10
10.49803276647271
 20
-8.611774086388722
 10
10.49803276647271
 20
-8.611774086388722
 10
10.49803276647271
 20
-8.611774086388722
 10
10.37683430730162
 20
-8.611774086388722
 10
10.37683430730162
 20
-8.611774086388722
 10
10.36705023612351
 20
-8.611774086388722
 10
10.35788628213275
 20
-8.613152124582822
 10
10.34948024914874
 20
-8.615977102880727
 10
10.34107421616473
 20
-8.618802081178632
 10
10.3337017118263
 20
-8.622798391941522
 10
10.32750053995285
 20
-8.627931584214544
 10
10.3212993680794
 20
-8.633064776487567
 10
10.31647623440005
 20
-8.639128144541607
 10
10.31296223700509
 20
-8.646018335512107
 10
10.30944823961014
 20
-8.652908526482605
 10
10.30765678995781
 20
-8.660591089414712
 10
10.30765678995781
 20
-8.669031573353575
 10
10.30765678995781
 20
-8.677437606337584
 10
10.30937933770043
 20
-8.685120169269691
 10
10.31275553127598
 20
-8.692010360240191
 10
10.31613172485152
 20
-8.698935002165543
 10
10.32095485853087
 20
-8.704860566400173
 10
10.32715603040432
 20
-8.709752601989228
 10
10.33335720227777
 20
-8.714679088533135
 10
10.3406608047065
 20
-8.718503144521762
 10
10.34913573960022
 20
-8.721190319000257
 10
10.35754177258423
 20
-8.723877493478753
 10
10.36677462848469
 20
-8.725186629763147
 10
10.37683430730162
 20
-8.725186629763147
 10
10.37683430730162
 20
-8.725186629763147
 10
10.46571777082107
 20
-8.725186629763147
 10
10.46571777082107
 20
-8.725186629763147
 10
10.46571777082107
 20
-8.725186629763147
 10
10.46571777082107
 20
-8.69114908636888
 10
10.46571777082107
 20
-8.69114908636888
 10
10.46571777082107
 20
-8.69114908636888
 10
10.34417480210146
 20
-8.69114908636888
 10
10.34417480210146
 20
-8.69114908636888
 10
10.34417480210146
 20
-8.69114908636888
 10
10.38772080903501
 20
-8.638818085947934
 10
10.38772080903501
 20
-8.638818085947934
 97
        0
 75
     2
 76
     1
 98
        0
  0
ENDBLK
  5
62
330
5F
100
AcDbEntity
  8
0
100
AcDbBlockEnd
  0
ENDSEC
  0
SECTION
  2
ENTITIES
  0
INSERT
  5
3D
330
1F
100
AcDbEntity
  8
Layer 1
100
AcDbBlockReference
  2
block 2
 10
0.0
 20
0.0
 30
0.0
  0
INSERT
  5
60
330
1F
100
AcDbEntity
  8
Layer 1
100
AcDbBlockReference
  2
block 3
 10
0.0
 20
0.0
 30
0.0
  0
POLYLINE
  5
AF
330
1F
100
AcDbEntity
  8
Layer 1
370
     0
100
AcDb2dPolyline
 66
     1
 10
0.0
 20
0.0
 30
0.0
  0
VERTEX
  5
B0
330
AF
100
AcDbEntity
  8
Layer 1
370
     0
100
AcDbVertex
100
AcDb2dVertex
 10
6.248249103255645
 20
-6.31008856721588
 30
0.0
  0
VERTEX
  5
B1
330
AF
100
AcDbEntity
  8
Layer 1
370
     0
100
AcDbVertex
100
AcDb2dVertex
 10
5.74416273185389
 20
-5.80601942129155
 30
0.0
  0
VERTEX
  5
B2
330
AF
100
AcDbEntity
  8
Layer 1
370
     0
100
AcDbVertex
100
AcDb2dVertex
 10
5.74416273185389
 20
-6.142054034922819
 30
0.0
  0
VERTEX
  5
B3
330
AF
100
AcDbEntity
  8
Layer 1
370
     0
100
AcDbVertex
100
AcDb2dVertex
 10
6.248249103255645
 20
-6.646691621602216
 30
0.0
  0
VERTEX
  5
B4
330
AF
100
AcDbEntity
  8
Layer 1
370
     0
100
AcDbVertex
100
AcDb2dVertex
 10
6.248249103255645
 20
-6.31008856721588
 30
0.0
  0
SEQEND
  5
B5
330
AF
100
AcDbEntity
  8
Layer 1
370
     0
  0
HATCH
  5
B6
330
1F
100
AcDbEntity
  8
Layer 1
 62
    40
420
 16629519
100
AcDbHatch
 10
0.0
 20
0.0
 30
0.0
210
0.0
220
0.0
230
1.0
  2
SOLID
 70
     1
 71
     0
 91
        1
 92
        1
 93
        4
 72
     1
 10
6.248249103255645
 20
-6.31008856721588
 11
5.74416273185389
 21
-5.80601942129155
 72
     1
 10
5.74416273185389
 20
-5.80601942129155
 11
5.74416273185389
 21
-6.142054034922819
 72
     1
 10
5.74416273185389
 20
-6.142054034922819
 11
6.248249103255645
 21
-6.646691621602216
 72
     1
 10
6.248249103255645
 20
-6.646691621602216
 11
6.248249103255645
 21
-6.31008856721588
 97
        0
 75
     2
 76
     1
 98
        0
  0
POLYLINE
  5
B7
330
1F
100
AcDbEntity
  8
Layer 1
370
     0
100
AcDb2dPolyline
 66
     1
 10
0.0
 20
0.0
 30
0.0
  0
VERTEX
  5
B8
330
B7
100
AcDbEntity
  8
Layer 1
370
     0
100
AcDbVertex
100
AcDb2dVertex
 10
6.248249103255645
 20
-5.974036728107185
 30
0.0
  0
VERTEX
  5
B9
330
B7
100
AcDbEntity
  8
Layer 1
370
     0
100
AcDbVertex
100
AcDb2dVertex
 10
5.74416273185389
 20
-5.469950356705429
 30
0.0
  0
VERTEX
  5
BA
330
B7
100
AcDbEntity
  8
Layer 1
370
     0
100
AcDbVertex
100
AcDb2dVertex
 10
5.74416273185389
 20
-5.584775389228806
 30
0.0
  0
VERTEX
  5
BB
330
B7
100
AcDbEntity
  8
Layer 1
370
     0
100
AcDbVertex
100
AcDb2dVertex
 10
6.248249103255645
 20
-6.088844535153136
 30
0.0
  0
VERTEX
  5
BC
330
B7
100
AcDbEntity
  8
Layer 1
370
     0
100
AcDbVertex
100
AcDb2dVertex
 10
6.248249103255645
 20
-5.974036728107185
 30
0.0
  0
SEQEND
  5
BD
330
B7
100
AcDbEntity
  8
Layer 1
370
     0
  0
HATCH
  5
BE
330
1F
100
AcDbEntity
  8
Layer 1
 62
    40
420
 16629519
100
AcDbHatch
 10
0.0
 20
0.0
 30
0.0
210
0.0
220
0.0
230
1.0
  2
SOLID
 70
     1
 71
     0
 91
        1
 92
        1
 93
        4
 72
     1
 10
6.248249103255645
 20
-5.974036728107185
 11
5.74416273185389
 21
-5.469950356705429
 72
     1
 10
5.74416273185389
 20
-5.469950356705429
 11
5.74416273185389
 21
-5.584775389228806
 72
     1
 10
5.74416273185389
 20
-5.584775389228806
 11
6.248249103255645
 21
-6.088844535153136
 72
     1
 10
6.248249103255645
 20
-6.088844535153136
 11
6.248249103255645
 21
-5.974036728107185
 97
        0
 75
     2
 76
     1
 98
        0
  0
POLYLINE
  5
BF
330
1F
100
AcDbEntity
  8
Layer 1
370
     0
100
AcDb2dPolyline
 66
     1
 10
0.0
 20
0.0
 30
0.0
  0
VERTEX
  5
C0
330
BF
100
AcDbEntity
  8
Layer 1
370
     0
100
AcDbVertex
100
AcDb2dVertex
 10
6.289280190484972
 20
-5.719151338630976
 30
0.0
  0
VERTEX
  5
C1
330
BF
100
AcDbEntity
  8
Layer 1
370
     0
100
AcDbVertex
100
AcDb2dVertex
 10
5.785193819083215
 20
-5.215082192706646
 30
0.0
  0
VERTEX
  5
C2
330
BF
100
AcDbEntity
  8
Layer 1
370
     0
100
AcDbVertex
100
AcDb2dVertex
 10
5.788018797381119
 20
-5.275336912743666
 30
0.0
  0
VERTEX
  5
C3
330
BF
100
AcDbEntity
  8
Layer 1
370
     0
100
AcDbVertex
100
AcDb2dVertex
 10
6.29208794330545
 20
-5.779388833190569
 30
0.0
  0
VERTEX
  5
C4
330
BF
100
AcDbEntity
  8
Layer 1
370
     0
100
AcDbVertex
100
AcDb2dVertex
 10
6.289280190484972
 20
-5.719151338630976
 30
0.0
  0
SEQEND
  5
C5
330
BF
100
AcDbEntity
  8
Layer 1
370
     0
  0
HATCH
  5
C6
330
1F
100
AcDbEntity
  8
Layer 1
 62
    40
420
 16629519
100
AcDbHatch
 10
0.0
 20
0.0
 30
0.0
210
0.0
220
0.0
230
1.0
  2
SOLID
 70
     1
 71
     0
 91
        1
 92
        1
 93
        4
 72
     1
 10
6.289280190484972
 20
-5.719151338630976
 11
5.785193819083215
 21
-5.215082192706646
 72
     1
 10
5.785193819083215
 20
-5.215082192706646
 11
5.788018797381119
 21
-5.275336912743666
 72
     1
 10
5.788018797381119
 20
-5.275336912743666
 11
6.29208794330545
 21
-5.779388833190569
 72
     1
 10
6.29208794330545
 20
-5.779388833190569
 11
6.289280190484972
 21
-5.719151338630976
 97
        0
 75
     2
 76
     1
 98
        0
  0
POLYLINE
  5
C7
330
1F
100
AcDbEntity
  8
Layer 1
370
     0
100
AcDb2dPolyline
 66
     1
 10
0.0
 20
0.0
 30
0.0
  0
VERTEX
  5
C8
330
C7
100
AcDbEntity
  8
Layer 1
370
     0
100
AcDbVertex
100
AcDb2dVertex
 10
7.273664548962834
 20
-6.898459199664273
 30
0.0
  0
VERTEX
  5
C9
330
C7
100
AcDbEntity
  8
Layer 1
370
     0
100
AcDbVertex
100
AcDb2dVertex
 10
6.248249103255645
 20
-6.898459199664273
 30
0.0
  0
VERTEX
  5
CA
330
C7
100
AcDbEntity
  8
Layer 1
370
     0
100
AcDbVertex
100
AcDb2dVertex
 10
6.248249103255645
 20
-6.730407441893787
 30
0.0
  0
VERTEX
  5
CB
330
C7
100
AcDbEntity
  8
Layer 1
370
     0
100
AcDbVertex
100
AcDb2dVertex
 10
5.74416273185389
 20
-6.226338295969456
 30
0.0
  0
VERTEX
  5
CC
330
C7
100
AcDbEntity
  8
Layer 1
370
     0
100
AcDbVertex
100
AcDb2dVertex
 10
5.74416273185389
 20
-7.402528345588603
 30
0.0
  0
VERTEX
  5
CD
330
C7
100
AcDbEntity
  8
Layer 1
370
     0
100
AcDbVertex
100
AcDb2dVertex
 10
7.273664548962834
 20
-7.402528345588603
 30
0.0
  0
VERTEX
  5
CE
330
C7
100
AcDbEntity
  8
Layer 1
370
     0
100
AcDbVertex
100
AcDb2dVertex
 10
7.273664548962834
 20
-6.898459199664273
 30
0.0
  0
SEQEND
  5
CF
330
C7
100
AcDbEntity
  8
Layer 1
370
     0
  0
HATCH
  5
D0
330
1F
100
AcDbEntity
  8
Layer 1
 62
   139
420
  4540750
100
AcDbHatch
 10
0.0
 20
0.0
 30
0.0
210
0.0
220
0.0
230
1.0
  2
SOLID
 70
     1
 71
     0
 91
        1
 92
        1
 93
        6
 72
     1
 10
7.273664548962834
 20
-6.898459199664273
 11
6.248249103255645
 21
-6.898459199664273
 72
     1
 10
6.248249103255645
 20
-6.898459199664273
 11
6.248249103255645
 21
-6.730407441893787
 72
     1
 10
6.248249103255645
 20
-6.730407441893787
 11
5.74416273185389
 21
-6.226338295969456
 72
     1
 10
5.74416273185389
 20
-6.226338295969456
 11
5.74416273185389
 21
-7.402528345588603
 72
     1
 10
5.74416273185389
 20
-7.402528345588603
 11
7.273664548962834
 21
-7.402528345588603
 72
     1
 10
7.273664548962834
 20
-7.402528345588603
 11
7.273664548962834
 21
-6.898459199664273
 97
        0
 75
     2
 76
     1
 98
        0
  0
POLYLINE
  5
D1
330
1F
100
AcDbEntity
  8
Layer 1
370
     0
100
AcDb2dPolyline
 66
     1
 10
0.0
 20
0.0
 30
0.0
  0
VERTEX
  5
D2
330
D1
100
AcDbEntity
  8
Layer 1
370
     0
100
AcDbVertex
100
AcDb2dVertex
 10
7.895469833095577
 20
-6.226355521446883
 30
0.0
  0
VERTEX
  5
D3
330
D1
100
AcDbEntity
  8
Layer 1
370
     0
100
AcDbVertex
100
AcDb2dVertex
 10
9.071659882714723
 20
-6.226355521446883
 30
0.0
  0
VERTEX
  5
D4
330
D1
100
AcDbEntity
  8
Layer 1
370
     0
100
AcDbVertex
100
AcDb2dVertex
 10
9.576228567484414
 20
-5.722269150045126
 30
0.0
  0
VERTEX
  5
D5
330
D1
100
AcDbEntity
  8
Layer 1
370
     0
100
AcDbVertex
100
AcDb2dVertex
 10
7.391417912648673
 20
-5.722269150045126
 30
0.0
  0
VERTEX
  5
D6
330
D1
100
AcDbEntity
  8
Layer 1
370
     0
100
AcDbVertex
100
AcDb2dVertex
 10
7.391417912648673
 20
-6.226355521446883
 30
0.0
  0
VERTEX
  5
D7
330
D1
100
AcDbEntity
  8
Layer 1
370
     0
100
AcDbVertex
100
AcDb2dVertex
 10
7.895469833095577
 20
-6.226355521446883
 30
0.0
  0
SEQEND
  5
D8
330
D1
100
AcDbEntity
  8
Layer 1
370
     0
  0
HATCH
  5
D9
330
1F
100
AcDbEntity
  8
Layer 1
 62
    40
420
 16629519
100
AcDbHatch
 10
0.0
 20
0.0
 30
0.0
210
0.0
220
0.0
230
1.0
  2
SOLID
 70
     1
 71
     0
 91
        1
 92
        1
 93
        5
 72
     1
 10
7.895469833095577
 20
-6.226355521446883
 11
9.071659882714723
 21
-6.226355521446883
 72
     1
 10
9.071659882714723
 20
-6.226355521446883
 11
9.576228567484414
 21
-5.722269150045126
 72
     1
 10
9.576228567484414
 20
-5.722269150045126
 11
7.391417912648673
 21
-5.722269150045126
 72
     1
 10
7.391417912648673
 20
-5.722269150045126
 11
7.391417912648673
 21
-6.226355521446883
 72
     1
 10
7.391417912648673
 20
-6.226355521446883
 11
7.895469833095577
 21
-6.226355521446883
 97
        0
 75
     2
 76
     1
 98
        0
  0
POLYLINE
  5
DA
330
1F
100
AcDbEntity
  8
Layer 1
370
     0
100
AcDb2dPolyline
 66
     1
 10
0.0
 20
0.0
 30
0.0
  0
VERTEX
  5
DB
330
DA
100
AcDbEntity
  8
Layer 1
370
     0
100
AcDbVertex
100
AcDb2dVertex
 10
9.04499484365889
 20
-6.81470892841785
 30
0.0
  0
VERTEX
  5
DC
330
DA
100
AcDbEntity
  8
Layer 1
370
     0
100
AcDbVertex
100
AcDb2dVertex
 10
9.04499484365889
 20
-6.310123018170732
 30
0.0
  0
VERTEX
  5
DD
330
DA
100
AcDbEntity
  8
Layer 1
370
     0
100
AcDbVertex
100
AcDb2dVertex
 10
7.387903915253718
 20
-6.310123018170732
 30
0.0
  0
VERTEX
  5
DE
330
DA
100
AcDbEntity
  8
Layer 1
370
     0
100
AcDbVertex
100
AcDb2dVertex
 10
7.401133081917077
 20
-6.81470892841785
 30
0.0
  0
VERTEX
  5
DF
330
DA
100
AcDbEntity
  8
Layer 1
370
     0
100
AcDbVertex
100
AcDb2dVertex
 10
9.04499484365889
 20
-6.81470892841785
 30
0.0
  0
SEQEND
  5
E0
330
DA
100
AcDbEntity
  8
Layer 1
370
     0
  0
HATCH
  5
E1
330
1F
100
AcDbEntity
  8
Layer 1
 62
   139
420
  4540750
100
AcDbHatch
 10
0.0
 20
0.0
 30
0.0
210
0.0
220
0.0
230
1.0
  2
SOLID
 70
     1
 71
     0
 91
        1
 92
        1
 93
        4
 72
     1
 10
9.04499484365889
 20
-6.81470892841785
 11
9.04499484365889
 21
-6.310123018170732
 72
     1
 10
9.04499484365889
 20
-6.310123018170732
 11
7.387903915253718
 21
-6.310123018170732
 72
     1
 10
7.387903915253718
 20
-6.310123018170732
 11
7.401133081917077
 21
-6.81470892841785
 72
     1
 10
7.401133081917077
 20
-6.81470892841785
 11
9.04499484365889
 21
-6.81470892841785
 97
        0
 75
     2
 76
     1
 98
        0
  0
POLYLINE
  5
E2
330
1F
100
AcDbEntity
  8
Layer 1
370
     0
100
AcDb2dPolyline
 66
     1
 10
0.0
 20
0.0
 30
0.0
  0
VERTEX
  5
E3
330
E2
100
AcDbEntity
  8
Layer 1
370
     0
100
AcDbVertex
100
AcDb2dVertex
 10
8.903608124944236
 20
-6.8984764251417
 30
0.0
  0
VERTEX
  5
E4
330
E2
100
AcDbEntity
  8
Layer 1
370
     0
100
AcDbVertex
100
AcDb2dVertex
 10
8.39952175354248
 20
-7.402528345588603
 30
0.0
  0
VERTEX
  5
E5
330
E2
100
AcDbEntity
  8
Layer 1
370
     0
100
AcDbVertex
100
AcDb2dVertex
 10
8.73555636717375
 20
-7.402528345588603
 30
0.0
  0
VERTEX
  5
E6
330
E2
100
AcDbEntity
  8
Layer 1
370
     0
100
AcDbVertex
100
AcDb2dVertex
 10
9.239642738575505
 20
-6.8984764251417
 30
0.0
  0
VERTEX
  5
E7
330
E2
100
AcDbEntity
  8
Layer 1
370
     0
100
AcDbVertex
100
AcDb2dVertex
 10
8.903608124944236
 20
-6.8984764251417
 30
0.0
  0
SEQEND
  5
E8
330
E2
100
AcDbEntity
  8
Layer 1
370
     0
  0
HATCH
  5
E9
330
1F
100
AcDbEntity
  8
Layer 1
 62
    40
420
 16629519
100
AcDbHatch
 10
0.0
 20
0.0
 30
0.0
210
0.0
220
0.0
230
1.0
  2
SOLID
 70
     1
 71
     0
 91
        1
 92
        1
 93
        4
 72
     1
 10
8.903608124944236
 20
-6.8984764251417
 11
8.39952175354248
 21
-7.402528345588603
 72
     1
 10
8.39952175354248
 20
-7.402528345588603
 11
8.73555636717375
 21
-7.402528345588603
 72
     1
 10
8.73555636717375
 20
-7.402528345588603
 11
9.239642738575505
 21
-6.8984764251417
 72
     1
 10
9.239642738575505
 20
-6.8984764251417
 11
8.903608124944236
 21
-6.8984764251417
 97
        0
 75
     2
 76
     1
 98
        0
  0
POLYLINE
  5
EA
330
1F
100
AcDbEntity
  8
Layer 1
370
     0
100
AcDb2dPolyline
 66
     1
 10
0.0
 20
0.0
 30
0.0
  0
VERTEX
  5
EB
330
EA
100
AcDbEntity
  8
Layer 1
370
     0
100
AcDbVertex
100
AcDb2dVertex
 10
8.92972194872243
 20
-7.402528345588603
 30
0.0
  0
VERTEX
  5
EC
330
EA
100
AcDbEntity
  8
Layer 1
370
     0
100
AcDbVertex
100
AcDb2dVertex
 10
9.071659882714723
 20
-7.402528345588603
 30
0.0
  0
VERTEX
  5
ED
330
EA
100
AcDbEntity
  8
Layer 1
370
     0
100
AcDbVertex
100
AcDb2dVertex
 10
9.576228567484414
 20
-6.8984764251417
 30
0.0
  0
VERTEX
  5
EE
330
EA
100
AcDbEntity
  8
Layer 1
370
     0
100
AcDbVertex
100
AcDb2dVertex
 10
9.433808320124186
 20
-6.8984764251417
 30
0.0
  0
VERTEX
  5
EF
330
EA
100
AcDbEntity
  8
Layer 1
370
     0
100
AcDbVertex
100
AcDb2dVertex
 10
8.92972194872243
 20
-7.402528345588603
 30
0.0
  0
SEQEND
  5
F0
330
EA
100
AcDbEntity
  8
Layer 1
370
     0
  0
HATCH
  5
F1
330
1F
100
AcDbEntity
  8
Layer 1
 62
    40
420
 16629519
100
AcDbHatch
 10
0.0
 20
0.0
 30
0.0
210
0.0
220
0.0
230
1.0
  2
SOLID
 70
     1
 71
     0
 91
        1
 92
        1
 93
        4
 72
     1
 10
8.92972194872243
 20
-7.402528345588603
 11
9.071659882714723
 21
-7.402528345588603
 72
     1
 10
9.071659882714723
 20
-7.402528345588603
 11
9.576228567484414
 21
-6.8984764251417
 72
     1
 10
9.576228567484414
 20
-6.8984764251417
 11
9.433808320124186
 21
-6.8984764251417
 72
     1
 10
9.433808320124186
 20
-6.8984764251417
 11
8.92972194872243
 21
-7.402528345588603
 97
        0
 75
     2
 76
     1
 98
        0
  0
POLYLINE
  5
F2
330
1F
100
AcDbEntity
  8
Layer 1
370
     0
100
AcDb2dPolyline
 66
     1
 10
0.0
 20
0.0
 30
0.0
  0
VERTEX
  5
F3
330
F2
100
AcDbEntity
  8
Layer 1
370
     0
100
AcDbVertex
100
AcDb2dVertex
 10
9.253009709058274
 20
-7.402528345588603
 30
0.0
  0
VERTEX
  5
F4
330
F2
100
AcDbEntity
  8
Layer 1
370
     0
100
AcDbVertex
100
AcDb2dVertex
 10
9.34671630625707
 20
-7.402528345588603
 30
0.0
  0
VERTEX
  5
F5
330
F2
100
AcDbEntity
  8
Layer 1
370
     0
100
AcDbVertex
100
AcDb2dVertex
 10
9.851353892936466
 20
-6.8984764251417
 30
0.0
  0
VERTEX
  5
F6
330
F2
100
AcDbEntity
  8
Layer 1
370
     0
100
AcDbVertex
100
AcDb2dVertex
 10
9.757027178550326
 20
-6.8984764251417
 30
0.0
  0
VERTEX
  5
F7
330
F2
100
AcDbEntity
  8
Layer 1
370
     0
100
AcDbVertex
100
AcDb2dVertex
 10
9.253009709058274
 20
-7.402528345588603
 30
0.0
  0
SEQEND
  5
F8
330
F2
100
AcDbEntity
  8
Layer 1
370
     0
  0
HATCH
  5
F9
330
1F
100
AcDbEntity
  8
Layer 1
 62
    40
420
 16629519
100
AcDbHatch
 10
0.0
 20
0.0
 30
0.0
210
0.0
220
0.0
230
1.0
  2
SOLID
 70
     1
 71
     0
 91
        1
 92
        1
 93
        4
 72
     1
 10
9.253009709058274
 20
-7.402528345588603
 11
9.34671630625707
 21
-7.402528345588603
 72
     1
 10
9.34671630625707
 20
-7.402528345588603
 11
9.851353892936466
 21
-6.8984764251417
 72
     1
 10
9.851353892936466
 20
-6.8984764251417
 11
9.757027178550326
 21
-6.8984764251417
 72
     1
 10
9.757027178550326
 20
-6.8984764251417
 11
9.253009709058274
 21
-7.402528345588603
 97
        0
 75
     2
 76
     1
 98
        0
  0
POLYLINE
  5
FA
330
1F
100
AcDbEntity
  8
Layer 1
370
     0
100
AcDb2dPolyline
 66
     1
 10
0.0
 20
0.0
 30
0.0
  0
VERTEX
  5
FB
330
FA
100
AcDbEntity
  8
Layer 1
370
     0
100
AcDbVertex
100
AcDb2dVertex
 10
7.895469833095577
 20
-6.8984764251417
 30
0.0
  0
VERTEX
  5
FC
330
FA
100
AcDbEntity
  8
Layer 1
370
     0
100
AcDbVertex
100
AcDb2dVertex
 10
7.895469833095577
 20
-6.335909557877828
 30
0.0
  0
VERTEX
  5
FD
330
FA
100
AcDbEntity
  8
Layer 1
370
     0
100
AcDbVertex
100
AcDb2dVertex
 10
7.391417912648673
 20
-6.335909557877828
 30
0.0
  0
VERTEX
  5
FE
330
FA
100
AcDbEntity
  8
Layer 1
370
     0
100
AcDbVertex
100
AcDb2dVertex
 10
7.391417912648673
 20
-7.402528345588603
 30
0.0
  0
VERTEX
  5
FF
330
FA
100
AcDbEntity
  8
Layer 1
370
     0
100
AcDbVertex
100
AcDb2dVertex
 10
8.31525471797327
 20
-7.402528345588603
 30
0.0
  0
VERTEX
  5
100
330
FA
100
AcDbEntity
  8
Layer 1
370
     0
100
AcDbVertex
100
AcDb2dVertex
 10
8.819892304652665
 20
-6.8984764251417
 30
0.0
  0
VERTEX
  5
101
330
FA
100
AcDbEntity
  8
Layer 1
370
     0
100
AcDbVertex
100
AcDb2dVertex
 10
7.895469833095577
 20
-6.8984764251417
 30
0.0
  0
SEQEND
  5
102
330
FA
100
AcDbEntity
  8
Layer 1
370
     0
  0
HATCH
  5
103
330
1F
100
AcDbEntity
  8
Layer 1
 62
   139
420
  4540750
100
AcDbHatch
 10
0.0
 20
0.0
 30
0.0
210
0.0
220
0.0
230
1.0
  2
SOLID
 70
     1
 71
     0
 91
        1
 92
        1
 93
        6
 72
     1
 10
7.895469833095577
 20
-6.8984764251417
 11
7.895469833095577
 21
-6.335909557877828
 72
     1
 10
7.895469833095577
 20
-6.335909557877828
 11
7.391417912648673
 21
-6.335909557877828
 72
     1
 10
7.391417912648673
 20
-6.335909557877828
 11
7.391417912648673
 21
-7.402528345588603
 72
     1
 10
7.391417912648673
 20
-7.402528345588603
 11
8.31525471797327
 21
-7.402528345588603
 72
     1
 10
8.31525471797327
 20
-7.402528345588603
 11
8.819892304652665
 21
-6.8984764251417
 72
     1
 10
8.819892304652665
 20
-6.8984764251417
 11
7.895469833095577
 21
-6.8984764251417
 97
        0
 75
     2
 76
     1
 98
        0
  0
ENDSEC
  0
SECTION
  2
OBJECTS
  0
DICTIONARY
  5
C
330
0
100
AcDbDictionary
281
     1
  3
ACAD_GROUP
350
D
  3
ACAD_LAYOUT
350
1A
  3
ACAD_MLINESTYLE
350
17
  3
ACAD_PLOTSETTINGS
350
19
  3
ACAD_PLOTSTYLENAME
350
E
  3
ACAD_TABLESTYLE
350
104
  3
ACAD_VISUALSTYLE
350
2A
  0
DICTIONARY
  5
D
102
{ACAD_REACTORS
330
C
102
}
330
C
100
AcDbDictionary
281
     1
  0
DICTIONARY
  5
1A
102
{ACAD_REACTORS
330
C
102
}
330
C
100
AcDbDictionary
281
     1
  3
Layout1
350
1E
  3
Layout2
350
26
  3
Model
350
22
  0
DICTIONARY
  5
17
102
{ACAD_REACTORS
330
C
102
}
330
C
100
AcDbDictionary
281
     1
  3
Standard
350
18
  0
DICTIONARY
  5
19
102
{ACAD_REACTORS
330
C
102
}
330
C
100
AcDbDictionary
281
     1
  0
ACDBDICTIONARYWDFLT
  5
E
102
{ACAD_REACTORS
330
C
102
}
330
C
100
AcDbDictionary
281
     1
  3
Normal
350
F
100
AcDbDictionaryWithDefault
340
F
  0
DICTIONARY
  5
104
102
{ACAD_REACTORS
330
C
102
}
330
C
100
AcDbDictionary
281
     1
  0
DICTIONARY
  5
2A
102
{ACAD_REACTORS
330
C
102
}
330
C
100
AcDbDictionary
281
     1
  3
2dWireframe
350
2F
  3
3D Hidden
350
31
  3
3dWireframe
350
30
  3
Basic
350
32
  3
Brighten
350
36
  3
ColorChange
350
3A
  3
Conceptual
350
34
  3
Dim
350
35
  3
Facepattern
350
39
  3
Flat
350
2B
  3
FlatWithEdges
350
2C
  3
Gouraud
350
2D
  3
GouraudWithEdges
350
2E
  3
Linepattern
350
38
  3
Realistic
350
33
  3
Thicken
350
37
  0
LAYOUT
  5
1E
102
{ACAD_REACTORS
330
1A
102
}
330
1A
100
AcDbPlotSettings
  1

  2
none_device
  4

  6

 40
0.0
 41
0.0
 42
0.0
 43
0.0
 44
0.0
 45
0.0
 46
0.0
 47
0.0
 48
0.0
 49
0.0
140
0.0
141
0.0
142
1.0
143
1.0
 70
   688
 72
     0
 73
     0
 74
     5
  7

 75
    16
 76
     0
 77
     2
 78
   300
147
1.0
148
0.0
149
0.0
100
AcDbLayout
  1
Layout1
 70
     1
 71
     1
 10
0.0
 20
0.0
 11
12.0
 21
9.0
 12
0.0
 22
0.0
 32
0.0
 14
1.000000000000000E+20
 24
1.000000000000000E+20
 34
1.000000000000000E+20
 15
-1.000000000000000E+20
 25
-1.000000000000000E+20
 35
-1.000000000000000E+20
146
0.0
 13
0.0
 23
0.0
 33
0.0
 16
1.0
 26
0.0
 36
0.0
 17
0.0
 27
1.0
 37
0.0
 76
     0
330
1B
  0
LAYOUT
  5
26
102
{ACAD_REACTORS
330
1A
102
}
330
1A
100
AcDbPlotSettings
  1

  2
none_device
  4

  6

 40
0.0
 41
0.0
 42
0.0
 43
0.0
 44
0.0
 45
0.0
 46
0.0
 47
0.0
 48
0.0
 49
0.0
140
0.0
141
0.0
142
1.0
143
1.0
 70
   688
 72
     0
 73
     0
 74
     5
  7

 75
    16
 76
     0
 77
     2
 78
   300
147
1.0
148
0.0
149
0.0
100
AcDbLayout
  1
Layout2
 70
     1
 71
     2
 10
0.0
 20
0.0
 11
0.0
 21
0.0
 12
0.0
 22
0.0
 32
0.0
 14
0.0
 24
0.0
 34
0.0
 15
0.0
 25
0.0
 35
0.0
146
0.0
 13
0.0
 23
0.0
 33
0.0
 16
1.0
 26
0.0
 36
0.0
 17
0.0
 27
1.0
 37
0.0
 76
     0
330
23
  0
LAYOUT
  5
22
102
{ACAD_REACTORS
330
1A
102
}
330
1A
100
AcDbPlotSettings
  1

  2
none_device
  4

  6

 40
0.0
 41
0.0
 42
0.0
 43
0.0
 44
0.0
 45
0.0
 46
0.0
 47
0.0
 48
0.0
 49
0.0
140
0.0
141
0.0
142
1.0
143
1.0
 70
  1712
 72
     0
 73
     0
 74
     0
  7

 75
     0
 76
     0
 77
     2
 78
   300
147
1.0
148
0.0
149
0.0
100
AcDbLayout
  1
Model
 70
     1
 71
     0
 10
0.0
 20
0.0
 11
12.0
 21
9.0
 12
0.0
 22
0.0
 32
0.0
 14
1.000000000000000E+20
 24
1.000000000000000E+20
 34
1.000000000000000E+20
 15
-1.000000000000000E+20
 25
-1.000000000000000E+20
 35
-1.000000000000000E+20
146
0.0
 13
0.0
 23
0.0
 33
0.0
 16
1.0
 26
0.0
 36
0.0
 17
0.0
 27
1.0
 37
0.0
 76
     0
330
1F
331
29
  0
MLINESTYLE
  5
18
102
{ACAD_REACTORS
330
17
102
}
330
17
100
AcDbMlineStyle
  2
Standard
 70
     0
  3

 62
   256
 51
90.0
 52
90.0
 71
     2
 49
0.5
 62
   256
  6
BYLAYER
 49
-0.5
 62
   256
  6
BYLAYER
  0
ACDBPLACEHOLDER
  5
F
102
{ACAD_REACTORS
330
E
102
}
330
E
  0
VISUALSTYLE
  5
2F
102
{ACAD_REACTORS
330
2A
102
}
330
2A
100
AcDbVisualStyle
  2
2dWireframe
 70
     4
 71
     0
 72
     2
 73
     0
 90
        0
 40
-0.6
 41
-30.0
 62
     5
 63
     7
421
 16777215
 74
     1
 91
        4
 64
     7
 65
   257
 75
     1
175
     1
 42
1.0
 92
        0
 66
   257
 43
1.0
 76
     1
 77
     6
 78
     2
 67
     7
 79
     5
170
     0
171
     0
290
     0
174
     0
 93
        1
 44
0.0
173
     0
291
     0
 45
0.0
1001
ACAD
1000
AcDbSavedByObjectVersion
1070
     0
  0
VISUALSTYLE
  5
31
102
{ACAD_REACTORS
330
2A
102
}
330
2A
100
AcDbVisualStyle
  2
3D Hidden
 70
     6
 71
     1
 72
     2
 73
     2
 90
        0
 40
-0.6
 41
-30.0
 62
     5
 63
     7
421
 16777215
 74
     2
 91
        2
 64
     7
 65
   257
 75
     2
175
     1
 42
40.0
 92
        0
 66
   257
 43
1.0
 76
     1
 77
     6
 78
     2
 67
     7
 79
     3
170
     0
171
     0
290
     0
174
     0
 93
        1
 44
0.0
173
     0
291
     0
 45
0.0
1001
ACAD
1000
AcDbSavedByObjectVersion
1070
     0
  0
VISUALSTYLE
  5
30
102
{ACAD_REACTORS
330
2A
102
}
330
2A
100
AcDbVisualStyle
  2
3dWireframe
 70
     5
 71
     0
 72
     2
 73
     0
 90
        0
 40
-0.6
 41
-30.0
 62
     5
 63
     7
421
 16777215
 74
     1
 91
        4
 64
     7
 65
   257
 75
     1
175
     1
 42
1.0
 92
        0
 66
   257
 43
1.0
 76
     1
 77
     6
 78
     2
 67
     7
 79
     5
170
     0
171
     0
290
     0
174
     0
 93
        1
 44
0.0
173
     0
291
     0
 45
0.0
1001
ACAD
1000
AcDbSavedByObjectVersion
1070
     0
  0
VISUALSTYLE
  5
32
102
{ACAD_REACTORS
330
2A
102
}
330
2A
100
AcDbVisualStyle
  2
Basic
 70
     7
 71
     1
 72
     0
 73
     1
 90
        0
 40
-0.6
 41
-30.0
 62
     5
 63
     7
421
 16777215
 74
     0
 91
        4
 64
     7
 65
   257
 75
     1
175
     1
 42
1.0
 92
        8
 66
     7
 43
1.0
 76
     1
 77
     6
 78
     2
 67
     7
 79
     5
170
     0
171
     0
290
     0
174
     0
 93
        1
 44
0.0
173
     0
291
     1
 45
0.0
1001
ACAD
1000
AcDbSavedByObjectVersion
1070
     0
  0
VISUALSTYLE
  5
36
102
{ACAD_REACTORS
330
2A
102
}
330
2A
100
AcDbVisualStyle
  2
Brighten
 70
    12
 71
     2
 72
     2
 73
     0
 90
        0
 40
-0.6
 41
-30.0
 62
     5
 63
     7
421
 16777215
 74
     1
 91
        4
 64
     7
 65
   257
 75
     1
175
     1
 42
1.0
 92
        8
 66
     7
 43
1.0
 76
     1
 77
     6
 78
     2
 67
     7
 79
     5
170
     0
171
     0
290
     0
174
     0
 93
        1
 44
50.0
173
     0
291
     1
 45
0.0
1001
ACAD
1000
AcDbSavedByObjectVersion
1070
     0
  0
VISUALSTYLE
  5
3A
102
{ACAD_REACTORS
330
2A
102
}
330
2A
100
AcDbVisualStyle
  2
ColorChange
 70
    16
 71
     2
 72
     2
 73
     3
 90
        0
 40
-0.6
 41
-30.0
 62
     5
 63
     8
421
  8421504
 74
     1
 91
        4
 64
     7
 65
   257
 75
     1
175
     1
 42
1.0
 92
        8
 66
     8
424
  8421504
 43
1.0
 76
     1
 77
     6
 78
     2
 67
     7
 79
     5
170
     0
171
     0
290
     0
174
     0
 93
        1
 44
0.0
173
     0
291
     1
 45
0.0
1001
ACAD
1000
AcDbSavedByObjectVersion
1070
     0
  0
VISUALSTYLE
  5
34
102
{ACAD_REACTORS
330
2A
102
}
330
2A
100
AcDbVisualStyle
  2
Conceptual
 70
     9
 71
     3
 72
     2
 73
     0
 90
        0
 40
-0.6
 41
-30.0
 62
     5
 63
     7
421
 16777215
 74
     2
 91
        2
 64
     7
 65
   257
 75
     1
175
     1
 42
40.0
 92
        8
 66
     7
 43
1.0
 76
     1
 77
     6
 78
     2
 67
     7
 79
     3
170
     0
171
     0
290
     0
174
     0
 93
        1
 44
0.0
173
     0
291
     0
 45
0.0
1001
ACAD
1000
AcDbSavedByObjectVersion
1070
     0
  0
VISUALSTYLE
  5
35
102
{ACAD_REACTORS
330
2A
102
}
330
2A
100
AcDbVisualStyle
  2
Dim
 70
    11
 71
     2
 72
     2
 73
     0
 90
        0
 40
-0.6
 41
-30.0
 62
     5
 63
     7
421
 16777215
 74
     1
 91
        4
 64
     7
 65
   257
 75
     1
175
     1
 42
1.0
 92
        8
 66
     7
 43
1.0
 76
     1
 77
     6
 78
     2
 67
     7
 79
     5
170
     0
171
     0
290
     0
174
     0
 93
        1
 44
-50.0
173
     0
291
     1
 45
0.0
1001
ACAD
1000
AcDbSavedByObjectVersion
1070
     0
  0
VISUALSTYLE
  5
39
102
{ACAD_REACTORS
330
2A
102
}
330
2A
100
AcDbVisualStyle
  2
Facepattern
 70
    15
 71
     2
 72
     2
 73
     0
 90
        0
 40
-0.6
 41
-30.0
 62
     5
 63
     7
421
 16777215
 74
     1
 91
        4
 64
     7
 65
   257
 75
     1
175
     1
 42
1.0
 92
        8
 66
     7
 43
1.0
 76
     1
 77
     6
 78
     2
 67
     7
 79
     5
170
     0
171
     0
290
     0
174
     0
 93
        1
 44
0.0
173
     0
291
     1
 45
0.0
1001
ACAD
1000
AcDbSavedByObjectVersion
1070
     0
  0
VISUALSTYLE
  5
2B
102
{ACAD_REACTORS
330
2A
102
}
330
2A
100
AcDbVisualStyle
  2
Flat
 70
     0
 71
     2
 72
     1
 73
     1
 90
        2
 40
-0.6
 41
30.0
 62
     5
 63
     7
421
 16777215
 74
     0
 91
        4
 64
     7
 65
   257
 75
     1
175
     1
 42
1.0
 92
        8
 66
     7
 43
1.0
 76
     1
 77
     6
 78
     2
 67
     7
 79
     5
170
     0
171
     0
290
     0
174
     0
 93
       13
 44
0.0
173
     0
291
     1
 45
0.0
1001
ACAD
1000
AcDbSavedByObjectVersion
1070
     0
  0
VISUALSTYLE
  5
2C
102
{ACAD_REACTORS
330
2A
102
}
330
2A
100
AcDbVisualStyle
  2
FlatWithEdges
 70
     1
 71
     2
 72
     1
 73
     1
 90
        2
 40
-0.6
 41
30.0
 62
     5
 63
     7
421
 16777215
 74
     1
 91
        4
 64
     7
 65
   257
 75
     1
175
     1
 42
1.0
 92
        0
 66
   257
 43
1.0
 76
     1
 77
     6
 78
     2
 67
     7
 79
     5
170
     0
171
     0
290
     0
174
     0
 93
       13
 44
0.0
173
     0
291
     1
 45
0.0
1001
ACAD
1000
AcDbSavedByObjectVersion
1070
     0
  0
VISUALSTYLE
  5
2D
102
{ACAD_REACTORS
330
2A
102
}
330
2A
100
AcDbVisualStyle
  2
Gouraud
 70
     2
 71
     2
 72
     2
 73
     1
 90
        2
 40
-0.6
 41
30.0
 62
     5
 63
     7
421
 16777215
 74
     0
 91
        4
 64
     7
 65
   257
 75
     1
175
     1
 42
1.0
 92
        0
 66
     7
 43
1.0
 76
     1
 77
     6
 78
     2
 67
     7
 79
     5
170
     0
171
     0
290
     0
174
     0
 93
       13
 44
0.0
173
     0
291
     1
 45
0.0
1001
ACAD
1000
AcDbSavedByObjectVersion
1070
     0
  0
VISUALSTYLE
  5
2E
102
{ACAD_REACTORS
330
2A
102
}
330
2A
100
AcDbVisualStyle
  2
GouraudWithEdges
 70
     3
 71
     2
 72
     2
 73
     1
 90
        2
 40
-0.6
 41
30.0
 62
     5
 63
     7
421
 16777215
 74
     1
 91
        4
 64
     7
 65
   257
 75
     1
175
     1
 42
1.0
 92
        0
 66
   257
 43
1.0
 76
     1
 77
     6
 78
     2
 67
     7
 79
     5
170
     0
171
     0
290
     0
174
     0
 93
       13
 44
0.0
173
     0
291
     1
 45
0.0
1001
ACAD
1000
AcDbSavedByObjectVersion
1070
     0
  0
VISUALSTYLE
  5
38
102
{ACAD_REACTORS
330
2A
102
}
330
2A
100
AcDbVisualStyle
  2
Linepattern
 70
    14
 71
     2
 72
     2
 73
     0
 90
        0
 40
-0.6
 41
-30.0
 62
     5
 63
     7
421
 16777215
 74
     1
 91
        4
 64
     7
 65
   257
 75
     7
175
     7
 42
1.0
 92
        8
 66
     7
 43
1.0
 76
     1
 77
     6
 78
     2
 67
     7
 79
     5
170
     0
171
     0
290
     0
174
     0
 93
        1
 44
0.0
173
     0
291
     1
 45
0.0
1001
ACAD
1000
AcDbSavedByObjectVersion
1070
     0
  0
VISUALSTYLE
  5
33
102
{ACAD_REACTORS
330
2A
102
}
330
2A
100
AcDbVisualStyle
  2
Realistic
 70
     8
 71
     2
 72
     2
 73
     0
 90
        0
 40
-0.6
 41
-30.0
 62
     5
 63
     7
421
 16777215
 74
     1
 91
        0
 64
     7
 65
   257
 75
     1
175
     1
 42
1.0
 92
        8
 66
     8
424
  7895160
 43
1.0
 76
     1
 77
     6
 78
     2
 67
     7
 79
     5
170
     0
171
     0
290
     0
174
     0
 93
       13
 44
0.0
173
     0
291
     0
 45
0.0
1001
ACAD
1000
AcDbSavedByObjectVersion
1070
     0
  0
VISUALSTYLE
  5
37
102
{ACAD_REACTORS
330
2A
102
}
330
2A
100
AcDbVisualStyle
  2
Thicken
 70
    13
 71
     2
 72
     2
 73
     0
 90
        0
 40
-0.6
 41
-30.0
 62
     5
 63
     7
421
 16777215
 74
     1
 91
        4
 64
     7
 65
   257
 75
     1
175
     1
 42
1.0
 92
       12
 66
     7
 43
1.0
 76
     1
 77
     6
 78
     2
 67
     7
 79
     5
170
     0
171
     0
290
     0
174
     0
 93
        1
 44
0.0
173
     0
291
     1
 45
0.0
1001
ACAD
1000
AcDbSavedByObjectVersion
1070
     0
  0
ENDSEC
  0
EOF
