  0
SECTION
  2
HEADER
  9
$ACADVER
  1
AC1032
  9
$ACADMAINTVER
 90
      228
  9
$DWGCODEPAGE
  3
ANSI_1252
  9
$REQUIREDVERSIONS
160
                 0
  9
$INSBASE
 10
0.0
 20
0.0
 30
0.0
  9
$EXTMIN
 10
1.000000000000000E+20
 20
1.000000000000000E+20
 30
1.000000000000000E+20
  9
$EXTMAX
 10
-1.000000000000000E+20
 20
-1.000000000000000E+20
 30
-1.000000000000000E+20
  9
$LIMMIN
 10
0.0
 20
0.0
  9
$LIMMAX
 10
12.0
 20
9.0
  9
$ORTHOMODE
 70
     0
  9
$REGENMODE
 70
     1
  9
$FILLMODE
 70
     1
  9
$QTEXTMODE
 70
     0
  9
$MIRRTEXT
 70
     0
  9
$LTSCALE
 40
1.0
  9
$ATTMODE
 70
     1
  9
$TEXTSIZE
 40
0.2
  9
$TRACEWID
 40
0.05
  9
$TEXTSTYLE
  7
Standard
  9
$CLAYER
  8
0
  9
$CELTYPE
  6
ByLayer
  9
$CECOLOR
 62
   256
  9
$CELTSCALE
 40
1.0
  9
$DISPSILH
 70
     0
  9
$DIMSCALE
 40
1.0
  9
$DIMASZ
 40
0.18
  9
$DIMEXO
 40
0.0625
  9
$DIMDLI
 40
0.38
  9
$DIMRND
 40
0.0
  9
$DIMDLE
 40
0.0
  9
$DIMEXE
 40
0.18
  9
$DIMTP
 40
0.0
  9
$DIMTM
 40
0.0
  9
$DIMTXT
 40
0.18
  9
$DIMCEN
 40
0.09
  9
$DIMTSZ
 40
0.0
  9
$DIMTOL
 70
     0
  9
$DIMLIM
 70
     0
  9
$DIMTIH
 70
     1
  9
$DIMTOH
 70
     1
  9
$DIMSE1
 70
     0
  9
$DIMSE2
 70
     0
  9
$DIMTAD
 70
     0
  9
$DIMZIN
 70
     0
  9
$DIMBLK
  1

  9
$DIMASO
 70
     1
  9
$DIMSHO
 70
     1
  9
$DIMPOST
  1

  9
$DIMAPOST
  1

  9
$DIMALT
 70
     0
  9
$DIMALTD
 70
     2
  9
$DIMALTF
 40
25.4
  9
$DIMLFAC
 40
1.0
  9
$DIMTOFL
 70
     0
  9
$DIMTVP
 40
0.0
  9
$DIMTIX
 70
     0
  9
$DIMSOXD
 70
     0
  9
$DIMSAH
 70
     0
  9
$DIMBLK1
  1

  9
$DIMBLK2
  1

  9
$DIMSTYLE
  2
Standard
  9
$DIMCLRD
 70
     0
  9
$DIMCLRE
 70
     0
  9
$DIMCLRT
 70
     0
  9
$DIMTFAC
 40
1.0
  9
$DIMGAP
 40
0.09
  9
$DIMJUST
 70
     0
  9
$DIMSD1
 70
     0
  9
$DIMSD2
 70
     0
  9
$DIMTOLJ
 70
     1
  9
$DIMTZIN
 70
     0
  9
$DIMALTZ
 70
     0
  9
$DIMALTTZ
 70
     0
  9
$DIMUPT
 70
     0
  9
$DIMDEC
 70
     4
  9
$DIMTDEC
 70
     4
  9
$DIMALTU
 70
     2
  9
$DIMALTTD
 70
     2
  9
$DIMTXSTY
  7
Standard
  9
$DIMAUNIT
 70
     0
  9
$DIMADEC
 70
     0
  9
$DIMALTRND
 40
0.0
  9
$DIMAZIN
 70
     0
  9
$DIMDSEP
 70
    46
  9
$DIMATFIT
 70
     3
  9
$DIMFRAC
 70
     0
  9
$DIMLDRBLK
  1

  9
$DIMLUNIT
 70
     2
  9
$DIMLWD
 70
    -2
  9
$DIMLWE
 70
    -2
  9
$DIMTMOVE
 70
     0
  9
$DIMFXL
 40
1.0
  9
$DIMFXLON
 70
     0
  9
$DIMJOGANG
 40
0.7853981633974483
  9
$DIMTFILL
 70
     0
  9
$DIMTFILLCLR
 70
     0
  9
$DIMARCSYM
 70
     0
  9
$DIMLTYPE
  6

  9
$DIMLTEX1
  6

  9
$DIMLTEX2
  6

  9
$DIMTXTDIRECTION
 70
     0
  9
$LUNITS
 70
     2
  9
$LUPREC
 70
     4
  9
$SKETCHINC
 40
0.1
  9
$FILLETRAD
 40
0.0
  9
$AUNITS
 70
     0
  9
$AUPREC
 70
     0
  9
$MENU
  1
.
  9
$ELEVATION
 40
0.0
  9
$PELEVATION
 40
0.0
  9
$THICKNESS
 40
0.0
  9
$LIMCHECK
 70
     0
  9
$CHAMFERA
 40
0.0
  9
$CHAMFERB
 40
0.0
  9
$CHAMFERC
 40
0.0
  9
$CHAMFERD
 40
0.0
  9
$SKPOLY
 70
     0
  9
$TDCREATE
 40
2459941.592280093
  9
$TDUCREATE
 40
2459941.883946759
  9
$TDUPDATE
 40
2459941.592280093
  9
$TDUUPDATE
 40
2459941.883946759
  9
$TDINDWG
 40
0.0000000000
  9
$TDUSRTIMER
 40
0.0000000000
  9
$USRTIMER
 70
     1
  9
$ANGBASE
 50
0.0
  9
$ANGDIR
 70
     0
  9
$PDMODE
 70
     0
  9
$PDSIZE
 40
0.0
  9
$PLINEWID
 40
0.0
  9
$SPLFRAME
 70
     0
  9
$SPLINETYPE
 70
     6
  9
$SPLINESEGS
 70
     8
  9
$HANDSEED
  5
B5
  9
$SURFTAB1
 70
     6
  9
$SURFTAB2
 70
     6
  9
$SURFTYPE
 70
     6
  9
$SURFU
 70
     6
  9
$SURFV
 70
     6
  9
$UCSBASE
  2

  9
$UCSNAME
  2

  9
$UCSORG
 10
0.0
 20
0.0
 30
0.0
  9
$UCSXDIR
 10
1.0
 20
0.0
 30
0.0
  9
$UCSYDIR
 10
0.0
 20
1.0
 30
0.0
  9
$UCSORTHOREF
  2

  9
$UCSORTHOVIEW
 70
     0
  9
$UCSORGTOP
 10
0.0
 20
0.0
 30
0.0
  9
$UCSORGBOTTOM
 10
0.0
 20
0.0
 30
0.0
  9
$UCSORGLEFT
 10
0.0
 20
0.0
 30
0.0
  9
$UCSORGRIGHT
 10
0.0
 20
0.0
 30
0.0
  9
$UCSORGFRONT
 10
0.0
 20
0.0
 30
0.0
  9
$UCSORGBACK
 10
0.0
 20
0.0
 30
0.0
  9
$PUCSBASE
  2

  9
$PUCSNAME
  2

  9
$PUCSORG
 10
0.0
 20
0.0
 30
0.0
  9
$PUCSXDIR
 10
1.0
 20
0.0
 30
0.0
  9
$PUCSYDIR
 10
0.0
 20
1.0
 30
0.0
  9
$PUCSORTHOREF
  2

  9
$PUCSORTHOVIEW
 70
     0
  9
$PUCSORGTOP
 10
0.0
 20
0.0
 30
0.0
  9
$PUCSORGBOTTOM
 10
0.0
 20
0.0
 30
0.0
  9
$PUCSORGLEFT
 10
0.0
 20
0.0
 30
0.0
  9
$PUCSORGRIGHT
 10
0.0
 20
0.0
 30
0.0
  9
$PUCSORGFRONT
 10
0.0
 20
0.0
 30
0.0
  9
$PUCSORGBACK
 10
0.0
 20
0.0
 30
0.0
  9
$USERI1
 70
     0
  9
$USERI2
 70
     0
  9
$USERI3
 70
     0
  9
$USERI4
 70
     0
  9
$USERI5
 70
     0
  9
$USERR1
 40
0.0
  9
$USERR2
 40
0.0
  9
$USERR3
 40
0.0
  9
$USERR4
 40
0.0
  9
$USERR5
 40
0.0
  9
$WORLDVIEW
 70
     1
  9
$SHADEDGE
 70
     3
  9
$SHADEDIF
 70
    70
  9
$TILEMODE
 70
     1
  9
$MAXACTVP
 70
    64
  9
$PINSBASE
 10
0.0
 20
0.0
 30
0.0
  9
$PLIMCHECK
 70
     0
  9
$PEXTMIN
 10
1.000000000000000E+20
 20
1.000000000000000E+20
 30
1.000000000000000E+20
  9
$PEXTMAX
 10
-1.000000000000000E+20
 20
-1.000000000000000E+20
 30
-1.000000000000000E+20
  9
$PLIMMIN
 10
0.0
 20
0.0
  9
$PLIMMAX
 10
12.0
 20
9.0
  9
$UNITMODE
 70
     0
  9
$VISRETAIN
 70
     1
  9
$PLINEGEN
 70
     0
  9
$PSLTSCALE
 70
     1
  9
$TREEDEPTH
 70
  3020
  9
$CMLSTYLE
  2
Standard
  9
$CMLJUST
 70
     0
  9
$CMLSCALE
 40
1.0
  9
$PROXYGRAPHICS
 70
     1
  9
$MEASUREMENT
 70
     0
  9
$CELWEIGHT
370
    -1
  9
$ENDCAPS
280
     0
  9
$JOINSTYLE
280
     0
  9
$LWDISPLAY
290
     1
  9
$INSUNITS
 70
     5
  9
$HYPERLINKBASE
  1

  9
$STYLESHEET
  1

  9
$XEDIT
290
     1
  9
$CEPSNTYPE
380
     0
  9
$PSTYLEMODE
290
     1
  9
$FINGERPRINTGUID
  2
{D4868A21-46AA-E64F-A181-256FE4B41F5C}
  9
$VERSIONGUID
  2
{8F399518-AE14-CF4E-9BAA-C99A440CB0AF}
  9
$EXTNAMES
290
     1
  9
$PSVPSCALE
 40
0.0
  9
$OLESTARTUP
290
     0
  9
$SORTENTS
280
   127
  9
$INDEXCTL
280
     0
  9
$HIDETEXT
280
     1
  9
$XCLIPFRAME
280
     2
  9
$HALOGAP
280
     0
  9
$OBSCOLOR
 70
   257
  9
$OBSLTYPE
280
     0
  9
$INTERSECTIONDISPLAY
280
     0
  9
$INTERSECTIONCOLOR
 70
   257
  9
$DIMASSOC
280
     2
  9
$PROJECTNAME
  1

  9
$CAMERADISPLAY
290
     0
  9
$LENSLENGTH
 40
50.0
  9
$CAMERAHEIGHT
 40
0.0
  9
$STEPSPERSEC
 40
2.0
  9
$STEPSIZE
 40
6.0
  9
$3DDWFPREC
 40
2.0
  9
$PSOLWIDTH
 40
0.25
  9
$PSOLHEIGHT
 40
4.0
  9
$LOFTANG1
 40
1.570796326794896
  9
$LOFTANG2
 40
1.570796326794896
  9
$LOFTMAG1
 40
0.0
  9
$LOFTMAG2
 40
0.0
  9
$LOFTPARAM
 70
     7
  9
$LOFTNORMALS
280
     1
  9
$LATITUDE
 40
37.795
  9
$LONGITUDE
 40
-122.394
  9
$NORTHDIRECTION
 40
0.0
  9
$TIMEZONE
 70
 -8000
  9
$LIGHTGLYPHDISPLAY
280
     1
  9
$TILEMODELIGHTSYNCH
280
     1
  9
$CMATERIAL
347
11
  9
$SOLIDHIST
280
     0
  9
$SHOWHIST
280
     1
  9
$DWFFRAME
280
     2
  9
$DGNFRAME
280
     0
  9
$REALWORLDSCALE
290
     1
  9
$INTERFERECOLOR
 62
     1
  9
$INTERFEREOBJVS
345
33
  9
$INTERFEREVPVS
346
30
  9
$CSHADOW
280
     0
  9
$SHADOWPLANELOCATION
 40
0.0
  0
ENDSEC
  0
SECTION
  2
CLASSES
  0
CLASS
  1
ACDBDICTIONARYWDFLT
  2
AcDbDictionaryWithDefault
  3
ObjectDBX Classes
 90
        0
 91
        1
280
     0
281
     0
  0
CLASS
  1
MATERIAL
  2
AcDbMaterial
  3
ObjectDBX Classes
 90
     1153
 91
        3
280
     0
281
     0
  0
CLASS
  1
VISUALSTYLE
  2
AcDbVisualStyle
  3
ObjectDBX Classes
 90
     4095
 91
       24
280
     0
281
     0
  0
CLASS
  1
SCALE
  2
AcDbScale
  3
ObjectDBX Classes
 90
     1153
 91
       17
280
     0
281
     0
  0
CLASS
  1
TABLESTYLE
  2
AcDbTableStyle
  3
ObjectDBX Classes
 90
     4095
 91
        1
280
     0
281
     0
  0
CLASS
  1
MLEADERSTYLE
  2
AcDbMLeaderStyle
  3
ACDB_MLEADERSTYLE_CLASS
 90
     4095
 91
        1
280
     0
281
     0
  0
CLASS
  1
ACDBSECTIONVIEWSTYLE
  2
AcDbSectionViewStyle
  3
ObjectDBX Classes
 90
     1025
 91
        1
280
     0
281
     0
  0
CLASS
  1
ACDBDETAILVIEWSTYLE
  2
AcDbDetailViewStyle
  3
ObjectDBX Classes
 90
     1025
 91
        1
280
     0
281
     0
  0
CLASS
  1
DICTIONARYVAR
  2
AcDbDictionaryVar
  3
ObjectDBX Classes
 90
        0
 91
        5
280
     0
281
     0
  0
CLASS
  1
CELLSTYLEMAP
  2
AcDbCellStyleMap
  3
ObjectDBX Classes
 90
     1152
 91
        1
280
     0
281
     0
  0
ENDSEC
  0
SECTION
  2
TABLES
  0
TABLE
  2
VPORT
  5
8
330
0
100
AcDbSymbolTable
 70
     1
  0
VPORT
  5
57
330
8
100
AcDbSymbolTableRecord
100
AcDbViewportTableRecord
  2
*Active
 70
     0
 10
0.0
 20
0.0
 11
1.0
 21
1.0
 12
0.0
 22
0.0
 13
0.0
 23
0.0
 14
1.0
 24
1.0
 15
0.0
 25
0.0
 16
0.0
 26
0.0
 36
1.0
 17
22.82957964513145
 27
21.16648444655876
 37
0.0
 40
43.1799999892049
 41
1.326010734816536
 42
50.0
 43
0.0
 44
0.0
 50
0.0
 51
0.0
 71
     0
 72
   100
 73
     1
 74
     1
 75
     0
 76
     0
 77
     0
 78
     0
281
     0
 65
     1
110
0.0
120
0.0
130
0.0
111
1.0
121
0.0
131
0.0
112
0.0
122
1.0
132
0.0
 79
     0
146
0.0
 60
     3
 61
     5
292
     1
282
     1
141
0.0
142
0.0
 63
   250
421
  3355443
  0
ENDTAB
  0
TABLE
  2
LTYPE
  5
5
330
0
100
AcDbSymbolTable
 70
     1
  0
LTYPE
  5
5B
330
5
100
AcDbSymbolTableRecord
100
AcDbLinetypeTableRecord
  2
ByBlock
 70
     0
  3

 72
    65
 73
     0
 40
0.0
  0
LTYPE
  5
5C
330
5
100
AcDbSymbolTableRecord
100
AcDbLinetypeTableRecord
  2
ByLayer
 70
     0
  3

 72
    65
 73
     0
 40
0.0
  0
LTYPE
  5
5D
330
5
100
AcDbSymbolTableRecord
100
AcDbLinetypeTableRecord
  2
Continuous
 70
     0
  3
Solid line
 72
    65
 73
     0
 40
0.0
  0
ENDTAB
  0
TABLE
  2
LAYER
  5
2
330
0
100
AcDbSymbolTable
 70
     2
  0
LAYER
  5
54
330
2
100
AcDbSymbolTableRecord
100
AcDbLayerTableRecord
  2
0
 70
     0
 62
     7
  6
Continuous
370
    -3
390
F
347
21
348
0
  0
LAYER
  5
78
330
2
100
AcDbSymbolTableRecord
100
AcDbLayerTableRecord
  2
Layer 1
 70
     0
 62
     7
  6
Continuous
370
     0
390
F
347
21
348
0
  0
ENDTAB
  0
TABLE
  2
STYLE
  5
3
330
0
100
AcDbSymbolTable
 70
     2
  0
STYLE
  5
55
330
3
100
AcDbSymbolTableRecord
100
AcDbTextStyleTableRecord
  2
Standard
 70
     0
 40
0.0
 41
1.0
 50
0.0
 71
     0
 42
0.2
  3
txt
  4

  0
STYLE
  5
5A
330
3
100
AcDbSymbolTableRecord
100
AcDbTextStyleTableRecord
  2
Annotative
 70
     0
 40
0.0
 41
1.0
 50
0.0
 71
     0
 42
0.2
  3
txt
  4

1001
AcadAnnotative
1000
AnnotativeData
1002
{
1070
     1
1070
     1
1002
}
  0
ENDTAB
  0
TABLE
  2
VIEW
  5
6
330
0
100
AcDbSymbolTable
 70
     0
  0
ENDTAB
  0
TABLE
  2
UCS
  5
7
330
0
100
AcDbSymbolTable
 70
     0
  0
ENDTAB
  0
TABLE
  2
APPID
  5
9
330
0
100
AcDbSymbolTable
 70
     2
  0
APPID
  5
56
330
9
100
AcDbSymbolTableRecord
100
AcDbRegAppTableRecord
  2
ACAD
 70
     0
  0
APPID
  5
5E
330
9
100
AcDbSymbolTableRecord
100
AcDbRegAppTableRecord
  2
AcadAnnotative
 70
     0
  0
ENDTAB
  0
TABLE
  2
DIMSTYLE
  5
A
330
0
100
AcDbSymbolTable
 70
     2
100
AcDbDimStyleTable
 71
     0
  0
DIMSTYLE
105
58
330
A
100
AcDbSymbolTableRecord
100
AcDbDimStyleTableRecord
  2
Standard
 70
     0
340
55
  0
DIMSTYLE
105
59
330
A
100
AcDbSymbolTableRecord
100
AcDbDimStyleTableRecord
  2
Annotative
 70
     0
340
55
1001
AcadAnnotative
1000
AnnotativeData
1002
{
1070
     1
1070
     1
1002
}
  0
ENDTAB
  0
TABLE
  2
BLOCK_RECORD
  5
1
330
0
100
AcDbSymbolTable
 70
     1
  0
BLOCK_RECORD
  5
70
330
1
100
AcDbSymbolTableRecord
100
AcDbBlockTableRecord
  2
*Model_Space
340
73
 70
     0
280
     1
281
     0
  0
BLOCK_RECORD
  5
6C
330
1
100
AcDbSymbolTableRecord
100
AcDbBlockTableRecord
  2
*Paper_Space
340
6F
 70
     0
280
     1
281
     0
  0
BLOCK_RECORD
  5
74
330
1
100
AcDbSymbolTableRecord
100
AcDbBlockTableRecord
  2
*Paper_Space0
340
77
 70
     0
280
     1
281
     0
  0
ENDTAB
  0
ENDSEC
  0
SECTION
  2
BLOCKS
  0
BLOCK
  5
71
330
70
100
AcDbEntity
  8
0
100
AcDbBlockBegin
  2
*Model_Space
 70
     0
 10
0.0
 20
0.0
 30
0.0
  3
*Model_Space
  1

  0
ENDBLK
  5
72
330
70
100
AcDbEntity
  8
0
100
AcDbBlockEnd
  0
BLOCK
  5
6D
330
6C
100
AcDbEntity
 67
     1
  8
0
100
AcDbBlockBegin
  2
*Paper_Space
 70
     0
 10
0.0
 20
0.0
 30
0.0
  3
*Paper_Space
  1

  0
ENDBLK
  5
6E
330
6C
100
AcDbEntity
 67
     1
  8
0
100
AcDbBlockEnd
  0
BLOCK
  5
75
330
74
100
AcDbEntity
 67
     1
  8
0
100
AcDbBlockBegin
  2
*Paper_Space0
 70
     0
 10
0.0
 20
0.0
 30
0.0
  3
*Paper_Space0
  1

  0
ENDBLK
  5
76
330
74
100
AcDbEntity
 67
     1
  8
0
100
AcDbBlockEnd
  0
ENDSEC
  0
SECTION
  2
ENTITIES
  0
LWPOLYLINE
  5
79
330
70
100
AcDbEntity
  8
Layer 1
100
AcDbPolyline
 90
        4
 70
     1
 43
0.0
 10
0.0
 20
42.33315110793371
 10
50.89680685839794
 20
42.33315110793371
 10
50.89680685839794
 20
-0.0001822148161934
 10
0.0
 20
-0.0001822148161934
  0
HATCH
  5
7A
330
70
100
AcDbEntity
  8
Layer 1
 62
     7
420
 16578804
440
 33554687
100
AcDbHatch
 10
0.0
 20
0.0
 30
0.0
210
0.0
220
0.0
230
1.0
  2
SOLID
 70
     1
 71
     1
 91
        1
 92
        1
 93
        4
 72
     1
 10
0.0
 20
42.33315110793371
 11
50.89680685839794
 21
42.33315110793371
 72
     1
 10
50.89680685839794
 20
42.33315110793371
 11
50.89680685839794
 21
-0.0001822148161921
 72
     1
 10
50.89680685839794
 20
-0.0001822148161934
 11
0.0
 21
-0.0001822148161934
 72
     1
 10
0.0
 20
-0.0001822148161934
 11
0.0
 21
42.33315110793371
 97
        1
330
79
 75
     0
 76
     1
 98
        1
 10
0.0
 20
0.0
450
        0
451
        0
460
0.0
461
0.0
452
        0
462
0.0
453
        0
470

  0
SPLINE
  5
7B
330
70
100
AcDbEntity
  8
Layer 1
100
AcDbSpline
210
0.0
220
0.0
230
1.0
 70
     9
 71
     3
 72
    11
 73
     7
 74
     0
 42
0.0000000001
 43
0.0000000001
 40
0.0
 40
0.0
 40
0.0
 40
0.0
 40
1.0
 40
1.0
 40
1.0
 40
2.0
 40
2.0
 40
2.0
 40
2.0
 10
22.00458443894331
 20
23.70229221629665
 30
0.0
 10
22.00213560534542
 20
23.67376600714302
 30
0.0
 10
21.99941568874814
 20
23.64563610519972
 30
0.0
 10
21.99641707771354
 20
23.61790364745708
 30
0.0
 10
21.99920754986457
 20
23.64618584117998
 30
0.0
 10
22.00189571646265
 20
23.67433397935075
 30
0.0
 10
22.00458443894331
 20
23.70229221629665
 30
0.0
  0
SPLINE
  5
7C
330
70
100
AcDbEntity
  8
Layer 1
100
AcDbSpline
210
0.0
220
0.0
230
1.0
 70
     9
 71
     3
 72
   920
 73
   916
 74
     0
 42
0.0000000001
 43
0.0000000001
 40
0.0
 40
0.0
 40
0.0
 40
0.0
 40
1.0
 40
1.0
 40
1.0
 40
2.0
 40
2.0
 40
2.0
 40
3.0
 40
3.0
 40
3.0
 40
4.0
 40
4.0
 40
4.0
 40
5.0
 40
5.0
 40
5.0
 40
6.0
 40
6.0
 40
6.0
 40
7.0
 40
7.0
 40
7.0
 40
8.0
 40
8.0
 40
8.0
 40
9.0
 40
9.0
 40
9.0
 40
10.0
 40
10.0
 40
10.0
 40
11.0
 40
11.0
 40
11.0
 40
12.0
 40
12.0
 40
12.0
 40
13.0
 40
13.0
 40
13.0
 40
14.0
 40
14.0
 40
14.0
 40
15.0
 40
15.0
 40
15.0
 40
16.0
 40
16.0
 40
16.0
 40
17.0
 40
17.0
 40
17.0
 40
18.0
 40
18.0
 40
18.0
 40
19.0
 40
19.0
 40
19.0
 40
20.0
 40
20.0
 40
20.0
 40
21.0
 40
21.0
 40
21.0
 40
22.0
 40
22.0
 40
22.0
 40
23.0
 40
23.0
 40
23.0
 40
24.0
 40
24.0
 40
24.0
 40
25.0
 40
25.0
 40
25.0
 40
26.0
 40
26.0
 40
26.0
 40
27.0
 40
27.0
 40
27.0
 40
28.0
 40
28.0
 40
28.0
 40
29.0
 40
29.0
 40
29.0
 40
30.0
 40
30.0
 40
30.0
 40
31.0
 40
31.0
 40
31.0
 40
32.0
 40
32.0
 40
32.0
 40
33.0
 40
33.0
 40
33.0
 40
34.0
 40
34.0
 40
34.0
 40
35.0
 40
35.0
 40
35.0
 40
36.0
 40
36.0
 40
36.0
 40
37.0
 40
37.0
 40
37.0
 40
38.0
 40
38.0
 40
38.0
 40
39.0
 40
39.0
 40
39.0
 40
40.0
 40
40.0
 40
40.0
 40
41.0
 40
41.0
 40
41.0
 40
42.0
 40
42.0
 40
42.0
 40
43.0
 40
43.0
 40
43.0
 40
44.0
 40
44.0
 40
44.0
 40
45.0
 40
45.0
 40
45.0
 40
46.0
 40
46.0
 40
46.0
 40
47.0
 40
47.0
 40
47.0
 40
48.0
 40
48.0
 40
48.0
 40
49.0
 40
49.0
 40
49.0
 40
50.0
 40
50.0
 40
50.0
 40
51.0
 40
51.0
 40
51.0
 40
52.0
 40
52.0
 40
52.0
 40
53.0
 40
53.0
 40
53.0
 40
54.0
 40
54.0
 40
54.0
 40
55.0
 40
55.0
 40
55.0
 40
56.0
 40
56.0
 40
56.0
 40
57.0
 40
57.0
 40
57.0
 40
58.0
 40
58.0
 40
58.0
 40
59.0
 40
59.0
 40
59.0
 40
60.0
 40
60.0
 40
60.0
 40
61.0
 40
61.0
 40
61.0
 40
62.0
 40
62.0
 40
62.0
 40
63.0
 40
63.0
 40
63.0
 40
64.0
 40
64.0
 40
64.0
 40
65.0
 40
65.0
 40
65.0
 40
66.0
 40
66.0
 40
66.0
 40
67.0
 40
67.0
 40
67.0
 40
68.0
 40
68.0
 40
68.0
 40
69.0
 40
69.0
 40
69.0
 40
70.0
 40
70.0
 40
70.0
 40
71.0
 40
71.0
 40
71.0
 40
72.0
 40
72.0
 40
72.0
 40
73.0
 40
73.0
 40
73.0
 40
74.0
 40
74.0
 40
74.0
 40
75.0
 40
75.0
 40
75.0
 40
76.0
 40
76.0
 40
76.0
 40
77.0
 40
77.0
 40
77.0
 40
78.0
 40
78.0
 40
78.0
 40
79.0
 40
79.0
 40
79.0
 40
80.0
 40
80.0
 40
80.0
 40
81.0
 40
81.0
 40
81.0
 40
82.0
 40
82.0
 40
82.0
 40
83.0
 40
83.0
 40
83.0
 40
84.0
 40
84.0
 40
84.0
 40
85.0
 40
85.0
 40
85.0
 40
86.0
 40
86.0
 40
86.0
 40
87.0
 40
87.0
 40
87.0
 40
88.0
 40
88.0
 40
88.0
 40
89.0
 40
89.0
 40
89.0
 40
90.0
 40
90.0
 40
90.0
 40
91.0
 40
91.0
 40
91.0
 40
92.0
 40
92.0
 40
92.0
 40
93.0
 40
93.0
 40
93.0
 40
94.0
 40
94.0
 40
94.0
 40
95.0
 40
95.0
 40
95.0
 40
96.0
 40
96.0
 40
96.0
 40
97.0
 40
97.0
 40
97.0
 40
98.0
 40
98.0
 40
98.0
 40
99.0
 40
99.0
 40
99.0
 40
100.0
 40
100.0
 40
100.0
 40
101.0
 40
101.0
 40
101.0
 40
102.0
 40
102.0
 40
102.0
 40
103.0
 40
103.0
 40
103.0
 40
104.0
 40
104.0
 40
104.0
 40
105.0
 40
105.0
 40
105.0
 40
106.0
 40
106.0
 40
106.0
 40
107.0
 40
107.0
 40
107.0
 40
108.0
 40
108.0
 40
108.0
 40
109.0
 40
109.0
 40
109.0
 40
110.0
 40
110.0
 40
110.0
 40
111.0
 40
111.0
 40
111.0
 40
112.0
 40
112.0
 40
112.0
 40
113.0
 40
113.0
 40
113.0
 40
114.0
 40
114.0
 40
114.0
 40
115.0
 40
115.0
 40
115.0
 40
116.0
 40
116.0
 40
116.0
 40
117.0
 40
117.0
 40
117.0
 40
118.0
 40
118.0
 40
118.0
 40
119.0
 40
119.0
 40
119.0
 40
120.0
 40
120.0
 40
120.0
 40
121.0
 40
121.0
 40
121.0
 40
122.0
 40
122.0
 40
122.0
 40
123.0
 40
123.0
 40
123.0
 40
124.0
 40
124.0
 40
124.0
 40
125.0
 40
125.0
 40
125.0
 40
126.0
 40
126.0
 40
126.0
 40
127.0
 40
127.0
 40
127.0
 40
128.0
 40
128.0
 40
128.0
 40
129.0
 40
129.0
 40
129.0
 40
130.0
 40
130.0
 40
130.0
 40
131.0
 40
131.0
 40
131.0
 40
132.0
 40
132.0
 40
132.0
 40
133.0
 40
133.0
 40
133.0
 40
134.0
 40
134.0
 40
134.0
 40
135.0
 40
135.0
 40
135.0
 40
136.0
 40
136.0
 40
136.0
 40
137.0
 40
137.0
 40
137.0
 40
138.0
 40
138.0
 40
138.0
 40
139.0
 40
139.0
 40
139.0
 40
140.0
 40
140.0
 40
140.0
 40
141.0
 40
141.0
 40
141.0
 40
142.0
 40
142.0
 40
142.0
 40
143.0
 40
143.0
 40
143.0
 40
144.0
 40
144.0
 40
144.0
 40
145.0
 40
145.0
 40
145.0
 40
146.0
 40
146.0
 40
146.0
 40
147.0
 40
147.0
 40
147.0
 40
148.0
 40
148.0
 40
148.0
 40
149.0
 40
149.0
 40
149.0
 40
150.0
 40
150.0
 40
150.0
 40
151.0
 40
151.0
 40
151.0
 40
152.0
 40
152.0
 40
152.0
 40
153.0
 40
153.0
 40
153.0
 40
154.0
 40
154.0
 40
154.0
 40
155.0
 40
155.0
 40
155.0
 40
156.0
 40
156.0
 40
156.0
 40
157.0
 40
157.0
 40
157.0
 40
158.0
 40
158.0
 40
158.0
 40
159.0
 40
159.0
 40
159.0
 40
160.0
 40
160.0
 40
160.0
 40
161.0
 40
161.0
 40
161.0
 40
162.0
 40
162.0
 40
162.0
 40
163.0
 40
163.0
 40
163.0
 40
164.0
 40
164.0
 40
164.0
 40
165.0
 40
165.0
 40
165.0
 40
166.0
 40
166.0
 40
166.0
 40
167.0
 40
167.0
 40
167.0
 40
168.0
 40
168.0
 40
168.0
 40
169.0
 40
169.0
 40
169.0
 40
170.0
 40
170.0
 40
170.0
 40
171.0
 40
171.0
 40
171.0
 40
172.0
 40
172.0
 40
172.0
 40
173.0
 40
173.0
 40
173.0
 40
174.0
 40
174.0
 40
174.0
 40
175.0
 40
175.0
 40
175.0
 40
176.0
 40
176.0
 40
176.0
 40
177.0
 40
177.0
 40
177.0
 40
178.0
 40
178.0
 40
178.0
 40
179.0
 40
179.0
 40
179.0
 40
180.0
 40
180.0
 40
180.0
 40
181.0
 40
181.0
 40
181.0
 40
182.0
 40
182.0
 40
182.0
 40
183.0
 40
183.0
 40
183.0
 40
184.0
 40
184.0
 40
184.0
 40
185.0
 40
185.0
 40
185.0
 40
186.0
 40
186.0
 40
186.0
 40
187.0
 40
187.0
 40
187.0
 40
188.0
 40
188.0
 40
188.0
 40
189.0
 40
189.0
 40
189.0
 40
190.0
 40
190.0
 40
190.0
 40
191.0
 40
191.0
 40
191.0
 40
192.0
 40
192.0
 40
192.0
 40
193.0
 40
193.0
 40
193.0
 40
194.0
 40
194.0
 40
194.0
 40
195.0
 40
195.0
 40
195.0
 40
196.0
 40
196.0
 40
196.0
 40
197.0
 40
197.0
 40
197.0
 40
198.0
 40
198.0
 40
198.0
 40
199.0
 40
199.0
 40
199.0
 40
200.0
 40
200.0
 40
200.0
 40
201.0
 40
201.0
 40
201.0
 40
202.0
 40
202.0
 40
202.0
 40
203.0
 40
203.0
 40
203.0
 40
204.0
 40
204.0
 40
204.0
 40
205.0
 40
205.0
 40
205.0
 40
206.0
 40
206.0
 40
206.0
 40
207.0
 40
207.0
 40
207.0
 40
208.0
 40
208.0
 40
208.0
 40
209.0
 40
209.0
 40
209.0
 40
210.0
 40
210.0
 40
210.0
 40
211.0
 40
211.0
 40
211.0
 40
212.0
 40
212.0
 40
212.0
 40
213.0
 40
213.0
 40
213.0
 40
214.0
 40
214.0
 40
214.0
 40
215.0
 40
215.0
 40
215.0
 40
216.0
 40
216.0
 40
216.0
 40
217.0
 40
217.0
 40
217.0
 40
218.0
 40
218.0
 40
218.0
 40
219.0
 40
219.0
 40
219.0
 40
220.0
 40
220.0
 40
220.0
 40
221.0
 40
221.0
 40
221.0
 40
222.0
 40
222.0
 40
222.0
 40
223.0
 40
223.0
 40
223.0
 40
224.0
 40
224.0
 40
224.0
 40
225.0
 40
225.0
 40
225.0
 40
226.0
 40
226.0
 40
226.0
 40
227.0
 40
227.0
 40
227.0
 40
228.0
 40
228.0
 40
228.0
 40
229.0
 40
229.0
 40
229.0
 40
230.0
 40
230.0
 40
230.0
 40
231.0
 40
231.0
 40
231.0
 40
232.0
 40
232.0
 40
232.0
 40
233.0
 40
233.0
 40
233.0
 40
234.0
 40
234.0
 40
234.0
 40
235.0
 40
235.0
 40
235.0
 40
236.0
 40
236.0
 40
236.0
 40
237.0
 40
237.0
 40
237.0
 40
238.0
 40
238.0
 40
238.0
 40
239.0
 40
239.0
 40
239.0
 40
240.0
 40
240.0
 40
240.0
 40
241.0
 40
241.0
 40
241.0
 40
242.0
 40
242.0
 40
242.0
 40
243.0
 40
243.0
 40
243.0
 40
244.0
 40
244.0
 40
244.0
 40
245.0
 40
245.0
 40
245.0
 40
246.0
 40
246.0
 40
246.0
 40
247.0
 40
247.0
 40
247.0
 40
248.0
 40
248.0
 40
248.0
 40
249.0
 40
249.0
 40
249.0
 40
250.0
 40
250.0
 40
250.0
 40
251.0
 40
251.0
 40
251.0
 40
252.0
 40
252.0
 40
252.0
 40
253.0
 40
253.0
 40
253.0
 40
254.0
 40
254.0
 40
254.0
 40
255.0
 40
255.0
 40
255.0
 40
256.0
 40
256.0
 40
256.0
 40
257.0
 40
257.0
 40
257.0
 40
258.0
 40
258.0
 40
258.0
 40
259.0
 40
259.0
 40
259.0
 40
260.0
 40
260.0
 40
260.0
 40
261.0
 40
261.0
 40
261.0
 40
262.0
 40
262.0
 40
262.0
 40
263.0
 40
263.0
 40
263.0
 40
264.0
 40
264.0
 40
264.0
 40
265.0
 40
265.0
 40
265.0
 40
266.0
 40
266.0
 40
266.0
 40
267.0
 40
267.0
 40
267.0
 40
268.0
 40
268.0
 40
268.0
 40
269.0
 40
269.0
 40
269.0
 40
270.0
 40
270.0
 40
270.0
 40
271.0
 40
271.0
 40
271.0
 40
272.0
 40
272.0
 40
272.0
 40
273.0
 40
273.0
 40
273.0
 40
274.0
 40
274.0
 40
274.0
 40
275.0
 40
275.0
 40
275.0
 40
276.0
 40
276.0
 40
276.0
 40
277.0
 40
277.0
 40
277.0
 40
278.0
 40
278.0
 40
278.0
 40
279.0
 40
279.0
 40
279.0
 40
280.0
 40
280.0
 40
280.0
 40
281.0
 40
281.0
 40
281.0
 40
282.0
 40
282.0
 40
282.0
 40
283.0
 40
283.0
 40
283.0
 40
284.0
 40
284.0
 40
284.0
 40
285.0
 40
285.0
 40
285.0
 40
286.0
 40
286.0
 40
286.0
 40
287.0
 40
287.0
 40
287.0
 40
288.0
 40
288.0
 40
288.0
 40
289.0
 40
289.0
 40
289.0
 40
290.0
 40
290.0
 40
290.0
 40
291.0
 40
291.0
 40
291.0
 40
292.0
 40
292.0
 40
292.0
 40
293.0
 40
293.0
 40
293.0
 40
294.0
 40
294.0
 40
294.0
 40
295.0
 40
295.0
 40
295.0
 40
296.0
 40
296.0
 40
296.0
 40
297.0
 40
297.0
 40
297.0
 40
298.0
 40
298.0
 40
298.0
 40
299.0
 40
299.0
 40
299.0
 40
300.0
 40
300.0
 40
300.0
 40
301.0
 40
301.0
 40
301.0
 40
302.0
 40
302.0
 40
302.0
 40
303.0
 40
303.0
 40
303.0
 40
304.0
 40
304.0
 40
304.0
 40
305.0
 40
305.0
 40
305.0
 40
305.0
 10
30.14758025864893
 20
15.98775795322942
 30
0.0
 10
31.9457167683302
 20
15.60166777387737
 30
0.0
 10
33.16741440382876
 20
15.09403075380808
 30
0.0
 10
33.51547200606018
 20
14.52793179602825
 30
0.0
 10
31.64099791499311
 20
15.40133194041262
 30
0.0
 10
27.0261531716165
 20
16.01900388488415
 30
0.0
 10
21.62999739261723
 20
16.01900388488415
 30
0.0
 10
16.23385925250641
 20
16.01900388488415
 30
0.0
 10
11.6190145091298
 20
15.40133194041262
 30
0.0
 10
9.744554529173479
 20
14.52793179602825
 30
0.0
 10
10.04513882706049
 20
15.01682533911109
 30
0.0
 10
10.99733188610135
 20
15.46210496663995
 30
0.0
 10
12.40957890562748
 20
15.82315184631776
 30
0.0
 10
12.69009367624873
 20
16.21737394737143
 30
0.0
 10
12.9406752531892
 20
16.67243610242849
 30
0.0
 10
12.71975875882525
 20
17.05866425924166
 30
0.0
 10
12.52030526391373
 20
17.3940465562409
 30
0.0
 10
12.40880279453618
 20
17.76077668577372
 30
0.0
 10
12.36069096243028
 20
18.07886228876979
 30
0.0
 10
12.36069096243028
 20
18.07886228876979
 30
0.0
 10
12.32433015780236
 20
18.13673900951546
 30
0.0
 10
12.32433015780236
 20
18.13673900951546
 30
0.0
 10
12.18626705021353
 20
18.35491794839369
 30
0.0
 10
12.06329577557301
 20
18.55776516544085
 30
0.0
 10
11.93804908432388
 20
18.71682560582733
 30
0.0
 10
11.81404064304316
 20
18.87660971750303
 30
0.0
 10
11.68791583041134
 20
18.99270888414072
 30
0.0
 10
11.58811117658487
 20
19.05978204152222
 30
0.0
 10
11.56365309387552
 20
19.07728334663129
 30
0.0
 10
11.54088128890092
 20
19.09175429070655
 30
0.0
 10
11.52048367831019
 20
19.10336420707702
 30
0.0
 10
11.50050234548663
 20
19.11573259565036
 30
0.0
 10
11.48305395704288
 20
19.12568798428527
 30
0.0
 10
11.46839604075017
 20
19.13271531743932
 30
0.0
 10
11.43935184704671
 20
19.14763428928092
 30
0.0
 10
11.42385079188662
 20
19.15562470574374
 30
0.0
 10
11.42385079188662
 20
19.15562470574374
 30
0.0
 10
11.42385079188662
 20
19.15562470574374
 30
0.0
 10
11.4404207636861
 20
19.1499066618792
 30
0.0
 10
11.47140876289553
 20
19.13926287282783
 30
0.0
 10
11.4872558304615
 20
19.13433456739801
 30
0.0
 10
11.50613620645401
 20
19.12685920647761
 30
0.0
 10
11.52802959478435
 20
19.11738712338593
 30
0.0
 10
11.55038864976948
 20
19.10863470694255
 30
0.0
 10
11.5754502748839
 20
19.09729995723173
 30
0.0
 10
11.6028220095429
 20
19.08317473536987
 30
0.0
 10
11.71421864558983
 20
19.02984532006375
 30
0.0
 10
11.86246291958558
 20
18.9290778781901
 30
0.0
 10
12.01544147123832
 20
18.78276329858956
 30
0.0
 10
12.1185869414148
 20
18.68519907885641
 30
0.0
 10
12.2228712715019
 20
18.56858133183157
 30
0.0
 10
12.33102971913947
 20
18.44359216835365
 30
0.0
 10
12.32849646325163
 20
18.60062060879196
 30
0.0
 10
12.33843805247095
 20
18.73119071657195
 30
0.0
 10
12.35118360156172
 20
18.82489554751468
 30
0.0
 10
12.35635179587434
 20
18.87798555083605
 30
0.0
 10
12.36573921230148
 20
18.91925654510733
 30
0.0
 10
12.36958096220347
 20
18.9474046832781
 30
0.0
 10
12.37421293430752
 20
18.97551754367199
 30
0.0
 10
12.37674587868735
 20
18.99050354328966
 30
0.0
 10
12.37674587868735
 20
18.99050354328966
 30
0.0
 10
12.37674587868735
 20
18.99050354328966
 30
0.0
 10
12.37684818424029
 20
18.97530940478841
 30
0.0
 10
12.37700340645855
 20
18.94678379440505
 30
0.0
 10
12.37797001754501
 20
18.91829346179856
 30
0.0
 10
12.37567696204795
 20
18.87671154619274
 30
0.0
 10
12.37948696195075
 20
18.82375960309921
 30
0.0
 10
12.38315585074604
 20
18.71813441134949
 30
0.0
 10
12.39822651702822
 20
18.56748066519299
 30
0.0
 10
12.43495068275797
 20
18.39198783633685
 30
0.0
 10
12.44108196037933
 20
18.36146197600452
 30
0.0
 10
12.44813046019951
 20
18.33011414347094
 30
0.0
 10
12.45600093222094
 20
18.29824419983956
 30
0.0
 10
12.45600093222094
 20
18.29824419983956
 30
0.0
 10
12.49398451458523
 20
18.25425281207299
 30
0.0
 10
12.49398451458523
 20
18.25425281207299
 30
0.0
 10
12.66291214916442
 20
18.05677840044431
 30
0.0
 10
12.84154117238499
 20
17.85299985008758
 30
0.0
 10
13.02297830664503
 20
17.63699402226501
 30
0.0
 10
13.1032493601527
 20
17.53880891365881
 30
0.0
 10
13.1839155247614
 20
17.43332130523892
 30
0.0
 10
13.25092213416303
 20
17.31725389153338
 30
0.0
 10
13.2989281329383
 20
17.39135838964281
 30
0.0
 10
13.33739502084585
 20
17.4659109155186
 30
0.0
 10
13.36758927007549
 20
17.54483832894714
 30
0.0
 10
13.28320130000619
 20
17.67041266030132
 30
0.0
 10
13.20465532978784
 20
17.79753612928035
 30
0.0
 10
13.13654452596994
 20
17.92438443159974
 30
0.0
 10
13.01595097349098
 20
18.14586889817142
 30
0.0
 10
12.9316123923093
 20
18.36811183694598
 30
0.0
 10
12.887550448989
 20
18.56338138751979
 30
0.0
 10
12.84253953347063
 20
18.75895832864359
 30
0.0
 10
12.84216206125804
 20
18.92656305082392
 30
0.0
 10
12.85428703317093
 20
19.04031929201876
 30
0.0
 10
12.85690817199294
 20
19.09761040166825
 30
0.0
 10
12.86839461614434
 20
19.14164059498939
 30
0.0
 10
12.87285725491938
 20
19.17171489977769
 30
0.0
 10
12.87823006033786
 20
19.20165162123616
 30
0.0
 10
12.88110872693109
 20
19.2176399951956
 30
0.0
 10
12.88110872693109
 20
19.2176399951956
 30
0.0
 10
12.88110872693109
 20
19.2176399951956
 30
0.0
 10
12.88085119915988
 20
19.20137693964407
 30
0.0
 10
12.88024794917527
 20
19.17092114979794
 30
0.0
 10
12.8805583936118
 20
19.14053640057312
 30
0.0
 10
12.87621569927815
 20
19.09626631836921
 30
0.0
 10
12.88253747689464
 20
19.04000884758223
 30
0.0
 10
12.88851706007542
 20
18.92797416193464
 30
0.0
 10
12.91469669829641
 20
18.76836291006805
 30
0.0
 10
12.98635644646822
 20
18.59156127568975
 30
0.0
 10
13.05720480577184
 20
18.41458678020475
 30
0.0
 10
13.16815341405242
 20
18.22069659070686
 30
0.0
 10
13.3138471047799
 20
18.03073281777546
 30
0.0
 10
13.35587704815208
 20
17.97523381919135
 30
0.0
 10
13.40054224145702
 20
17.9200099872669
 30
0.0
 10
13.44730999026387
 20
17.86502604422521
 30
0.0
 10
13.45118701794274
 20
17.89385857126741
 30
0.0
 10
13.45427029564185
 20
17.92280045941793
 30
0.0
 10
13.4564222400314
 20
17.95170354201388
 30
0.0
 10
13.47578268398192
 20
18.18411000830692
 30
0.0
 10
13.46105421213545
 20
18.41086497474415
 30
0.0
 10
13.45354710121586
 20
18.60537605311509
 30
0.0
 10
13.4460011847417
 20
18.77270207662402
 30
0.0
 10
13.44403621256961
 20
18.91712223960622
 30
0.0
 10
13.44805082357831
 20
19.02667737570013
 30
0.0
 10
13.16510541413018
 20
19.23410717596371
 30
0.0
 10
12.87063475497608
 20
19.40229397722846
 30
0.0
 10
12.56458945722839
 20
19.53107197394306
 30
0.0
 10
12.52159643054746
 20
19.47364328096374
 30
0.0
 10
12.44585504359089
 20
19.44535805069422
 30
0.0
 10
12.37295704545068
 20
19.46616792004334
 30
0.0
 10
12.37295704545068
 20
19.46616792004334
 30
0.0
 10
11.74531277484145
 20
19.64544958213615
 30
0.0
 10
11.74531277484145
 20
19.64544958213615
 30
0.0
 10
11.65117373053157
 20
19.67232066478395
 30
0.0
 10
11.59614039860225
 20
19.77136655114597
 30
0.0
 10
11.62301148125005
 20
19.86548765985585
 30
0.0
 10
11.62301148125005
 20
19.86548765985585
 30
0.0
 10
11.62301148125005
 20
19.86552293763273
 30
0.0
 10
11.62301148125005
 20
19.86552293763273
 30
0.0
 10
11.64991784167472
 20
19.95971107411868
 30
0.0
 10
11.74891110817388
 20
20.01473029493725
 30
0.0
 10
11.84308483674662
 20
19.98785971722522
 30
0.0
 10
11.84308483674662
 20
19.98785971722522
 30
0.0
 10
12.47072971910454
 20
19.80850749504788
 30
0.0
 10
12.47072971910454
 20
19.80850749504788
 30
0.0
 10
12.55821860797154
 20
19.78356207861261
 30
0.0
 10
12.61192517824301
 20
19.69633424750465
 30
0.0
 10
12.59752478972151
 20
19.60858832843121
 30
0.0
 10
12.88641450457351
 20
19.50736883565889
 30
0.0
 10
13.17471508055168
 20
19.35575249516104
 30
0.0
 10
13.45614707337175
 20
19.16162192781296
 30
0.0
 10
13.45788626777183
 20
19.18015687178454
 30
0.0
 10
13.45967837883722
 20
19.19610595471098
 30
0.0
 10
13.46102246213626
 20
19.20937039881702
 30
0.0
 10
13.46412337872381
 20
19.23961805074565
 30
0.0
 10
13.46580999663353
 20
19.25570775874597
 30
0.0
 10
13.46580999663353
 20
19.25570775874597
 30
0.0
 10
13.46580999663353
 20
19.25570775874597
 30
0.0
 10
13.46668807310283
 20
19.23951525915907
 30
0.0
 10
13.4684272675029
 20
19.20919753771032
 30
0.0
 10
13.46930568414716
 20
19.1933860381137
 30
0.0
 10
13.47020173967985
 20
19.17381745527961
 30
0.0
 10
13.47185626741542
 20
19.15076695586767
 30
0.0
 10
13.52136157170799
 20
19.11628292896965
 30
0.0
 10
13.57060934822935
 20
19.08059240210242
 30
0.0
 10
13.61961723586798
 20
19.04355779193614
 30
0.0
 10
13.61961723586798
 20
19.04355779193614
 30
0.0
 10
13.59143416326881
 20
19.13113134525751
 30
0.0
 10
13.59143416326881
 20
19.13113134525751
 30
0.0
 10
13.57572462587663
 20
19.17192303866127
 30
0.0
 10
13.56073862625895
 20
19.21060864878542
 30
0.0
 10
13.54673721883555
 20
19.24699110629939
 30
0.0
 10
13.51925901620608
 20
19.32023434043309
 30
0.0
 10
13.49406010018229
 20
19.38382958881064
 30
0.0
 10
13.46920337859421
 20
19.43436853196573
 30
0.0
 10
13.4220757964632
 20
19.53713622378835
 30
0.0
 10
13.39518707492697
 20
19.59577141673689
 30
0.0
 10
13.39518707492697
 20
19.59577141673689
 30
0.0
 10
13.39518707492697
 20
19.59577141673689
 30
0.0
 10
13.43118804623073
 20
19.54175408478165
 30
0.0
 10
13.49431762795349
 20
19.44708264275247
 30
0.0
 10
13.52728823822346
 20
19.40033253283406
 30
0.0
 10
13.56254837621278
 20
19.34093886768265
 30
0.0
 10
13.60189015298687
 20
19.27189721740427
 30
0.0
 10
13.62188912469888
 20
19.23744798143403
 30
0.0
 10
13.64317926304461
 20
19.20079084348035
 30
0.0
 10
13.66562651247193
 20
19.1621017055785
 30
0.0
 10
13.68584773417827
 20
19.12231190103806
 30
0.0
 10
13.707137872524
 20
19.08055712432554
 30
0.0
 10
13.72942989973306
 20
19.03690793099468
 30
0.0
 10
13.75130564917496
 20
18.99515315428216
 30
0.0
 10
13.77287095418034
 20
18.95122879429164
 30
0.0
 10
13.79421400919139
 20
18.90533946212905
 30
0.0
 10
13.82957645273366
 20
18.87609065731969
 30
0.0
 10
13.86476956294692
 20
18.84615393586122
 30
0.0
 10
13.89980745094192
 20
18.81562807552889
 30
0.0
 10
13.89980745094192
 20
18.81562807552889
 30
0.0
 10
13.9025273675392
 20
18.84288015816696
 30
0.0
 10
13.9025273675392
 20
18.84288015816696
 30
0.0
 10
13.93067550570997
 20
19.11669567895912
 30
0.0
 10
13.91673725606556
 20
19.37259714465276
 30
0.0
 10
13.84921559112151
 20
19.58261280596148
 30
0.0
 10
13.78608248162106
 20
19.79372610616269
 30
0.0
 10
13.67866517880595
 20
19.95151251877229
 30
0.0
 10
13.58740509780086
 20
20.04673429412076
 30
0.0
 10
13.54113829342567
 20
20.09393243180552
 30
0.0
 10
13.50065704445843
 20
20.12783084760736
 30
0.0
 10
13.47177194107651
 20
20.14915626372998
 30
0.0
 10
13.4424522403878
 20
20.17024179096981
 30
0.0
 10
13.42682805219885
 20
20.18143895735082
 30
0.0
 10
13.42682805219885
 20
20.18143895735082
 30
0.0
 10
13.42682805219885
 20
20.18143895735082
 30
0.0
 10
13.44391626812823
 20
20.17230906869485
 30
0.0
 10
13.47587087842411
 20
20.15511820802232
 30
0.0
 10
13.5077372942778
 20
20.13747931958343
 30
0.0
 10
13.55300573756735
 20
20.10874557031649
 30
0.0
 10
13.60683609730513
 20
20.06664859916825
 30
0.0
 10
13.71299398348571
 20
19.98175968466728
 30
0.0
 10
13.84807611892836
 20
19.83234771625687
 30
0.0
 10
13.94574617199215
 20
19.61740777287345
 30
0.0
 10
13.95093200519318
 20
19.60662286090449
 30
0.0
 10
13.9559767272867
 20
19.59570438896082
 30
0.0
 10
13.96088739382809
 20
19.58457425035588
 30
0.0
 10
13.96088739382809
 20
19.58457425035588
 30
0.0
 10
13.96002661607227
 20
19.59263522237245
 30
0.0
 10
13.96002661607227
 20
19.59263522237245
 30
0.0
 10
13.96002661607227
 20
19.59263522237245
 30
0.0
 10
13.95949039386373
 20
19.7896263284579
 30
0.0
 10
13.95949039386373
 20
19.7896263284579
 30
0.0
 10
13.55145351538473
 20
20.27452289942049
 30
0.0
 10
13.10261083239121
 20
20.68015082816332
 30
0.0
 10
12.61289178932943
 20
21.00647027252618
 30
0.0
 10
12.53637429128155
 20
20.93677496585837
 30
0.0
 10
12.42136168310466
 20
20.91727693857803
 30
0.0
 10
12.32377629670541
 20
20.96657410398702
 30
0.0
 10
12.32377629670541
 20
20.96657410398702
 30
0.0
 10
11.48322681814959
 20
21.39101162093649
 30
0.0
 10
11.48322681814959
 20
21.39101162093649
 30
0.0
 10
11.35710171025619
 20
21.45469506375624
 30
0.0
 10
11.306044183781
 20
21.6098966612642
 30
0.0
 10
11.36972762660074
 20
21.73596830658036
 30
0.0
 10
11.36972762660074
 20
21.73596830658036
 30
0.0
 10
11.36974555271313
 20
21.73600358435724
 30
0.0
 10
11.36974555271313
 20
21.73600358435724
 30
0.0
 10
11.43342870830893
 20
21.86212869225063
 30
0.0
 10
11.58862975990498
 20
21.91318269094813
 30
0.0
 10
11.71470195113305
 20
21.84951688701683
 30
0.0
 10
11.71470195113305
 20
21.84951688701683
 30
0.0
 10
12.55530434635417
 20
21.42501234229129
 30
0.0
 10
12.55530434635417
 20
21.42501234229129
 30
0.0
 10
12.6724406766991
 20
21.36591148268796
 30
0.0
 10
12.72480348091877
 20
21.227714319547
 30
0.0
 10
12.68060395426862
 20
21.10730773928549
 30
0.0
 10
13.69476948395065
 20
20.51802422654159
 30
0.0
 10
14.60730679400322
 20
19.4265827266088
 30
0.0
 10
15.28637224890104
 20
18.07172912228511
 30
0.0
 10
15.32514605346739
 20
18.34223911538382
 30
0.0
 10
15.37925157986482
 20
18.59989741436597
 30
0.0
 10
15.40233382927595
 20
18.84288015816696
 30
0.0
 10
15.43051371744594
 20
19.11669567895912
 30
0.0
 10
15.41656135669075
 20
19.37259714465276
 30
0.0
 10
15.34907144174589
 20
19.58261280596148
 30
0.0
 10
15.28592422113469
 20
19.79372610616269
 30
0.0
 10
15.17850339054189
 20
19.95151251877229
 30
0.0
 10
15.08726094842524
 20
20.04673429412076
 30
0.0
 10
15.04094122738473
 20
20.09393243180552
 30
0.0
 10
15.00053053397125
 20
20.12783084760736
 30
0.0
 10
14.97157453470998
 20
20.14915626372998
 30
0.0
 10
14.94232610737552
 20
20.17024179096981
 30
0.0
 10
14.92663417474542
 20
20.18143895735082
 30
0.0
 10
14.92663417474542
 20
20.18143895735082
 30
0.0
 10
14.92663417474542
 20
20.18143895735082
 30
0.0
 10
14.94370509097654
 20
20.17230906869485
 30
0.0
 10
14.97570909016005
 20
20.15511820802232
 30
0.0
 10
15.00761078379061
 20
20.13747931958343
 30
0.0
 10
15.05287922708016
 20
20.10874557031649
 30
0.0
 10
15.10670958681795
 20
20.06664859916825
 30
0.0
 10
15.21287138508566
 20
19.98175968466728
 30
0.0
 10
15.34791785844199
 20
19.83234771625687
 30
0.0
 10
15.44558438372812
 20
19.61740777287345
 30
0.0
 10
15.54785465889673
 20
19.4047069771669
 30
0.0
 10
15.60144160197406
 20
19.12771998423343
 30
0.0
 10
15.61084665728967
 20
18.83753910274767
 30
0.0
 10
15.62266471254373
 20
18.54635986017627
 30
0.0
 10
15.59722277387848
 20
18.24143639573329
 30
0.0
 10
15.60144160197406
 20
17.94856734764945
 30
0.0
 10
15.60266574083172
 20
17.71626671468704
 30
0.0
 10
15.62007885149858
 20
17.48609685944806
 30
0.0
 10
15.64929590630875
 20
17.26767803168705
 30
0.0
 10
15.67084357242569
 20
17.21438389415781
 30
0.0
 10
15.69203140521848
 20
17.16081106219123
 30
0.0
 10
15.71287351579786
 20
17.1069665913427
 30
0.0
 10
15.72739384876075
 20
17.21889592182047
 30
0.0
 10
15.74389679278417
 20
17.33237747448087
 30
0.0
 10
15.76081248679706
 20
17.44671980489709
 30
0.0
 10
15.76653101442895
 20
17.61584146724911
 30
0.0
 10
15.76742706996164
 20
17.78165407412998
 30
0.0
 10
15.76344773672983
 20
17.94419290331661
 30
0.0
 10
15.75276915366893
 20
17.94915295874562
 30
0.0
 10
15.74249979281981
 20
17.95373554196204
 30
0.0
 10
15.73269962640317
 20
17.95793712518818
 30
0.0
 10
15.69589079400891
 20
17.9758547080644
 30
0.0
 10
15.66481499608381
 20
17.98477645783679
 30
0.0
 10
15.64417749608896
 20
17.99287270763024
 30
0.0
 10
15.6233349903044
 20
18.00038334632752
 30
0.0
 10
15.61220837947716
 20
18.00441206844696
 30
0.0
 10
15.61220837947716
 20
18.00441206844696
 30
0.0
 10
15.61220837947716
 20
18.00441206844696
 30
0.0
 10
15.62393824028901
 20
18.00282809626514
 30
0.0
 10
15.6459339341723
 20
17.99979773523134
 30
0.0
 10
15.66782732250264
 20
17.99628406865432
 30
0.0
 10
15.70098843276774
 20
17.99390634649276
 30
0.0
 10
15.7416072650648
 20
17.98398270785704
 30
0.0
 10
15.7416072650648
 20
17.98398270785704
 30
0.0
 10
15.7625344405038
 20
17.97967881907795
 30
0.0
 10
15.7625344405038
 20
17.97967881907795
 30
0.0
 10
15.73399079303689
 20
18.96552687726021
 30
0.0
 10
15.52547796502317
 20
19.82972657743486
 30
0.0
 10
15.13705944066019
 20
20.57235200293335
 30
0.0
 10
15.05325669929276
 20
20.55202494789638
 30
0.0
 10
14.96141138514853
 20
20.58389489152776
 30
0.0
 10
14.90980314739701
 20
20.65892719516908
 30
0.0
 10
14.90980314739701
 20
20.65892719516908
 30
0.0
 10
14.4654901309546
 20
21.30560765089311
 30
0.0
 10
14.4654901309546
 20
21.30560765089311
 30
0.0
 10
14.39884688265481
 20
21.40260443909379
 30
0.0
 10
14.42365068757757
 20
21.53647953389196
 30
0.0
 10
14.52064693510299
 20
21.60312630996944
 30
0.0
 10
14.52064693510299
 20
21.60312630996944
 30
0.0
 10
14.52068221287986
 20
21.60312630996944
 30
0.0
 10
14.52068221287986
 20
21.60312630996944
 30
0.0
 10
14.61771373818216
 20
21.66980483604611
 30
0.0
 10
14.75155409587872
 20
21.64500103112335
 30
0.0
 10
14.81821498306695
 20
21.54800478359793
 30
0.0
 10
14.81821498306695
 20
21.54800478359793
 30
0.0
 10
15.26253152728704
 20
20.90128905009702
 30
0.0
 10
15.26253152728704
 20
20.90128905009702
 30
0.0
 10
15.32445499616889
 20
20.81120019128427
 30
0.0
 10
15.30743660947475
 20
20.68924491661783
 30
0.0
 10
15.22694330597275
 20
20.61896452952194
 30
0.0
 10
15.583940296865
 20
20.02775132238283
 30
0.0
 10
15.80339276348852
 20
19.27358653606762
 30
0.0
 10
15.88521603917882
 20
18.43670241852942
 30
0.0
 10
15.88521603917882
 20
18.43670241852942
 30
0.0
 10
15.94581267652175
 20
18.93979221748728
 30
0.0
 10
15.94581267652175
 20
18.93979221748728
 30
0.0
 10
15.97969698121285
 20
19.23348628709066
 30
0.0
 10
15.99667970300181
 20
19.50175614135764
 30
0.0
 10
15.95086092639296
 20
19.72644383006982
 30
0.0
 10
15.90769503860533
 20
19.95061646323959
 30
0.0
 10
15.79974151358171
 20
20.12125154221966
 30
0.0
 10
15.70164107163998
 20
20.21705943939019
 30
0.0
 10
15.65287660066184
 20
20.26570345520105
 30
0.0
 10
15.60807382402708
 20
20.29812373215172
 30
0.0
 10
15.57627443594946
 20
20.31810506497528
 30
0.0
 10
15.54423555166949
 20
20.33777595336233
 30
0.0
 10
15.5262187983376
 20
20.3472515642317
 30
0.0
 10
15.5262187983376
 20
20.3472515642317
 30
0.0
 10
15.5262187983376
 20
20.3472515642317
 30
0.0
 10
15.54518413118709
 20
20.34011839774701
 30
0.0
 10
15.57996096363319
 20
20.32433916158557
 30
0.0
 10
15.61444851830889
 20
20.30825249492292
 30
0.0
 10
15.66395382260146
 20
20.28113748258507
 30
0.0
 10
15.72073027384761
 20
20.23728367814833
 30
0.0
 10
15.83436312380952
 20
20.15122354145501
 30
0.0
 10
15.97211578696182
 20
19.98710074008657
 30
0.0
 10
16.05058061829335
 20
19.75166038498205
 30
0.0
 10
16.13126442179049
 20
19.51787808539078
 30
0.0
 10
16.14971117131987
 20
19.22821578722512
 30
0.0
 10
16.15431139342473
 20
18.93383027304433
 30
0.0
 10
16.15756753223055
 20
18.63679444120242
 30
0.0
 10
16.16099300436538
 20
18.31995061595245
 30
0.0
 10
16.16445728205478
 20
18.00306798514791
 30
0.0
 10
16.16471480982599
 20
17.94091912562235
 30
0.0
 10
16.165663782024
 20
17.87856212721321
 30
0.0
 10
16.16650692089138
 20
17.81641326768765
 30
0.0
 10
16.18705622592267
 20
17.80411543466806
 30
0.0
 10
16.20784894761443
 20
17.79109440722248
 30
0.0
 10
16.22869105819382
 20
17.77731137979633
 30
0.0
 10
16.29197586213484
 20
18.41369072467205
 30
0.0
 10
16.3779654432744
 20
18.93197065589408
 30
0.0
 10
16.3779654432744
 20
18.93197065589408
 30
0.0
 10
16.3779654432744
 20
18.93197065589408
 30
0.0
 10
16.3977915538797
 20
18.29380272773065
 30
0.0
 10
16.47492994080063
 20
17.58083885703098
 30
0.0
 10
16.47492994080063
 20
17.58083885703098
 30
0.0
 10
16.47992527400652
 20
17.57598110715492
 30
0.0
 10
16.47992527400652
 20
17.57598110715492
 30
0.0
 10
16.55008218888333
 20
17.50869933109364
 30
0.0
 10
16.61726165939166
 20
17.43325074968516
 30
0.0
 10
16.67960101891237
 20
17.35160033510157
 30
0.0
 10
16.66647415813615
 20
17.57932191262524
 30
0.0
 10
16.66588854703998
 20
17.80497666221544
 30
0.0
 10
16.67608777360874
 20
18.01722848478665
 30
0.0
 10
16.68972926865398
 20
18.26648055098896
 30
0.0
 10
16.70826421262555
 20
18.49058569493252
 30
0.0
 10
16.69200468526259
 20
18.68254666199606
 30
0.0
 10
16.68451168545375
 20
18.77818071537314
 30
0.0
 10
16.66945555138821
 20
18.86492876871557
 30
0.0
 10
16.64832021415485
 20
18.94020448901734
 30
0.0
 10
16.62525560363217
 20
19.01454887600955
 30
0.0
 10
16.59929821540551
 20
19.07856040215426
 30
0.0
 10
16.57018699392597
 20
19.12748009535066
 30
0.0
 10
16.54181660576087
 20
19.17681253853652
 30
0.0
 10
16.5153723842133
 20
19.21412231536245
 30
0.0
 10
16.49470313474061
 20
19.23713753699751
 30
0.0
 10
16.47458421858723
 20
19.26094298083462
 30
0.0
 10
16.46387035774945
 20
19.27365356384369
 30
0.0
 10
16.46387035774945
 20
19.27365356384369
 30
0.0
 10
16.46387035774945
 20
19.27365356384369
 30
0.0
 10
16.47644335742868
 20
19.26266453634626
 30
0.0
 10
16.50014649571286
 20
19.24199528687358
 30
0.0
 10
16.52450227286927
 20
19.22194388408339
 30
0.0
 10
16.55688727204305
 20
19.18863059379058
 30
0.0
 10
16.5939042433209
 20
19.14250137274521
 30
0.0
 10
16.63169732569005
 20
19.09664731835949
 30
0.0
 10
16.66902474140441
 20
19.03480537549276
 30
0.0
 10
16.70549137936299
 20
18.9603591619266
 30
0.0
 10
16.74001110692612
 20
18.88518526819878
 30
0.0
 10
16.77019082215678
 20
18.79644049268507
 30
0.0
 10
16.79377048822188
 20
18.69787791186628
 30
0.0
 10
16.84227743142881
 20
18.50085152800395
 30
0.0
 10
16.85969406987337
 20
18.26465622847424
 30
0.0
 10
16.88461781923751
 20
18.02301756797229
 30
0.0
 10
16.89769176334841
 20
17.90323187658383
 30
0.0
 10
16.91497081846314
 20
17.779999995555
 30
0.0
 10
16.93633194021036
 20
17.65576885511936
 30
0.0
 10
16.94461473437353
 20
17.72601396443837
 30
0.0
 10
16.95474298411516
 20
17.7961572177732
 30
0.0
 10
16.96654340048075
 20
17.86581626642727
 30
0.0
 10
17.00281953844415
 20
18.08392464975175
 30
0.0
 10
17.05688978706471
 20
18.29803958873367
 30
0.0
 10
17.1176451744036
 20
18.50071394467413
 30
0.0
 10
17.103125273502
 20
18.57140708175948
 30
0.0
 10
17.08588106410285
 20
18.64089371887562
 30
0.0
 10
17.06588209239085
 20
18.70904027310048
 30
0.0
 10
16.91915476280084
 20
18.94451190557412
 30
0.0
 10
16.78979468276776
 20
19.22163295405973
 30
0.0
 10
16.67789710228917
 20
19.54037472370573
 30
0.0
 10
16.65155871407223
 20
19.44301511507847
 30
0.0
 10
16.6227932148061
 20
19.33921378439332
 30
0.0
 10
16.59154416004777
 20
19.22900600942718
 30
0.0
 10
16.59538590994976
 20
19.37824864450858
 30
0.0
 10
16.57538693823776
 20
19.57513391726339
 30
0.0
 10
16.53161780046551
 20
19.819668883247
 30
0.0
 10
16.52495030063565
 20
19.79114327286364
 30
0.0
 10
16.49780405132817
 20
19.75121638395109
 30
0.0
 10
16.45021080254238
 20
19.69995021963462
 30
0.0
 10
16.44530055144423
 20
19.83155396627713
 30
0.0
 10
16.43103733080931
 20
19.98561907345771
 30
0.0
 10
16.40740474807889
 20
20.16221256895244
 30
0.0
 10
16.40602538700298
 20
20.14554029160001
 30
0.0
 10
16.37464227669251
 20
20.09989084832017
 30
0.0
 10
16.31325188936983
 20
20.02523601689144
 30
0.0
 10
16.32296386134427
 20
20.10220154270566
 30
0.0
 10
16.33578027768396
 20
20.23345956713477
 30
0.0
 10
16.35173288838809
 20
20.41908064573252
 30
0.0
 10
16.33435194036084
 20
20.39933971712238
 30
0.0
 10
16.29724636200038
 20
20.35510439736469
 30
0.0
 10
16.24042091900567
 20
20.2864115102283
 30
0.0
 10
16.27382191815354
 20
20.4367195341714
 30
0.0
 10
16.29238861212431
 20
20.59367741905596
 30
0.0
 10
16.29607555148152
 20
20.75721813710591
 30
0.0
 10
16.28181233461636
 20
20.73437577657756
 30
0.0
 10
16.23761280796624
 20
20.69441311093042
 30
0.0
 10
16.16342364319226
 20
20.63739716794058
 30
0.0
 10
16.21442825300213
 20
20.90918068878458
 30
0.0
 10
16.24291858560862
 20
21.33232351132264
 30
0.0
 10
16.24891227990015
 20
21.90670569111337
 30
0.0
 10
16.24891227990015
 20
21.90670569111337
 30
0.0
 10
16.24894755767703
 20
21.91153169099025
 30
0.0
 10
16.24894755767703
 20
21.91153169099025
 30
0.0
 10
16.25075730763086
 20
22.0964613251612
 30
0.0
 10
16.26460383505538
 20
22.27696712611166
 30
0.0
 10
16.29058238994817
 20
22.45306320495241
 30
0.0
 10
16.30737461174199
 20
22.98452291361597
 30
0.0
 10
16.17203494852812
 20
23.5071279002832
 30
0.0
 10
15.88457751141733
 20
24.02087463717643
 30
0.0
 10
15.8607191509149
 20
23.96332599975573
 30
0.0
 10
15.83519215156614
 20
23.90563625122752
 30
0.0
 10
15.80802826337026
 20
23.84775953048185
 30
0.0
 10
15.81226512437328
 20
23.92110555638842
 30
0.0
 10
15.79371254151326
 20
24.00387427649903
 30
0.0
 10
15.75237051479024
 20
24.09601277414838
 30
0.0
 10
15.7424151261553
 20
24.06740249710052
 30
0.0
 10
15.70102371054462
 20
24.0131770262617
 30
0.0
 10
15.62826329573423
 20
23.93333636163194
 30
0.0
 10
15.66119862822731
 20
24.0980306629858
 30
0.0
 10
15.67546143341899
 20
24.2834612415884
 30
0.0
 10
15.67106582242002
 20
24.48975509743652
 30
0.0
 10
15.64914068409049
 20
24.39621959982281
 30
0.0
 10
15.56640371397906
 20
24.29918807452051
 30
0.0
 10
15.42281257875349
 20
24.1986957993065
 30
0.0
 10
15.53407163147059
 20
24.39136184994674
 30
0.0
 10
15.61398285165411
 20
24.62250889960524
 30
0.0
 10
15.66252507263791
 20
24.89210582711031
 30
0.0
 10
15.61658282381
 20
24.85820678248098
 30
0.0
 10
15.55665646422774
 20
24.8125432280904
 30
0.0
 10
15.48275657722419
 20
24.75518156288714
 30
0.0
 10
15.5749656304273
 20
24.94297222476291
 30
0.0
 10
15.67196187795271
 20
25.30468938220137
 30
0.0
 10
15.77371356980126
 20
25.84017781298436
 30
0.0
 10
15.79886309693742
 20
26.04042505787563
 30
0.0
 10
15.83484642935274
 20
26.24814832677131
 30
0.0
 10
15.88211512259126
 20
26.46467207482996
 30
0.0
 10
15.88211512259126
 20
26.46467207482996
 30
0.0
 10
15.88230249602943
 20
26.46598088035213
 30
0.0
 10
15.88230249602943
 20
26.46598088035213
 30
0.0
 10
15.97745684238111
 20
26.90137214702219
 30
0.0
 10
16.11825750545565
 20
27.37269382944218
 30
0.0
 10
16.3092196394727
 20
27.89178514953239
 30
0.0
 10
15.45096110724835
 20
27.90268951036531
 30
0.0
 10
15.0593033102496
 20
28.35024102672509
 30
0.0
 10
15.00606208938568
 20
28.8788573465723
 30
0.0
 10
15.09871564257745
 20
29.12097931261748
 30
0.0
 10
15.29429563758778
 20
29.32384416855308
 30
0.0
 10
15.59279501886132
 20
29.48746602548984
 30
0.0
 10
15.14598471843572
 20
30.05385778881776
 30
0.0
 10
15.00266836725004
 20
30.67581910628354
 30
0.0
 10
14.97677800679945
 20
31.30494534023319
 30
0.0
 10
14.9637044407035
 20
31.62308033211689
 30
0.0
 10
15.17840108498895
 20
31.59659024945938
 30
0.0
 10
15.20384341767319
 20
31.47285776990957
 30
0.0
 10
15.3885508018498
 20
30.57467066441961
 30
0.0
 10
15.95983559283067
 20
30.21765603463892
 30
0.0
 10
16.30925491724957
 20
30.16663378594061
 30
0.0
 10
16.30096816746099
 20
30.5908631640065
 30
0.0
 10
16.3976049959006
 20
30.9688574876964
 30
0.0
 10
16.56491296628275
 20
31.29595303490705
 30
0.0
 10
16.79213712715244
 20
31.75480402320079
 30
0.0
 10
16.97505240026366
 20
32.0777658253139
 30
0.0
 10
17.11359881339572
 20
32.26486776018798
 30
0.0
 10
17.08507320301236
 20
32.13550415237721
 30
0.0
 10
17.07079275893223
 20
32.07082234847182
 30
0.0
 10
17.07079275893223
 20
32.07082234847182
 30
0.0
 10
17.24948880992888
 20
32.27482749193131
 30
0.0
 10
17.45066738812971
 20
32.45135314431923
 30
0.0
 10
17.67426852131406
 20
32.60037082518322
 30
0.0
 10
17.62653768919844
 20
32.51103961501872
 30
0.0
 10
17.59515457888798
 20
32.4544187831299
 30
0.0
 10
17.5800808289383
 20
32.430614158559
 30
0.0
 10
17.76635763007579
 20
32.58419514093014
 30
0.0
 10
17.94326157000706
 20
32.70012144352818
 30
0.0
 10
18.11084864906487
 20
32.77825819153474
 30
0.0
 10
18.0254094012446
 20
32.6851354439105
 30
0.0
 10
17.98401798563392
 20
32.62718816761108
 30
0.0
 10
17.986706152232
 20
32.60441636263648
 30
0.0
 10
18.23082484044846
 20
32.75088616445528
 30
0.0
 10
18.43057114090807
 20
32.84254135656141
 30
0.0
 10
18.58594505361081
 20
32.87930080006804
 30
0.0
 10
18.53860933259623
 20
32.82171688487049
 30
0.0
 10
18.51006608332442
 20
32.78934952458514
 30
0.0
 10
18.50036822246073
 20
32.78226927476574
 30
0.0
 10
18.62928380250515
 20
32.81811502385124
 30
0.0
 10
18.70920913379942
 20
32.86123152275125
 30
0.0
 10
18.74004543856827
 20
32.91165052146495
 30
0.0
 10
18.80746527307591
 20
32.85363621738947
 30
0.0
 10
18.85884687998184
 20
32.82263057929159
 30
0.0
 10
18.89414277305425
 20
32.81866971401754
 30
0.0
 10
18.90272185108472
 20
32.87525526955896
 30
0.0
 10
18.90699398986462
 20
32.9035542716715
 30
0.0
 10
18.90699398986462
 20
32.9035542716715
 30
0.0
 10
19.10470829037606
 20
32.8212159404388
 30
0.0
 10
19.2188424819087
 20
32.76061930309586
 30
0.0
 10
19.24938598112947
 20
32.7216726374228
 30
0.0
 10
19.25796249518552
 20
32.8051963019586
 30
0.0
 10
19.26223414746835
 20
32.84696871755957
 30
0.0
 10
19.26223414746835
 20
32.84696871755957
 30
0.0
 10
19.46845744776271
 20
32.72224060963053
 30
0.0
 10
19.59830436111671
 20
32.68649716609798
 30
0.0
 10
19.67743594243122
 20
32.61988566779738
 30
0.0
 10
19.70277596956252
 20
32.64507047271042
 30
0.0
 10
19.70739383055583
 20
32.68122749182969
 30
0.0
 10
19.70739383055583
 20
32.68122749182969
 30
0.0
 10
19.77391713441423
 20
32.61451286237889
 30
0.0
 10
19.83289804957617
 20
32.55896094712948
 30
0.0
 10
19.88421360614005
 20
32.51295249187177
 30
0.0
 10
20.47110125551647
 20
32.2442831773798
 30
0.0
 10
21.0211276581508
 20
31.759129078646
 30
0.0
 10
21.64984114211098
 20
31.18543481550438
 30
0.0
 10
21.69335275211202
 20
31.15511709405563
 30
0.0
 10
21.7150909182241
 20
31.13994138110391
 30
0.0
 10
21.7150909182241
 20
31.13994138110391
 30
0.0
 10
21.8091767491571
 20
31.42540130938233
 30
0.0
 10
21.87787316407117
 20
31.55665933381144
 30
0.0
 10
21.92114135741176
 20
31.53371466773013
 30
0.0
 10
22.0067887441156
 20
31.54782304766861
 30
0.0
 10
22.04392565983482
 20
31.46664103055244
 30
0.0
 10
22.03266146567775
 20
31.29016395172141
 30
0.0
 10
22.03238332782527
 20
31.08830098464914
 30
0.0
 10
22.02335871591508
 20
30.92097221449197
 30
0.0
 10
22.00561752192326
 20
30.78811179786316
 30
0.0
 10
22.83567538963561
 20
29.9297152919849
 30
0.0
 10
22.99373804980709
 20
29.88521943200897
 30
0.0
 10
24.31196921308333
 20
29.74817585217192
 30
0.0
 10
24.86311744902236
 20
29.73393068586867
 30
0.0
 10
25.47716948891214
 20
29.42078749941318
 30
0.0
 10
26.15413304901704
 20
28.80859459836485
 30
0.0
 10
26.80139492735056
 20
28.15779722607919
 30
0.0
 10
27.21139677800165
 20
27.13670666879604
 30
0.0
 10
27.38423671803658
 20
25.74561220428582
 30
0.0
 10
27.47749352121296
 20
25.53971345953874
 30
0.0
 10
27.54464193755827
 20
25.37851871365115
 30
0.0
 10
27.58560226845487
 20
25.26205618884459
 30
0.0
 10
27.51852510349949
 20
25.30841118766197
 30
0.0
 10
27.48500415991023
 20
25.33161338151448
 30
0.0
 10
27.48500415991023
 20
25.33161338151448
 30
0.0
 10
27.59342335158868
 20
25.04837516651826
 30
0.0
 10
27.64761354465061
 20
24.90676664235322
 30
0.0
 10
27.64761354465061
 20
24.90676664235322
 30
0.0
 10
27.56479543565237
 20
24.99380397346605
 30
0.0
 10
27.52341813115244
 20
25.03731558346709
 30
0.0
 10
27.52341813115244
 20
25.03731558346709
 30
0.0
 10
27.60551657350238
 20
24.76964897918472
 30
0.0
 10
27.64113654481585
 20
24.60199487235082
 30
0.0
 10
27.63028510064825
 20
24.53433209629926
 30
0.0
 10
27.55611357476275
 20
24.6456087879048
 30
0.0
 10
27.51900840904272
 20
24.70126653648486
 30
0.0
 10
27.51900840904272
 20
24.70126653648486
 30
0.0
 10
27.56465785232255
 20
24.42447004354652
 30
0.0
 10
27.58749668507321
 20
24.28609649152117
 30
0.0
 10
27.58749668507321
 20
24.28609649152117
 30
0.0
 10
27.58749668507321
 20
24.28609649152117
 30
0.0
 10
27.47332721576369
 20
24.50477284705338
 30
0.0
 10
27.47332721576369
 20
24.50477284705338
 30
0.0
 10
27.47498174349926
 20
24.43947368205264
 30
0.0
 10
27.47629054902143
 20
24.37356773928959
 30
0.0
 10
27.47718660455412
 20
24.30702679654275
 30
0.0
 10
27.54911799160789
 20
23.72744114466254
 30
0.0
 10
27.5218694367475
 20
23.16249577018661
 30
0.0
 10
27.39543388441759
 20
22.61222947866952
 30
0.0
 10
27.33779705255469
 20
22.35012617980077
 30
0.0
 10
27.35391899658783
 20
22.01817288271405
 30
0.0
 10
27.44376796651781
 20
21.6163554762986
 30
0.0
 10
27.48745243762555
 20
21.17932732078145
 30
0.0
 10
27.4462832720092
 20
20.5912996968944
 30
0.0
 10
27.32033102522251
 20
19.85229377130357
 30
0.0
 10
27.35126610776662
 20
19.61719913841244
 30
0.0
 10
27.36904257953533
 20
19.39109681084746
 30
0.0
 10
27.37362516275175
 20
19.17409262193925
 30
0.0
 10
27.38072305145955
 20
19.1274095397969
 30
0.0
 10
27.38768335683754
 20
19.08059240210242
 30
0.0
 10
27.39453782888489
 20
19.03360240330123
 30
0.0
 10
27.52517496444095
 20
18.90120490667898
 30
0.0
 10
27.65436571114502
 20
18.74186929963286
 30
0.0
 10
27.77680499305579
 20
18.56654933188342
 30
0.0
 10
27.85893448370381
 20
18.4488313842767
 30
0.0
 10
27.93751925947673
 20
18.32380693986352
 30
0.0
 10
28.01451653529014
 20
18.19558234134757
 30
0.0
 10
28.03763406247814
 20
18.15699550899867
 30
0.0
 10
28.06057943742929
 20
18.11806693991495
 30
0.0
 10
28.08331525575716
 20
18.07882701099291
 30
0.0
 10
28.08717464454759
 20
18.10790295469557
 30
0.0
 10
28.09055072779479
 20
18.1368413150684
 30
0.0
 10
28.09340822772189
 20
18.16574792544205
 30
0.0
 10
27.95019809248659
 20
18.55311249536175
 30
0.0
 10
27.79861301302052
 20
18.9233911005574
 30
0.0
 10
27.67655190502344
 20
19.21357198204316
 30
0.0
 10
27.67655190502344
 20
19.21357198204316
 30
0.0
 10
27.52586288109006
 20
19.56855461187569
 30
0.0
 10
27.52586288109006
 20
19.56855461187569
 30
0.0
 10
27.52586288109006
 20
19.56855461187569
 30
0.0
 10
27.50877785374816
 20
19.58009750047009
 30
0.0
 10
27.50877785374816
 20
19.58009750047009
 30
0.0
 10
27.50877785374816
 20
19.58009750047009
 30
0.0
 10
27.52414132557843
 20
19.57265388954888
 30
0.0
 10
27.52414132557843
 20
19.57265388954888
 30
0.0
 10
27.52414132557843
 20
19.57265388954888
 30
0.0
 10
27.42482027255677
 20
19.80667960580061
 30
0.0
 10
27.42482027255677
 20
19.80667960580061
 30
0.0
 10
27.42482027255677
 20
19.80667960580061
 30
0.0
 10
27.59280246271563
 20
19.53872019597016
 30
0.0
 10
27.59280246271563
 20
19.53872019597016
 30
0.0
 10
27.61691835098927
 20
19.525491029641
 30
0.0
 10
27.64544396137263
 20
19.50843775229829
 30
0.0
 10
27.67796654387624
 20
19.48783553060167
 30
0.0
 10
27.78045554126153
 20
19.42055375454039
 30
0.0
 10
27.91860684329255
 20
19.30414414639914
 30
0.0
 10
28.03890759022343
 20
19.12744481757378
 30
0.0
 10
28.15921186493199
 20
18.95174384983406
 30
0.0
 10
28.26183915960119
 20
18.71961607797836
 30
0.0
 10
28.31041665958906
 20
18.45430955696911
 30
0.0
 10
28.31899549974446
 20
18.40873066924304
 30
0.0
 10
28.32595227734475
 20
18.36235803153721
 30
0.0
 10
28.33146619387074
 20
18.31550561606585
 30
0.0
 10
28.38548352582598
 20
18.22021328516363
 30
0.0
 10
28.43929624667533
 20
18.12330170430272
 30
0.0
 10
28.49221291199198
 20
18.02563517901662
 30
0.0
 10
28.57110460442373
 20
17.87842499553042
 30
0.0
 10
28.64813715801402
 20
17.72973576989897
 30
0.0
 10
28.72079526727146
 20
17.58321657919255
 30
0.0
 10
28.73099407256683
 20
17.74313779733484
 30
0.0
 10
28.74632226662022
 20
17.9043678209993
 30
0.0
 10
28.76465332614218
 20
18.06490992801464
 30
0.0
 10
28.79589812646655
 20
18.5528721377879
 30
0.0
 10
28.86490498581714
 20
19.02488526463474
 30
0.0
 10
28.9697399553648
 20
19.46854564220491
 30
0.0
 10
28.99599014913955
 20
19.64507210992356
 30
0.0
 10
29.01876195411415
 20
19.81894568882101
 30
0.0
 10
29.03526489813757
 20
19.98775388389196
 30
0.0
 10
29.06861298062012
 20
20.33784650891608
 30
0.0
 10
29.07436678602888
 20
20.66681883385664
 30
0.0
 10
29.04738987005045
 20
20.9472136600365
 30
0.0
 10
29.02296353734029
 20
21.2278871806537
 30
0.0
 10
28.96880862205523
 20
21.45896367475845
 30
0.0
 10
28.91937034553873
 20
21.6172515318313
 30
0.0
 10
28.89659854056413
 20
21.69714158534869
 30
0.0
 10
28.8722780411846
 20
21.75787933379914
 30
0.0
 10
28.85660059714012
 20
21.79973641606461
 30
0.0
 10
28.84092668087332
 20
21.8416464149954
 30
0.0
 10
28.83248470886647
 20
21.86393491442677
 30
0.0
 10
28.83248470886647
 20
21.86393491442677
 30
0.0
 10
28.83248470886647
 20
21.86393491442677
 30
0.0
 10
28.84323384748113
 20
21.84260949830416
 30
0.0
 10
28.8633880414114
 20
21.8025974437694
 30
0.0
 10
28.88347167978791
 20
21.76246191701556
 30
0.0
 10
28.91454860388247
 20
21.70416891850274
 30
0.0
 10
28.94607209485751
 20
21.62638142048726
 30
0.0
 10
29.0129736038579
 20
21.47264086885396
 30
0.0
 10
29.09324392443618
 20
21.24478523577815
 30
0.0
 10
29.14939908967021
 20
20.96116602079165
 30
0.0
 10
29.18884669977492
 20
20.77054960898802
 30
0.0
 10
29.2157530601996
 20
20.55540455892127
 30
0.0
 10
29.2306022149146
 20
20.32499481479951
 30
0.0
 10
29.42976216585088
 20
20.84806546812154
 30
0.0
 10
29.68783321482249
 20
21.30857098415084
 30
0.0
 10
30.00037315129338
 20
21.67876186359537
 30
0.0
 10
29.93223059747629
 20
21.76049749455986
 30
0.0
 10
29.93453776408409
 20
21.8830907472714
 30
0.0
 10
30.00953831772623
 20
21.96196480081471
 30
0.0
 10
30.00953831772623
 20
21.96196480081471
 30
0.0
 10
30.54769374844118
 20
22.52828953636656
 30
0.0
 10
30.54769374844118
 20
22.52828953636656
 30
0.0
 10
30.62841360345402
 20
22.61319256197831
 30
0.0
 10
30.7639429929242
 20
22.61667095077843
 30
0.0
 10
30.84886718520205
 20
22.53590304992158
 30
0.0
 10
30.84886718520205
 20
22.53590304992158
 30
0.0
 10
30.84886718520205
 20
22.53593832769936
 30
0.0
 10
30.84886718520205
 20
22.53593832769936
 30
0.0
 10
30.93382312747909
 20
22.4552010382312
 30
0.0
 10
30.93726623850236
 20
22.31973790279827
 30
0.0
 10
30.85654715722834
 20
22.23475021052204
 30
0.0
 10
30.85654715722834
 20
22.23475021052204
 30
0.0
 10
30.31842347651258
 20
21.66844311385863
 30
0.0
 10
30.31842347651258
 20
21.66844311385863
 30
0.0
 10
30.25596417255049
 20
21.6027629488676
 30
0.0
 10
30.16067184164826
 20
21.58584725485471
 30
0.0
 10
30.08146970477999
 20
21.61895544845453
 30
0.0
 10
29.71856443701478
 20
21.13135360582826
 30
0.0
 10
29.4395129433799
 20
20.5653246697793
 30
0.0
 10
29.24414108725314
 20
19.92105721399371
 30
0.0
 10
29.24476197612618
 20
19.7590334403495
 30
0.0
 10
29.24062742067611
 20
19.59277280570227
 30
0.0
 10
29.23373767085188
 20
19.42448017110689
 30
0.0
 10
29.22447019886609
 20
19.23782545364662
 30
0.0
 10
29.21495931021985
 20
19.04820740292863
 30
0.0
 10
29.20548722712817
 20
18.85848704665769
 30
0.0
 10
29.18581633874112
 20
18.36360027318686
 30
0.0
 10
29.13848061772654
 20
17.87670298837175
 30
0.0
 10
29.16965558915342
 20
17.34185308535024
 30
0.0
 10
29.17606556121211
 20
17.38791175084185
 30
0.0
 10
29.18333278324893
 20
17.4344219718775
 30
0.0
 10
29.19187706080872
 20
17.48106977624297
 30
0.0
 10
29.25137655929077
 20
17.81824110665657
 30
0.0
 10
29.35972166763776
 20
18.15823728674477
 30
0.0
 10
29.47740833130199
 20
18.48655344503539
 30
0.0
 10
29.71146579755291
 20
19.14325984494808
 30
0.0
 10
29.98049412402276
 20
19.78507902301836
 30
0.0
 10
30.19750184070865
 20
20.25891953870746
 30
0.0
 10
30.30550475461994
 20
20.49601089376986
 30
0.0
 10
30.39979872443652
 20
20.69144977767269
 30
0.0
 10
30.46673554793887
 20
20.82780544086064
 30
0.0
 10
30.53422469322925
 20
20.96381943920349
 30
0.0
 10
30.57281152557815
 20
21.04153937985227
 30
0.0
 10
30.57281152557815
 20
21.04153937985227
 30
0.0
 10
30.57281152557815
 20
21.04153937985227
 30
0.0
 10
30.54376733187468
 20
20.96006535415307
 30
0.0
 10
30.49302024983602
 20
20.81747258001314
 30
0.0
 10
30.44286230667121
 20
20.67477397254257
 30
0.0
 10
30.3726171973522
 20
20.47048036664342
 30
0.0
 10
30.29396539380322
 20
20.22394867848853
 30
0.0
 10
30.13559287006586
 20
19.73119927439294
 30
0.0
 10
29.94656043044404
 20
19.06846390241184
 30
0.0
 10
29.79456260098849
 20
18.39980539169296
 30
0.0
 10
29.73530651916691
 20
18.14180489827511
 30
0.0
 10
29.68480360368994
 20
17.88524726593155
 30
0.0
 10
29.65737791004391
 20
17.64123088326804
 30
0.0
 10
30.08084881590694
 20
18.56028047093223
 30
0.0
 10
30.66141871776204
 20
19.31024416183912
 30
0.0
 10
31.32321922865588
 20
19.73712241313072
 30
0.0
 10
31.28873520175786
 20
19.81908327215084
 30
0.0
 10
31.32053458983548
 20
19.91647463077729
 30
0.0
 10
31.39973672670375
 20
19.96115746297067
 30
0.0
 10
31.39973672670375
 20
19.96115746297067
 30
0.0
 10
31.9681428510914
 20
20.28217112144759
 30
0.0
 10
31.9681428510914
 20
20.28217112144759
 30
0.0
 10
32.05337396002807
 20
20.33033638380629
 30
0.0
 10
32.16251634613251
 20
20.29998287099318
 30
0.0
 10
32.21067756712604
 20
20.21468120650274
 30
0.0
 10
32.21067756712604
 20
20.21468120650274
 30
0.0
 10
32.21067756712604
 20
20.21468120650274
 30
0.0
 10
32.21067756712604
 20
20.21468120650274
 30
0.0
 10
32.25883878811957
 20
20.12941834756686
 30
0.0
 10
32.22848931667162
 20
20.02034651701618
 30
0.0
 10
32.14318765218119
 20
19.97214649046809
 30
0.0
 10
32.14318765218119
 20
19.97214649046809
 30
0.0
 10
31.57481680557042
 20
19.65116860619829
 30
0.0
 10
31.57481680557042
 20
19.65116860619829
 30
0.0
 10
31.50884383503131
 20
19.61389361071899
 30
0.0
 10
31.42860453152283
 20
19.6236761382472
 30
0.0
 10
31.37334542182149
 20
19.66949491485604
 30
0.0
 10
30.64023165900659
 20
19.13020001194793
 30
0.0
 10
30.06056056642454
 20
18.32408517140252
 30
0.0
 10
29.63436621618655
 20
17.25110805988756
 30
0.0
 10
29.63457435507013
 20
17.09907495265514
 30
0.0
 10
29.64628657699355
 20
16.95386499576154
 30
0.0
 10
29.66361502099591
 20
16.81740659872999
 30
0.0
 10
29.70020160339584
 20
16.96926684485571
 30
0.0
 10
29.74547004668539
 20
17.12746297970868
 30
0.0
 10
29.80141707303584
 20
17.28869300337313
 30
0.0
 10
29.85447484946
 20
17.44975369370858
 30
0.0
 10
29.92427193101266
 20
17.61246582893022
 30
0.0
 10
29.99992512352703
 20
17.77500421318852
 30
0.0
 10
30.08119453812034
 20
17.93609665352316
 30
0.0
 10
30.16987304801312
 20
18.09712206608173
 30
0.0
 10
30.28025292193083
 20
18.248015701121
 30
0.0
 10
30.72945896602619
 20
18.84715277306599
 30
0.0
 10
31.37489764400412
 20
19.22818050944824
 30
0.0
 10
31.88359965880382
 20
19.40725805070375
 30
0.0
 10
32.13795243009253
 20
19.49986221734727
 30
0.0
 10
32.35847110302148
 20
19.54702458464718
 30
0.0
 10
32.51288193631622
 20
19.57227641733629
 30
0.0
 10
32.58987839078515
 20
19.58643691697503
 30
0.0
 10
32.65123702810865
 20
19.59232527287968
 30
0.0
 10
32.69271663816153
 20
19.59739066669557
 30
0.0
 10
32.73426327599048
 20
19.6023189721254
 30
0.0
 10
32.75637891431515
 20
19.60496833316892
 30
0.0
 10
32.75637891431515
 20
19.60496833316892
 30
0.0
 10
32.75637891431515
 20
19.60496833316892
 30
0.0
 10
32.73467602597995
 20
19.59987069441008
 30
0.0
 10
32.69399016590682
 20
19.59036333354152
 30
0.0
 10
32.65340661138664
 20
19.58071486156545
 30
0.0
 10
32.59363547402263
 20
19.56814186188622
 30
0.0
 10
32.51932283702962
 20
19.54554291801832
 30
0.0
 10
32.37018603527886
 20
19.50371758575204
 30
0.0
 10
32.15982817953443
 20
19.43298917088981
 30
0.0
 10
31.92511454663358
 20
19.31602971739319
 30
0.0
 10
31.80677524409711
 20
19.25963417531246
 30
0.0
 10
31.68502458053656
 20
19.18701134383189
 30
0.0
 10
31.55962266706917
 20
19.10756579030316
 30
0.0
 10
31.43646089243351
 20
19.02457482019821
 30
0.0
 10
31.31019820121029
 20
18.93279615587301
 30
0.0
 10
31.18972459317272
 20
18.82723799189936
 30
0.0
 10
31.06962845734774
 20
18.72143993904294
 30
0.0
 10
30.95277082144014
 20
18.60554891422179
 30
0.0
 10
30.84490549085868
 20
18.47983655631787
 30
0.0
 10
30.73845127135233
 20
18.35309055955142
 30
0.0
 10
30.63840349612698
 20
18.21701006302313
 30
0.0
 10
30.55961410924818
 20
18.07851656655639
 30
0.0
 10
30.47958647240097
 20
17.93733888440452
 30
0.0
 10
30.41777980731112
 20
17.78458212961084
 30
0.0
 10
30.36252069760978
 20
17.63313463347459
 30
0.0
 10
30.33423850388688
 20
17.54642185790904
 30
0.0
 10
30.30746972679203
 20
17.4602241378859
 30
0.0
 10
30.28407703294438
 20
17.37430555121198
 30
0.0
 10
30.40158730772422
 20
17.48665072054504
 30
0.0
 10
30.53136719330215
 20
17.59296382894387
 30
0.0
 10
30.66920452311896
 20
17.68684504877098
 30
0.0
 10
30.8590977404966
 20
17.81696712878463
 30
0.0
 10
31.06328904084281
 20
17.92348837606705
 30
0.0
 10
31.26189939688694
 20
18.00083137409386
 30
0.0
 10
31.45923269740811
 20
18.07920448320551
 30
0.0
 10
31.65643194237713
 20
18.12912606526523
 30
0.0
 10
31.82730691023997
 20
18.14221764826458
 30
0.0
 10
31.99873573919979
 20
18.15620528679661
 30
0.0
 10
32.14174126332919
 20
18.13201884296921
 30
0.0
 10
32.23355249194162
 20
18.09970439934918
 30
0.0
 10
32.25684206594829
 20
18.09250420508843
 30
0.0
 10
32.2769257043248
 20
18.08413278863533
 30
0.0
 10
32.29415184277421
 20
18.07644928883135
 30
0.0
 10
32.31158259232952
 20
18.0694219556773
 30
0.0
 10
32.32588067529807
 20
18.06259923362914
 30
0.0
 10
32.33714839723283
 20
18.05615751157126
 30
0.0
 10
32.35974734110073
 20
18.04413484521132
 30
0.0
 10
32.37180610301817
 20
18.03772840093032
 30
0.0
 10
32.37180610301817
 20
18.03772840093032
 30
0.0
 10
32.37180610301817
 20
18.03772840093032
 30
0.0
 10
32.35881600779116
 20
18.04186295638039
 30
0.0
 10
32.33425209175117
 20
18.04954292840668
 30
0.0
 10
32.32222942539123
 20
18.0537797894097
 30
0.0
 10
32.30703610303438
 20
18.05784777326332
 30
0.0
 10
32.28888134290868
 20
18.06149856699056
 30
0.0
 10
32.27096728781015
 20
18.0658730113234
 30
0.0
 10
32.25032978833665
 20
18.07031801121
 30
0.0
 10
32.2267642333823
 20
18.07303792780728
 30
0.0
 10
32.1336811030777
 20
18.08771701076612
 30
0.0
 10
31.99763154478352
 20
18.08520170527473
 30
0.0
 10
31.84487877090279
 20
18.04392670632774
 30
0.0
 10
31.53950375091578
 20
17.96286543061801
 30
0.0
 10
31.16994787145504
 20
17.73173249207026
 30
0.0
 10
30.8827311033904
 20
17.44379174941624
 30
0.0
 10
30.73834543802169
 20
17.29941082900849
 30
0.0
 10
30.61408299674745
 20
17.13962675717613
 30
0.0
 10
30.51589788814125
 20
16.98176971797676
 30
0.0
 10
30.41740233509852
 20
16.82374601523492
 30
0.0
 10
30.34574258692672
 20
16.66775121365913
 30
0.0
 10
30.29582453264468
 20
16.53215049489636
 30
0.0
 10
30.26864300556036
 20
16.46517916327161
 30
0.0
 10
30.25255281152641
 20
16.40103005379708
 30
0.0
 10
30.23453721466357
 20
16.34601436075621
 30
0.0
 10
30.22099684010925
 20
16.28989094552137
 30
0.0
 10
30.209147034856
 20
16.24100694038419
 30
0.0
 10
30.19932570177323
 20
16.20069814224131
 30
0.0
 10
30.19240420194982
 20
16.16214658766929
 30
0.0
 10
30.16956184142146
 20
16.07181783997376
 30
0.0
 10
30.14758025864893
 20
15.98775795322942
 30
0.0
  0
SPLINE
  5
7D
330
70
100
AcDbEntity
  8
Layer 1
100
AcDbSpline
210
0.0
220
0.0
230
1.0
 70
     9
 71
     3
 72
    26
 73
    22
 74
     0
 42
0.0000000001
 43
0.0000000001
 40
0.0
 40
0.0
 40
0.0
 40
0.0
 40
1.0
 40
1.0
 40
1.0
 40
2.0
 40
2.0
 40
2.0
 40
3.0
 40
3.0
 40
3.0
 40
4.0
 40
4.0
 40
4.0
 40
5.0
 40
5.0
 40
5.0
 40
6.0
 40
6.0
 40
6.0
 40
7.0
 40
7.0
 40
7.0
 40
7.0
 10
14.83364901045097
 20
17.56753913514807
 30
0.0
 10
14.60308757188864
 20
17.89644443231255
 30
0.0
 10
14.36215446692424
 20
18.18986381371569
 30
0.0
 10
14.11069800111721
 20
18.44762441825078
 30
0.0
 10
14.1091140289354
 20
18.38891866974849
 30
0.0
 10
14.10723372342781
 20
18.33011414347094
 30
0.0
 10
14.10558272346994
 20
18.27140839496864
 30
0.0
 10
14.15415669445293
 20
18.20581289664212
 30
0.0
 10
14.23256860911914
 20
18.09911878825301
 30
0.0
 10
14.32844302333985
 20
17.96510556944975
 30
0.0
 10
14.49241413026771
 20
17.73566243641444
 30
0.0
 10
14.70501249632375
 20
17.42308722216668
 30
0.0
 10
14.88243464809523
 20
17.08057528646044
 30
0.0
 10
14.94925075750172
 20
16.9486646231591
 30
0.0
 10
15.01205578367721
 20
16.81309918217321
 30
0.0
 10
15.06500772677074
 20
16.67784418562385
 30
0.0
 10
15.06264764349762
 20
16.75890898911127
 30
0.0
 10
15.0558425603379
 20
16.84189995921622
 30
0.0
 10
15.0428532828915
 20
16.92582226263074
 30
0.0
 10
15.01155483924558
 20
17.13145995182893
 30
0.0
 10
14.93533367452345
 20
17.35015394624958
 30
0.0
 10
14.83364901045097
 20
17.56753913514807
 30
0.0
  0
SPLINE
  5
7E
330
70
100
AcDbEntity
  8
Layer 1
100
AcDbSpline
210
0.0
220
0.0
230
1.0
 70
     9
 71
     3
 72
    32
 73
    28
 74
     0
 42
0.0000000001
 43
0.0000000001
 40
0.0
 40
0.0
 40
0.0
 40
0.0
 40
1.0
 40
1.0
 40
1.0
 40
2.0
 40
2.0
 40
2.0
 40
3.0
 40
3.0
 40
3.0
 40
4.0
 40
4.0
 40
4.0
 40
5.0
 40
5.0
 40
5.0
 40
6.0
 40
6.0
 40
6.0
 40
7.0
 40
7.0
 40
7.0
 40
8.0
 40
8.0
 40
8.0
 40
9.0
 40
9.0
 40
9.0
 40
9.0
 10
13.68087003986081
 20
18.84498271366888
 30
0.0
 10
13.61735945814777
 20
18.89762421232588
 30
0.0
 10
13.55322832994501
 20
18.94823018325704
 30
0.0
 10
13.48849679476866
 20
18.99670537646478
 30
0.0
 10
13.50239623885854
 20
18.89380010131233
 30
0.0
 10
13.52530562716293
 20
18.7649162712671
 30
0.0
 10
13.55588087638289
 20
18.61698596948556
 30
0.0
 10
13.59370923652891
 20
18.42647186323487
 30
0.0
 10
13.64535237410028
 20
18.20367859114102
 30
0.0
 10
13.66504090137576
 20
17.95080748648119
 30
0.0
 10
13.67339467894042
 20
17.84817737798839
 30
0.0
 10
13.67313749658171
 20
17.73982874186371
 30
0.0
 10
13.66145667924498
 20
17.62886249469469
 30
0.0
 10
13.68536442863507
 20
17.60395638421899
 30
0.0
 10
13.70956851135088
 20
17.57904674596559
 30
0.0
 10
13.73395956628417
 20
17.5543099688189
 30
0.0
 10
13.74215812163056
 20
17.69152993754035
 30
0.0
 10
13.75505920463476
 20
17.82974826734744
 30
0.0
 10
13.77249348196775
 20
17.96703526384496
 30
0.0
 10
13.78320734280553
 20
18.05298956720764
 30
0.0
 10
13.79605550914441
 20
18.1377373706011
 30
0.0
 10
13.80947517546871
 20
18.2211446184732
 30
0.0
 10
13.80262070342136
 20
18.27109795053212
 30
0.0
 10
13.79505749655124
 20
18.32046567149487
 30
0.0
 10
13.7868233149355
 20
18.36904317025555
 30
0.0
 10
13.75590587127982
 20
18.53840166203205
 30
0.0
 10
13.72109023327915
 20
18.69977232848462
 30
0.0
 10
13.68087003986081
 20
18.84498271366888
 30
0.0
  0
SPLINE
  5
7F
330
70
100
AcDbEntity
  8
Layer 1
100
AcDbSpline
210
0.0
220
0.0
230
1.0
 70
     9
 71
     3
 72
    20
 73
    16
 74
     0
 42
0.0000000001
 43
0.0000000001
 40
0.0
 40
0.0
 40
0.0
 40
0.0
 40
1.0
 40
1.0
 40
1.0
 40
2.0
 40
2.0
 40
2.0
 40
3.0
 40
3.0
 40
3.0
 40
4.0
 40
4.0
 40
4.0
 40
5.0
 40
5.0
 40
5.0
 40
5.0
 10
14.11397177881147
 20
18.61888038610389
 30
0.0
 10
14.2352536075523
 20
18.50167749537459
 30
0.0
 10
14.35402293935392
 20
18.37679416207244
 30
0.0
 10
14.46965996418155
 20
18.24522522896996
 30
0.0
 10
14.4401501038233
 20
18.29759156096732
 30
0.0
 10
14.41100749639725
 20
18.34967919852735
 30
0.0
 10
14.3826861330671
 20
18.40132233609871
 30
0.0
 10
14.27039344148749
 20
18.60434241425257
 30
0.0
 10
14.17236355509954
 20
18.80281518696688
 30
0.0
 10
14.10222110758554
 20
18.98550821008377
 30
0.0
 10
14.10649289011338
 20
18.9367261002172
 30
0.0
 10
14.10945622337111
 20
18.88732310147757
 30
0.0
 10
14.11104055202778
 20
18.83753910274767
 30
0.0
 10
14.11398588992222
 20
18.76536429903344
 30
0.0
 10
14.11457150101839
 20
18.69236399534028
 30
0.0
 10
14.11397177881147
 20
18.61888038610389
 30
0.0
  0
SPLINE
  5
80
330
70
100
AcDbEntity
  8
Layer 1
100
AcDbSpline
210
0.0
220
0.0
230
1.0
 70
     9
 71
     3
 72
    26
 73
    22
 74
     0
 42
0.0000000001
 43
0.0000000001
 40
0.0
 40
0.0
 40
0.0
 40
0.0
 40
1.0
 40
1.0
 40
1.0
 40
2.0
 40
2.0
 40
2.0
 40
3.0
 40
3.0
 40
3.0
 40
4.0
 40
4.0
 40
4.0
 40
5.0
 40
5.0
 40
5.0
 40
6.0
 40
6.0
 40
6.0
 40
7.0
 40
7.0
 40
7.0
 40
7.0
 10
15.24558055549728
 20
17.71557527026024
 30
0.0
 10
14.87499103717403
 20
18.51976394418812
 30
0.0
 10
14.44633429810997
 20
19.21116250988241
 30
0.0
 10
13.95954331052904
 20
19.78959105068102
 30
0.0
 10
13.95954331052904
 20
19.78959105068102
 30
0.0
 10
13.98813947646616
 20
19.59625472228011
 30
0.0
 10
13.98813947646616
 20
19.59625472228011
 30
0.0
 10
14.01916275345247
 20
19.47574583646566
 30
0.0
 10
14.0627061134527
 20
19.30407359084538
 30
0.0
 10
14.16368169420993
 20
19.11676623451288
 30
0.0
 10
14.25975013620346
 20
18.92811126710365
 30
0.0
 10
14.39800021600974
 20
18.72230071679876
 30
0.0
 10
14.55961123966448
 20
18.50818930559453
 30
0.0
 10
14.72053081889241
 20
18.2933546999643
 30
0.0
 10
14.90343198089288
 20
18.06856117792149
 30
0.0
 10
15.07225730991912
 20
17.82382160083198
 30
0.0
 10
15.12893105847325
 20
17.74224174180214
 30
0.0
 10
15.1837245015198
 20
17.6576632717377
 30
0.0
 10
15.2348666946595
 20
17.57053774618268
 30
0.0
 10
15.2378480517461
 20
17.61880480050684
 30
0.0
 10
15.24139661115957
 20
17.66717416038394
 30
0.0
 10
15.24558055549728
 20
17.71557527026024
 30
0.0
  0
SPLINE
  5
81
330
70
100
AcDbEntity
  8
Layer 1
100
AcDbSpline
210
0.0
220
0.0
230
1.0
 70
     9
 71
     3
 72
    17
 73
    13
 74
     0
 42
0.0000000001
 43
0.0000000001
 40
0.0
 40
0.0
 40
0.0
 40
0.0
 40
1.0
 40
1.0
 40
1.0
 40
2.0
 40
2.0
 40
2.0
 40
3.0
 40
3.0
 40
3.0
 40
4.0
 40
4.0
 40
4.0
 40
4.0
 10
18.23868166210701
 20
17.47559113749385
 30
0.0
 10
18.27840045034582
 20
17.40024838941601
 30
0.0
 10
18.3172099954207
 20
17.32349100248536
 30
0.0
 10
18.35460750395717
 20
17.24583756002203
 30
0.0
 10
18.35509080950039
 20
17.27491350372468
 30
0.0
 10
18.35581400392639
 20
17.30385186409751
 30
0.0
 10
18.35686528167735
 20
17.33272319669428
 30
0.0
 10
18.36320117040459
 20
17.52341016405167
 30
0.0
 10
18.37896328111358
 20
17.71044235372453
 30
0.0
 10
18.39531100291874
 20
17.88927951582867
 30
0.0
 10
18.33021644902388
 20
17.77941393529825
 30
0.0
 10
18.27798770035635
 20
17.64154132770456
 30
0.0
 10
18.23868166210701
 20
17.47559113749385
 30
0.0
  0
SPLINE
  5
82
330
70
100
AcDbEntity
  8
Layer 1
100
AcDbSpline
210
0.0
220
0.0
230
1.0
 70
     9
 71
     3
 72
    68
 73
    64
 74
     0
 42
0.0000000001
 43
0.0000000001
 40
0.0
 40
0.0
 40
0.0
 40
0.0
 40
1.0
 40
1.0
 40
1.0
 40
2.0
 40
2.0
 40
2.0
 40
3.0
 40
3.0
 40
3.0
 40
4.0
 40
4.0
 40
4.0
 40
5.0
 40
5.0
 40
5.0
 40
6.0
 40
6.0
 40
6.0
 40
7.0
 40
7.0
 40
7.0
 40
8.0
 40
8.0
 40
8.0
 40
9.0
 40
9.0
 40
9.0
 40
10.0
 40
10.0
 40
10.0
 40
11.0
 40
11.0
 40
11.0
 40
12.0
 40
12.0
 40
12.0
 40
13.0
 40
13.0
 40
13.0
 40
14.0
 40
14.0
 40
14.0
 40
15.0
 40
15.0
 40
15.0
 40
16.0
 40
16.0
 40
16.0
 40
17.0
 40
17.0
 40
17.0
 40
18.0
 40
18.0
 40
18.0
 40
19.0
 40
19.0
 40
19.0
 40
20.0
 40
20.0
 40
20.0
 40
21.0
 40
21.0
 40
21.0
 40
21.0
 10
18.61228344182775
 20
18.15541153681686
 30
0.0
 10
18.62320544154911
 20
18.01547165149813
 30
0.0
 10
18.6336264968388
 20
17.869502794111
 30
0.0
 10
18.64647466317768
 20
17.72198524231893
 30
0.0
 10
18.64906052422282
 20
17.71774838131591
 30
0.0
 10
18.65174516304322
 20
17.71357854808896
 30
0.0
 10
18.65450388519506
 20
17.70944444001708
 30
0.0
 10
18.65450388519506
 20
17.70944444001708
 30
0.0
 10
18.64702499649698
 20
17.71568110359087
 30
0.0
 10
18.64702499649698
 20
17.71568110359087
 30
0.0
 10
18.65777413511163
 20
17.59317196782745
 30
0.0
 10
18.6701954403503
 20
17.46962919320151
 30
0.0
 10
18.68611277327755
 20
17.34777666232971
 30
0.0
 10
18.70859177270405
 20
17.17807247841752
 30
0.0
 10
18.74071571632895
 20
17.01246801042022
 30
0.0
 10
18.78400555085955
 20
16.85902379211269
 30
0.0
 10
18.78400555085955
 20
16.85902379211269
 30
0.0
 10
18.80477663136129
 20
16.85981444022946
 30
0.0
 10
18.80477663136129
 20
16.85981444022946
 30
0.0
 10
18.80477663136129
 20
16.85981444022946
 30
0.0
 10
18.82393246420592
 20
16.86053720874075
 30
0.0
 10
18.82393246420592
 20
16.86053720874075
 30
0.0
 10
18.82393246420592
 20
16.86053720874075
 30
0.0
 10
18.9702611549172
 20
16.86591354193692
 30
0.0
 10
18.9702611549172
 20
16.86591354193692
 30
0.0
 10
18.99634249525092
 20
16.9568283290941
 30
0.0
 10
19.02181962582406
 20
17.05060328722509
 30
0.0
 10
19.04607309742752
 20
17.14617078478696
 30
0.0
 10
19.06138718037016
 20
17.2312995881707
 30
0.0
 10
19.07926595769182
 20
17.3164954193305
 30
0.0
 10
19.09981526272311
 20
17.40090102828825
 30
0.0
 10
19.1111147346571
 20
17.44720311044032
 30
0.0
 10
19.12327498434683
 20
17.49323002593274
 30
0.0
 10
19.13619723401716
 20
17.53884419143569
 30
0.0
 10
19.1770206774201
 20
17.73435363089227
 30
0.0
 10
19.21066156545074
 20
17.92772523707007
 30
0.0
 10
19.22251137070398
 20
18.11269367679557
 30
0.0
 10
19.2040646211746
 20
18.1752552863106
 30
0.0
 10
19.18723359382622
 20
18.22944547937254
 30
0.0
 10
19.1731260108528
 20
18.27354270046975
 30
0.0
 10
19.14615262265206
 20
18.35760305096614
 30
0.0
 10
19.13068331749116
 20
18.40559447487861
 30
0.0
 10
19.13068331749116
 20
18.40559447487861
 30
0.0
 10
19.13068331749116
 20
18.40559447487861
 30
0.0
 10
19.15559295574455
 20
18.36139494822845
 30
0.0
 10
19.1992738990746
 20
18.28411943987344
 30
0.0
 10
19.20790637107659
 20
18.26879078392432
 30
0.0
 10
19.21722323195001
 20
18.25207970101732
 30
0.0
 10
19.22712971741543
 20
18.23416610655256
 30
0.0
 10
19.22971156496474
 20
18.44693650160166
 30
0.0
 10
19.19559138409
 20
18.6444779410064
 30
0.0
 10
19.13161465080073
 20
18.80570796467086
 30
0.0
 10
19.1094602069215
 20
18.86382810207698
 30
0.0
 10
19.08389792979587
 20
18.91677651739282
 30
0.0
 10
19.056959819372
 20
18.96445796062081
 30
0.0
 10
18.95839371077552
 20
18.54667030461279
 30
0.0
 10
18.79411568718882
 20
18.11010781575043
 30
0.0
 10
18.89269638416572
 20
17.77989724084147
 30
0.0
 10
18.7913252150378
 20
17.94191748670799
 30
0.0
 10
18.7059711064346
 20
18.11558645449955
 30
0.0
 10
18.65115955194705
 20
18.29900267204243
 30
0.0
 10
18.63509052457923
 20
18.24870361777011
 30
0.0
 10
18.62213652490971
 20
18.20085284121311
 30
0.0
 10
18.61228344182775
 20
18.15541153681686
 30
0.0
  0
SPLINE
  5
83
330
70
100
AcDbEntity
  8
Layer 1
100
AcDbSpline
210
0.0
220
0.0
230
1.0
 70
     9
 71
     3
 72
    23
 73
    19
 74
     0
 42
0.0000000001
 43
0.0000000001
 40
0.0
 40
0.0
 40
0.0
 40
0.0
 40
1.0
 40
1.0
 40
1.0
 40
2.0
 40
2.0
 40
2.0
 40
3.0
 40
3.0
 40
3.0
 40
4.0
 40
4.0
 40
4.0
 40
5.0
 40
5.0
 40
5.0
 40
6.0
 40
6.0
 40
6.0
 40
6.0
 10
19.0765954299822
 20
19.05168931950646
 30
0.0
 10
19.12687684536605
 20
18.99553415427243
 30
0.0
 10
19.17798376072887
 20
18.9280447174902
 30
0.0
 10
19.22466684287122
 20
18.84839407469296
 30
0.0
 10
19.31642434053029
 20
18.69701360633277
 30
0.0
 10
19.38777364426557
 20
18.50071394467413
 30
0.0
 10
19.42553193958807
 20
18.28512086684103
 30
0.0
 10
19.45473086477957
 20
18.34361847645974
 30
0.0
 10
19.4845652806851
 20
18.39987594724672
 30
0.0
 10
19.51475952991478
 20
18.45351580698936
 30
0.0
 10
19.44685686498045
 20
18.62174141380868
 30
0.0
 10
19.39116736640121
 20
18.77184129886821
 30
0.0
 10
19.34781097861844
 20
18.9038225177233
 30
0.0
 10
19.05520298608349
 20
19.2488850366978
 30
0.0
 10
19.40563831047647
 20
20.14316256943844
 30
0.0
 10
19.91740596408686
 20
20.83786666282617
 30
0.0
 10
19.26042439751452
 20
20.11129666163887
 30
0.0
 10
19.22707631503197
 20
19.74780452396931
 30
0.0
 10
19.0765954299822
 20
19.05168931950646
 30
0.0
  0
SPLINE
  5
84
330
70
100
AcDbEntity
  8
Layer 1
100
AcDbSpline
210
0.0
220
0.0
230
1.0
 70
     9
 71
     3
 72
    29
 73
    25
 74
     0
 42
0.0000000001
 43
0.0000000001
 40
0.0
 40
0.0
 40
0.0
 40
0.0
 40
1.0
 40
1.0
 40
1.0
 40
2.0
 40
2.0
 40
2.0
 40
3.0
 40
3.0
 40
3.0
 40
4.0
 40
4.0
 40
4.0
 40
5.0
 40
5.0
 40
5.0
 40
6.0
 40
6.0
 40
6.0
 40
7.0
 40
7.0
 40
7.0
 40
8.0
 40
8.0
 40
8.0
 40
8.0
 10
19.59878766665993
 20
18.25087672882579
 30
0.0
 10
19.54940230680875
 20
18.09381301061059
 30
0.0
 10
19.50690669678179
 20
17.92328023718347
 30
0.0
 10
19.4754177531407
 20
17.74692663057151
 30
0.0
 10
19.58824313915117
 20
17.50638863670815
 30
0.0
 10
19.70853027285065
 20
17.2190335051503
 30
0.0
 10
19.81203830010835
 20
16.923582123799
 30
0.0
 10
19.81203830010835
 20
16.923582123799
 30
0.0
 10
19.82351063314899
 20
16.89006118020975
 30
0.0
 10
19.82351063314899
 20
16.89006118020975
 30
0.0
 10
19.82351063314899
 20
16.89006118020975
 30
0.0
 10
19.85797702115857
 20
16.89078437463574
 30
0.0
 10
19.85797702115857
 20
16.89078437463574
 30
0.0
 10
19.87062057639156
 20
16.923582123799
 30
0.0
 10
19.88392029827448
 20
16.95648570629289
 30
0.0
 10
19.89795732569415
 20
16.98941751100829
 30
0.0
 10
19.92536463055048
 20
17.05363717603658
 30
0.0
 10
19.95528371312052
 20
17.11802617439388
 30
0.0
 10
19.98739354563469
 20
17.18206945053777
 30
0.0
 10
19.99230068439836
 20
17.42574055119914
 30
0.0
 10
19.90702018657404
 20
17.68088310447864
 30
0.0
 10
19.73152382994022
 20
17.94753416217977
 30
0.0
 10
19.68386355337836
 20
18.05367748385676
 30
0.0
 10
19.63957583228601
 20
18.1547911065724
 30
0.0
 10
19.59878766665993
 20
18.25087672882579
 30
0.0
  0
SPLINE
  5
85
330
70
100
AcDbEntity
  8
Layer 1
100
AcDbSpline
210
0.0
220
0.0
230
1.0
 70
     9
 71
     3
 72
    35
 73
    31
 74
     0
 42
0.0000000001
 43
0.0000000001
 40
0.0
 40
0.0
 40
0.0
 40
0.0
 40
1.0
 40
1.0
 40
1.0
 40
2.0
 40
2.0
 40
2.0
 40
3.0
 40
3.0
 40
3.0
 40
4.0
 40
4.0
 40
4.0
 40
5.0
 40
5.0
 40
5.0
 40
6.0
 40
6.0
 40
6.0
 40
7.0
 40
7.0
 40
7.0
 40
8.0
 40
8.0
 40
8.0
 40
9.0
 40
9.0
 40
9.0
 40
10.0
 40
10.0
 40
10.0
 40
10.0
 10
21.3893923709778
 20
18.09105781623644
 30
0.0
 10
21.39163305020766
 20
17.89520265456645
 30
0.0
 10
21.40145031511462
 20
17.69125477088071
 30
0.0
 10
21.41857062023341
 20
17.48864744271632
 30
0.0
 10
21.43758886974821
 20
17.28972664223565
 30
0.0
 10
21.46363499463408
 20
17.09225575838467
 30
0.0
 10
21.49526097938798
 20
16.90459915206108
 30
0.0
 10
21.49526097938798
 20
16.90459915206108
 30
0.0
 10
21.63306303142791
 20
16.90391166244066
 30
0.0
 10
21.63306303142791
 20
16.90391166244066
 30
0.0
 10
21.63550832792449
 20
16.93319531799819
 30
0.0
 10
21.63819594796363
 20
16.96261698391425
 30
0.0
 10
21.64105697566842
 20
16.9921766624186
 30
0.0
 10
21.66851366941238
 20
17.28029027345767
 30
0.0
 10
21.71302364049906
 20
17.58028852371169
 30
0.0
 10
21.75374477834907
 20
17.87728859946792
 30
0.0
 10
21.77600152778125
 20
18.03910423422855
 30
0.0
 10
21.79670605503081
 20
18.20026723011694
 30
0.0
 10
21.81306788794672
 20
18.35822347608714
 30
0.0
 10
21.74640700075849
 20
18.39984066946984
 30
0.0
 10
21.69014952997152
 20
18.44328525169481
 30
0.0
 10
21.64429547558579
 20
18.4885541620445
 30
0.0
 10
21.67402405816069
 20
18.37579533674995
 30
0.0
 10
21.70995800168838
 20
18.28690945012873
 30
0.0
 10
21.7520902506135
 20
18.22197011845214
 30
0.0
 10
21.66875355829515
 20
18.2730946727034
 30
0.0
 10
21.59764767122032
 20
18.32353131030554
 30
0.0
 10
21.53866675605839
 20
18.37328003125857
 30
0.0
 10
21.48209884083489
 20
18.28043245029398
 30
0.0
 10
21.43324617541455
 20
18.187521369331
 30
0.0
 10
21.3893923709778
 20
18.09105781623644
 30
0.0
  0
SPLINE
  5
86
330
70
100
AcDbEntity
  8
Layer 1
100
AcDbSpline
210
0.0
220
0.0
230
1.0
 70
     9
 71
     3
 72
    14
 73
    10
 74
     0
 42
0.0000000001
 43
0.0000000001
 40
0.0
 40
0.0
 40
0.0
 40
0.0
 40
1.0
 40
1.0
 40
1.0
 40
2.0
 40
2.0
 40
2.0
 40
3.0
 40
3.0
 40
3.0
 40
3.0
 10
21.83029402639613
 20
18.5450510546541
 30
0.0
 10
21.83311977632404
 20
18.57998663709616
 30
0.0
 10
21.83559980403855
 20
18.61474583065382
 30
0.0
 10
21.83780466509341
 20
18.64926513532872
 30
0.0
 10
21.82988127640666
 20
18.66680171821466
 30
0.0
 10
21.8230585543585
 20
18.68316707890825
 30
0.0
 10
21.81730827672742
 20
18.69794493964235
 30
0.0
 10
21.8200281933247
 20
18.64247769105744
 30
0.0
 10
21.82433560988148
 20
18.59152599791288
 30
0.0
 10
21.83029402639613
 20
18.5450510546541
 30
0.0
  0
SPLINE
  5
87
330
70
100
AcDbEntity
  8
Layer 1
100
AcDbSpline
210
0.0
220
0.0
230
1.0
 70
     9
 71
     3
 72
    32
 73
    28
 74
     0
 42
0.0000000001
 43
0.0000000001
 40
0.0
 40
0.0
 40
0.0
 40
0.0
 40
1.0
 40
1.0
 40
1.0
 40
2.0
 40
2.0
 40
2.0
 40
3.0
 40
3.0
 40
3.0
 40
4.0
 40
4.0
 40
4.0
 40
5.0
 40
5.0
 40
5.0
 40
6.0
 40
6.0
 40
6.0
 40
7.0
 40
7.0
 40
7.0
 40
8.0
 40
8.0
 40
8.0
 40
9.0
 40
9.0
 40
9.0
 40
9.0
 10
22.07672340899808
 20
18.31688497714177
 30
0.0
 10
22.08137301999057
 20
18.1645767032497
 30
0.0
 10
22.08261479773667
 20
18.01009884607965
 30
0.0
 10
22.08268182551273
 20
17.85654879444148
 30
0.0
 10
22.08281940884256
 20
17.55417238548908
 30
0.0
 10
22.07992663113858
 20
17.25500272645487
 30
0.0
 10
22.09160710306282
 20
16.98011828902331
 30
0.0
 10
22.09267305003238
 20
16.95296851193818
 30
0.0
 10
22.09391426967062
 20
16.92613270706727
 30
0.0
 10
22.09532538074573
 20
16.89950194021954
 30
0.0
 10
22.09532538074573
 20
16.89950194021954
 30
0.0
 10
22.09684232515147
 20
16.89946666244183
 30
0.0
 10
22.09684232515147
 20
16.89946666244183
 30
0.0
 10
22.11861576904043
 20
16.94394445661285
 30
0.0
 10
22.14114471668692
 20
16.98638714997449
 30
0.0
 10
22.1643992678724
 20
17.02686839894173
 30
0.0
 10
22.1643992678724
 20
17.02686839894173
 30
0.0
 10
22.16278001791371
 20
17.06100670362634
 30
0.0
 10
22.16278001791371
 20
17.06100670362634
 30
0.0
 10
22.15234132373558
 20
17.35435905725341
 30
0.0
 10
22.15485662922696
 20
17.66669085484072
 30
0.0
 10
22.17039296216393
 20
17.97733637469327
 30
0.0
 10
22.17580457313698
 20
18.06573542799357
 30
0.0
 10
22.18224629519486
 20
18.15396514796487
 30
0.0
 10
22.18968693889701
 20
18.24157443988407
 30
0.0
 10
22.14886293493543
 20
18.26179520076945
 30
0.0
 10
22.11117215811922
 20
18.28756561677866
 30
0.0
 10
22.07672340899808
 20
18.31688497714177
 30
0.0
  0
SPLINE
  5
88
330
70
100
AcDbEntity
  8
Layer 1
100
AcDbSpline
210
0.0
220
0.0
230
1.0
 70
     9
 71
     3
 72
    17
 73
    13
 74
     0
 42
0.0000000001
 43
0.0000000001
 40
0.0
 40
0.0
 40
0.0
 40
0.0
 40
1.0
 40
1.0
 40
1.0
 40
2.0
 40
2.0
 40
2.0
 40
3.0
 40
3.0
 40
3.0
 40
4.0
 40
4.0
 40
4.0
 40
4.0
 10
22.19785318368558
 20
18.33304219895179
 30
0.0
 10
22.21545679434759
 20
18.52186649969004
 30
0.0
 10
22.23757243267226
 20
18.70707482829831
 30
0.0
 10
22.26365329311799
 20
18.88404932378332
 30
0.0
 10
22.26365329311799
 20
18.88404932378332
 30
0.0
 10
22.27826182052308
 20
18.97427576592589
 30
0.0
 10
22.27826182052308
 20
18.97427576592589
 30
0.0
 10
22.19471698932115
 20
19.03167270890602
 30
0.0
 10
22.1234735189165
 20
19.09385684620846
 30
0.0
 10
22.06455963153063
 20
19.16093048338616
 30
0.0
 10
22.06841902032106
 20
18.90037940670003
 30
0.0
 10
22.10414482496517
 20
18.62246460823468
 30
0.0
 10
22.19785318368558
 20
18.33304219895179
 30
0.0
  0
SPLINE
  5
89
330
70
100
AcDbEntity
  8
Layer 1
100
AcDbSpline
210
0.0
220
0.0
230
1.0
 70
     9
 71
     3
 72
    14
 73
    10
 74
     0
 42
0.0000000001
 43
0.0000000001
 40
0.0
 40
0.0
 40
0.0
 40
0.0
 40
1.0
 40
1.0
 40
1.0
 40
2.0
 40
2.0
 40
2.0
 40
3.0
 40
3.0
 40
3.0
 40
3.0
 10
22.29269395904377
 20
19.0605087637259
 30
0.0
 10
22.30640643091616
 20
19.14077628945589
 30
0.0
 10
22.32046462500195
 20
19.21898055075084
 30
0.0
 10
22.3349673190764
 20
19.2946015077537
 30
0.0
 10
22.28625223698589
 20
19.32433361810629
 30
0.0
 10
22.24701332777157
 20
19.36233131158133
 30
0.0
 10
22.21538623879383
 20
19.40291486610151
 30
0.0
 10
22.23850376598183
 20
19.26710953623286
 30
0.0
 10
22.26427418199104
 20
19.15297181692253
 30
0.0
 10
22.29269395904377
 20
19.0605087637259
 30
0.0
  0
SPLINE
  5
8A
330
70
100
AcDbEntity
  8
Layer 1
100
AcDbSpline
210
0.0
220
0.0
230
1.0
 70
     9
 71
     3
 72
   146
 73
   142
 74
     0
 42
0.0000000001
 43
0.0000000001
 40
0.0
 40
0.0
 40
0.0
 40
0.0
 40
1.0
 40
1.0
 40
1.0
 40
2.0
 40
2.0
 40
2.0
 40
3.0
 40
3.0
 40
3.0
 40
4.0
 40
4.0
 40
4.0
 40
5.0
 40
5.0
 40
5.0
 40
6.0
 40
6.0
 40
6.0
 40
7.0
 40
7.0
 40
7.0
 40
8.0
 40
8.0
 40
8.0
 40
9.0
 40
9.0
 40
9.0
 40
10.0
 40
10.0
 40
10.0
 40
11.0
 40
11.0
 40
11.0
 40
12.0
 40
12.0
 40
12.0
 40
13.0
 40
13.0
 40
13.0
 40
14.0
 40
14.0
 40
14.0
 40
15.0
 40
15.0
 40
15.0
 40
16.0
 40
16.0
 40
16.0
 40
17.0
 40
17.0
 40
17.0
 40
18.0
 40
18.0
 40
18.0
 40
19.0
 40
19.0
 40
19.0
 40
20.0
 40
20.0
 40
20.0
 40
21.0
 40
21.0
 40
21.0
 40
22.0
 40
22.0
 40
22.0
 40
23.0
 40
23.0
 40
23.0
 40
24.0
 40
24.0
 40
24.0
 40
25.0
 40
25.0
 40
25.0
 40
26.0
 40
26.0
 40
26.0
 40
27.0
 40
27.0
 40
27.0
 40
28.0
 40
28.0
 40
28.0
 40
29.0
 40
29.0
 40
29.0
 40
30.0
 40
30.0
 40
30.0
 40
31.0
 40
31.0
 40
31.0
 40
32.0
 40
32.0
 40
32.0
 40
33.0
 40
33.0
 40
33.0
 40
34.0
 40
34.0
 40
34.0
 40
35.0
 40
35.0
 40
35.0
 40
36.0
 40
36.0
 40
36.0
 40
37.0
 40
37.0
 40
37.0
 40
38.0
 40
38.0
 40
38.0
 40
39.0
 40
39.0
 40
39.0
 40
40.0
 40
40.0
 40
40.0
 40
41.0
 40
41.0
 40
41.0
 40
42.0
 40
42.0
 40
42.0
 40
43.0
 40
43.0
 40
43.0
 40
44.0
 40
44.0
 40
44.0
 40
45.0
 40
45.0
 40
45.0
 40
46.0
 40
46.0
 40
46.0
 40
47.0
 40
47.0
 40
47.0
 40
47.0
 10
22.3621841239376
 20
19.43109475427147
 30
0.0
 10
22.37889167906691
 20
19.51164097443879
 30
0.0
 10
22.3961530952932
 20
19.58850066692238
 30
0.0
 10
22.41403187261485
 20
19.66115877617983
 30
0.0
 10
22.43928370530396
 20
19.77391713441423
 30
0.0
 10
22.46612360549455
 20
19.87644493735409
 30
0.0
 10
22.49130431508791
 20
19.9667736850496
 30
0.0
 10
22.51524734225485
 20
20.05748343273541
 30
0.0
 10
22.53691848059086
 20
20.13620277274376
 30
0.0
 10
22.55752070228748
 20
20.20031609575811
 30
0.0
 10
22.59672489573174
 20
20.32895650914289
 30
0.0
 10
22.61908395071687
 20
20.4024048406024
 30
0.0
 10
22.61908395071687
 20
20.4024048406024
 30
0.0
 10
22.61908395071687
 20
20.4024048406024
 30
0.0
 10
22.60678611769728
 20
20.32682220364178
 30
0.0
 10
22.58518610546478
 20
20.19453054035016
 30
0.0
 10
22.57346978521391
 20
20.12862459758711
 30
0.0
 10
22.56255131327025
 20
20.04804360609907
 30
0.0
 10
22.55104370245272
 20
19.95564707422236
 30
0.0
 10
22.53829784166678
 20
19.86349093768457
 30
0.0
 10
22.52554845310316
 20
19.7593791625629
 30
0.0
 10
22.51576592557495
 20
19.64538305064422
 30
0.0
 10
22.49264839838695
 20
19.4310277264954
 30
0.0
 10
22.47976495427119
 20
19.182016010626
 30
0.0
 10
22.47276937111633
 20
18.91615915629746
 30
0.0
 10
22.55762300784042
 20
18.86162324102212
 30
0.0
 10
22.65711749433571
 20
18.7802127153213
 30
0.0
 10
22.7495835029431
 20
18.66590566268196
 30
0.0
 10
22.78310444653236
 20
18.62573485815125
 30
0.0
 10
22.8152142790465
 20
18.58136247039439
 30
0.0
 10
22.84570133382427
 20
18.53347641606051
 30
0.0
 10
22.90327113791109
 20
18.70245696730501
 30
0.0
 10
22.95287874775661
 20
18.86275918543758
 30
0.0
 10
22.99435835780949
 20
19.0144465704566
 30
0.0
 10
23.06470577268144
 20
19.74680666172998
 30
0.0
 10
22.8500793059348
 20
20.21661090089795
 30
0.0
 10
22.45320431605992
 20
20.73196277663912
 30
0.0
 10
22.41775367807545
 20
22.43688834425399
 30
0.0
 10
23.00114638313861
 20
23.21255493557616
 30
0.0
 10
22.94567855349586
 20
24.48823815303077
 30
0.0
 10
23.15496749260089
 20
25.19510249610827
 30
0.0
 10
23.24216416085614
 20
25.84707109058628
 30
0.0
 10
23.20719624126843
 20
26.44420743646317
 30
0.0
 10
23.28532946149731
 20
26.44365777116686
 30
0.0
 10
23.34916812653531
 20
26.40805124294118
 30
0.0
 10
23.39867343082788
 20
26.33741102252111
 30
0.0
 10
23.33872943235718
 20
26.64100804255348
 30
0.0
 10
23.21625557437064
 20
26.92738245191413
 30
0.0
 10
23.03129066242282
 20
27.19647780616004
 30
0.0
 10
22.94392172020734
 20
27.39214246783489
 30
0.0
 10
22.90426949899673
 20
27.57685337978919
 30
0.0
 10
22.91229519323643
 20
27.7505364586915
 30
0.0
 10
22.98505560804682
 20
27.73756482013354
 30
0.0
 10
23.03160110685935
 20
27.7145178484993
 30
0.0
 10
23.05189288411944
 20
27.68149784934171
 30
0.0
 10
22.98467813583423
 20
27.85438717826427
 30
0.0
 10
22.89500202701095
 20
28.00616275772548
 30
0.0
 10
22.78296686320253
 20
28.13681753216998
 30
0.0
 10
22.8968611658524
 20
28.13053103233036
 30
0.0
 10
23.02967141246413
 20
28.12205378254664
 30
0.0
 10
23.18139407526003
 20
28.11141047726261
 30
0.0
 10
22.84773333377243
 20
28.29339794484195
 30
0.0
 10
22.61488236749073
 20
28.6509135190543
 30
0.0
 10
22.48289762085794
 20
29.18397131101042
 30
0.0
 10
22.61398631195803
 20
29.14666153418449
 30
0.0
 10
22.67951125473079
 20
29.12804192354841
 30
0.0
 10
22.67951125473079
 20
29.12804192354841
 30
0.0
 10
22.45055142723872
 20
29.33460741827848
 30
0.0
 10
22.50756737022856
 20
29.77094765714651
 30
0.0
 10
22.01429585503519
 20
29.99858104022799
 30
0.0
 10
22.23857432153559
 20
29.98059995735339
 30
0.0
 10
22.68647156010878
 20
29.65398418790828
 30
0.0
 10
22.74162483647948
 20
29.60079235593198
 30
0.0
 10
23.18873185285061
 20
29.28660141950325
 30
0.0
 10
23.53020721633965
 20
29.10189050754892
 30
0.0
 10
23.7661267547867
 20
29.04673723117822
 30
0.0
 10
23.41886290253503
 20
29.24050394845707
 30
0.0
 10
23.13498615977733
 20
29.58630804815899
 30
0.0
 10
23.10277402171024
 20
29.72464557499444
 30
0.0
 10
23.42254943021876
 20
29.73787474132361
 30
0.0
 10
23.74780054961858
 20
29.53948663527383
 30
0.0
 10
23.89029041828569
 20
29.48894769211871
 30
0.0
 10
24.58172073397916
 20
29.04957709221688
 30
0.0
 10
25.00946377862209
 20
28.80051598745984
 30
0.0
 10
25.17355482999133
 20
28.74172557229305
 30
0.0
 10
24.57834527163321
 20
29.15062322852786
 30
0.0
 10
24.19028971617468
 20
29.4132768607159
 30
0.0
 10
24.00935291524815
 20
29.52961944108109
 30
0.0
 10
24.17089338334913
 20
29.59664443704528
 30
0.0
 10
24.56256490113454
 20
29.57975974535746
 30
0.0
 10
24.62378595512821
 20
29.5651723846185
 30
0.0
 10
24.4812961049908
 20
29.64480491036468
 30
0.0
 10
24.12252402347203
 20
29.65667235450636
 30
0.0
 10
23.6755898682076
 20
29.72331913058384
 30
0.0
 10
22.47342610549273
 20
29.90256551489978
 30
0.0
 10
22.34065056893141
 20
30.25579131144379
 30
0.0
 10
22.032590910124
 20
30.55799485928949
 30
0.0
 10
21.95197413440292
 20
30.21868967350144
 30
0.0
 10
21.76890363907344
 20
29.64602904922234
 30
0.0
 10
21.62872386487195
 20
29.49053166430052
 30
0.0
 10
22.05612118730147
 20
29.2807770585407
 30
0.0
 10
22.26261965425547
 20
28.78663138169222
 30
0.0
 10
22.23974610555116
 20
28.65020443573905
 30
0.0
 10
21.98005171701994
 20
28.25433133472751
 30
0.0
 10
21.61411533746687
 20
28.14356969866438
 30
0.0
 10
21.06503437925287
 20
28.00981471521978
 30
0.0
 10
21.50814442350374
 20
27.36942357952561
 30
0.0
 10
21.47823999463045
 20
25.56536393110656
 30
0.0
 10
21.43758886974821
 20
24.90907443821717
 30
0.0
 10
21.56529794982341
 20
25.63259631828021
 30
0.0
 10
21.58941383809705
 20
26.36118118858135
 30
0.0
 10
21.51003884012208
 20
27.09485027100405
 30
0.0
 10
21.90836021884894
 20
25.63900276256121
 30
0.0
 10
22.07317446464418
 20
24.50816656918902
 30
0.0
 10
22.00458443894331
 20
23.70229221629665
 30
0.0
 10
22.13039854651761
 20
25.02336322271192
 30
0.0
 10
22.12419671334249
 20
25.98477083707326
 30
0.0
 10
21.98604893908916
 20
26.58652504394346
 30
0.0
 10
22.19657612816261
 20
26.07270422371879
 30
0.0
 10
22.27936304998569
 20
25.67281651169855
 30
0.0
 10
22.23443976608551
 20
25.38687249121581
 30
0.0
 10
22.46174506584203
 20
25.77878742566167
 30
0.0
 10
22.57905072951598
 20
26.19898455383044
 30
0.0
 10
22.58628620155361
 20
26.64752032016512
 30
0.0
 10
22.62786811715943
 20
26.06025116848094
 30
0.0
 10
22.60030911786252
 20
25.64344776244781
 30
0.0
 10
22.50349984255455
 20
25.39703666031741
 30
0.0
 10
22.66138906074869
 20
25.5401297373059
 30
0.0
 10
22.76143683597403
 20
25.68246145589693
 30
0.0
 10
22.80360436267603
 20
25.82403888243289
 30
0.0
 10
22.73352916098331
 20
24.58342527163192
 30
0.0
 10
22.61970483958992
 20
23.71248749407188
 30
0.0
 10
22.46209078805543
 20
23.21126082753053
 30
0.0
 10
22.6403740890626
 20
23.60338331449419
 30
0.0
 10
22.78689327976903
 20
23.98127533263114
 30
0.0
 10
22.90182122128141
 20
24.34493982335328
 30
0.0
 10
22.7662945858501
 20
22.46710376014979
 30
0.0
 10
22.25266426562057
 20
22.90666486004674
 30
0.0
 10
22.37803090131109
 20
20.64934927874677
 30
0.0
 10
22.21690318319958
 20
20.29732998217197
 30
0.0
 10
22.28084471665203
 20
19.81474057781718
 30
0.0
 10
22.3621841239376
 20
19.43109475427147
 30
0.0
  0
SPLINE
  5
8B
330
70
100
AcDbEntity
  8
Layer 1
100
AcDbSpline
210
0.0
220
0.0
230
1.0
 70
     9
 71
     3
 72
    17
 73
    13
 74
     0
 42
0.0000000001
 43
0.0000000001
 40
0.0
 40
0.0
 40
0.0
 40
0.0
 40
1.0
 40
1.0
 40
1.0
 40
2.0
 40
2.0
 40
2.0
 40
3.0
 40
3.0
 40
3.0
 40
4.0
 40
4.0
 40
4.0
 40
4.0
 10
23.80433611492301
 20
18.35085042071969
 30
0.0
 10
23.87964358522398
 20
18.28739275567196
 30
0.0
 10
23.95753691657009
 20
18.21945527322292
 30
0.0
 10
24.03673905343837
 20
18.14776331478976
 30
0.0
 10
24.03760335897187
 20
18.17628892517312
 30
0.0
 10
24.03801610896134
 20
18.20457464667371
 30
0.0
 10
24.03794555340758
 20
18.23268443988628
 30
0.0
 10
24.03901447004698
 20
18.44604044606897
 30
0.0
 10
24.01086693844171
 20
18.64513057987864
 30
0.0
 10
23.96346358308555
 20
18.81263299227197
 30
0.0
 10
23.90572444566971
 20
18.65918877396443
 30
0.0
 10
23.85267019702324
 20
18.50529652789055
 30
0.0
 10
23.80433611492301
 20
18.35085042071969
 30
0.0
  0
SPLINE
  5
8C
330
70
100
AcDbEntity
  8
Layer 1
100
AcDbSpline
210
0.0
220
0.0
230
1.0
 70
     9
 71
     3
 72
   323
 73
   319
 74
     0
 42
0.0000000001
 43
0.0000000001
 40
0.0
 40
0.0
 40
0.0
 40
0.0
 40
1.0
 40
1.0
 40
1.0
 40
2.0
 40
2.0
 40
2.0
 40
3.0
 40
3.0
 40
3.0
 40
4.0
 40
4.0
 40
4.0
 40
5.0
 40
5.0
 40
5.0
 40
6.0
 40
6.0
 40
6.0
 40
7.0
 40
7.0
 40
7.0
 40
8.0
 40
8.0
 40
8.0
 40
9.0
 40
9.0
 40
9.0
 40
10.0
 40
10.0
 40
10.0
 40
11.0
 40
11.0
 40
11.0
 40
12.0
 40
12.0
 40
12.0
 40
13.0
 40
13.0
 40
13.0
 40
14.0
 40
14.0
 40
14.0
 40
15.0
 40
15.0
 40
15.0
 40
16.0
 40
16.0
 40
16.0
 40
17.0
 40
17.0
 40
17.0
 40
18.0
 40
18.0
 40
18.0
 40
19.0
 40
19.0
 40
19.0
 40
20.0
 40
20.0
 40
20.0
 40
21.0
 40
21.0
 40
21.0
 40
22.0
 40
22.0
 40
22.0
 40
23.0
 40
23.0
 40
23.0
 40
24.0
 40
24.0
 40
24.0
 40
25.0
 40
25.0
 40
25.0
 40
26.0
 40
26.0
 40
26.0
 40
27.0
 40
27.0
 40
27.0
 40
28.0
 40
28.0
 40
28.0
 40
29.0
 40
29.0
 40
29.0
 40
30.0
 40
30.0
 40
30.0
 40
31.0
 40
31.0
 40
31.0
 40
32.0
 40
32.0
 40
32.0
 40
33.0
 40
33.0
 40
33.0
 40
34.0
 40
34.0
 40
34.0
 40
35.0
 40
35.0
 40
35.0
 40
36.0
 40
36.0
 40
36.0
 40
37.0
 40
37.0
 40
37.0
 40
38.0
 40
38.0
 40
38.0
 40
39.0
 40
39.0
 40
39.0
 40
40.0
 40
40.0
 40
40.0
 40
41.0
 40
41.0
 40
41.0
 40
42.0
 40
42.0
 40
42.0
 40
43.0
 40
43.0
 40
43.0
 40
44.0
 40
44.0
 40
44.0
 40
45.0
 40
45.0
 40
45.0
 40
46.0
 40
46.0
 40
46.0
 40
47.0
 40
47.0
 40
47.0
 40
48.0
 40
48.0
 40
48.0
 40
49.0
 40
49.0
 40
49.0
 40
50.0
 40
50.0
 40
50.0
 40
51.0
 40
51.0
 40
51.0
 40
52.0
 40
52.0
 40
52.0
 40
53.0
 40
53.0
 40
53.0
 40
54.0
 40
54.0
 40
54.0
 40
55.0
 40
55.0
 40
55.0
 40
56.0
 40
56.0
 40
56.0
 40
57.0
 40
57.0
 40
57.0
 40
58.0
 40
58.0
 40
58.0
 40
59.0
 40
59.0
 40
59.0
 40
60.0
 40
60.0
 40
60.0
 40
61.0
 40
61.0
 40
61.0
 40
62.0
 40
62.0
 40
62.0
 40
63.0
 40
63.0
 40
63.0
 40
64.0
 40
64.0
 40
64.0
 40
65.0
 40
65.0
 40
65.0
 40
66.0
 40
66.0
 40
66.0
 40
67.0
 40
67.0
 40
67.0
 40
68.0
 40
68.0
 40
68.0
 40
69.0
 40
69.0
 40
69.0
 40
70.0
 40
70.0
 40
70.0
 40
71.0
 40
71.0
 40
71.0
 40
72.0
 40
72.0
 40
72.0
 40
73.0
 40
73.0
 40
73.0
 40
74.0
 40
74.0
 40
74.0
 40
75.0
 40
75.0
 40
75.0
 40
76.0
 40
76.0
 40
76.0
 40
77.0
 40
77.0
 40
77.0
 40
78.0
 40
78.0
 40
78.0
 40
79.0
 40
79.0
 40
79.0
 40
80.0
 40
80.0
 40
80.0
 40
81.0
 40
81.0
 40
81.0
 40
82.0
 40
82.0
 40
82.0
 40
83.0
 40
83.0
 40
83.0
 40
84.0
 40
84.0
 40
84.0
 40
85.0
 40
85.0
 40
85.0
 40
86.0
 40
86.0
 40
86.0
 40
87.0
 40
87.0
 40
87.0
 40
88.0
 40
88.0
 40
88.0
 40
89.0
 40
89.0
 40
89.0
 40
90.0
 40
90.0
 40
90.0
 40
91.0
 40
91.0
 40
91.0
 40
92.0
 40
92.0
 40
92.0
 40
93.0
 40
93.0
 40
93.0
 40
94.0
 40
94.0
 40
94.0
 40
95.0
 40
95.0
 40
95.0
 40
96.0
 40
96.0
 40
96.0
 40
97.0
 40
97.0
 40
97.0
 40
98.0
 40
98.0
 40
98.0
 40
99.0
 40
99.0
 40
99.0
 40
100.0
 40
100.0
 40
100.0
 40
101.0
 40
101.0
 40
101.0
 40
102.0
 40
102.0
 40
102.0
 40
103.0
 40
103.0
 40
103.0
 40
104.0
 40
104.0
 40
104.0
 40
105.0
 40
105.0
 40
105.0
 40
106.0
 40
106.0
 40
106.0
 40
106.0
 10
24.01421066512422
 20
18.94413138415284
 30
0.0
 10
24.02781730366598
 20
18.91967282287449
 30
0.0
 10
24.04121933110184
 20
18.89407526797198
 30
0.0
 10
24.05420860854823
 20
18.86734176865401
 30
0.0
 10
24.13757705086577
 20
18.69711943966341
 30
0.0
 10
24.20716952131254
 20
18.48369594510829
 30
0.0
 10
24.24578810366063
 20
18.24973725663263
 30
0.0
 10
24.26442535318516
 20
18.14132159273188
 30
0.0
 10
24.27713946397191
 20
18.02880312338024
 30
0.0
 10
24.28509813043553
 20
17.91425618185813
 30
0.0
 10
24.32323340724039
 20
17.87701388441963
 30
0.0
 10
24.36130165626919
 20
17.8390827671093
 30
0.0
 10
24.39926759974504
 20
17.80046418476121
 30
0.0
 10
24.48429471610114
 20
18.1206523432592
 30
0.0
 10
24.57376206751554
 20
18.41792805095109
 30
0.0
 10
24.64076867691717
 20
18.66122077391259
 30
0.0
 10
24.73816356332131
 20
19.00466051515071
 30
0.0
 10
24.80313817277478
 20
19.23369138408047
 30
0.0
 10
24.80313817277478
 20
19.23369138408047
 30
0.0
 10
24.80313817277478
 20
19.23369138408047
 30
0.0
 10
24.77871184006462
 20
18.99739329311389
 30
0.0
 10
24.74205470211093
 20
18.64303155215441
 30
0.0
 10
24.73895378552337
 20
18.61050943979179
 30
0.0
 10
24.73561360492719
 20
18.57698802606155
 30
0.0
 10
24.73206403569915
 20
18.54253574916272
 30
0.0
 10
24.73678420224539
 20
18.56734308186316
 30
0.0
 10
24.74181481322816
 20
18.59007960906089
 30
0.0
 10
24.74694772976388
 20
18.61054471756957
 30
0.0
 10
24.75580245176019
 20
18.655329385174
 30
0.0
 10
24.76882347920578
 20
18.68919605097666
 30
0.0
 10
24.77547334014724
 20
18.71255346704743
 30
0.0
 10
24.78274056218406
 20
18.7357380220115
 30
0.0
 10
24.78656467319761
 20
18.74810641058484
 30
0.0
 10
24.78656467319761
 20
18.74810641058484
 30
0.0
 10
24.78656467319761
 20
18.74810641058484
 30
0.0
 10
24.78525586767544
 20
18.73521943869139
 30
0.0
 10
24.78274056218406
 20
18.71110707819544
 30
0.0
 10
24.78084614556572
 20
18.68685360659197
 30
0.0
 10
24.77485245127419
 20
18.65205560747975
 30
0.0
 10
24.77502531238089
 20
18.60692474752002
 30
0.0
 10
24.77085610491837
 20
18.51752733313407
 30
0.0
 10
24.77653872900895
 20
18.38947253084547
 30
0.0
 10
24.80989033926919
 20
18.24174684016982
 30
0.0
 10
24.84289332712263
 20
18.09405289949336
 30
0.0
 10
24.90132328138098
 20
17.9274853481873
 30
0.0
 10
24.98403971597624
 20
17.75740060252652
 30
0.0
 10
25.00780925088652
 20
17.70837507599949
 30
0.0
 10
25.03333625023528
 20
17.65907791059049
 30
0.0
 10
25.06038082706822
 20
17.6095024955976
 30
0.0
 10
25.13397027149431
 20
17.72043302013631
 30
0.0
 10
25.21127735680673
 20
17.82723296185606
 30
0.0
 10
25.28913541037596
 20
17.92913634814517
 30
0.0
 10
25.2790777161881
 20
18.00930555105322
 30
0.0
 10
25.27111904972449
 20
18.0854415941575
 30
0.0
 10
25.26429632767632
 20
18.15630805101646
 30
0.0
 10
25.24803680031336
 20
18.33331736561144
 30
0.0
 10
25.23914680054016
 20
18.4804891951901
 30
0.0
 10
25.23322366180238
 20
18.58342974811943
 30
0.0
 10
25.22743457861674
 20
18.68640557882563
 30
0.0
 10
25.22416080092249
 20
18.74524538288006
 30
0.0
 10
25.22416080092249
 20
18.74524538288006
 30
0.0
 10
25.22416080092249
 20
18.74524538288006
 30
0.0
 10
25.2376651339113
 20
18.68778141212386
 30
0.0
 10
25.26123068886565
 20
18.58732441468673
 30
0.0
 10
25.28503613270276
 20
18.48693444502567
 30
0.0
 10
25.31938257627095
 20
18.34351264312911
 30
0.0
 10
25.36575521397678
 20
18.17367131412879
 30
0.0
 10
25.37540015817516
 20
18.13880628724049
 30
0.0
 10
25.38549665791758
 20
18.10284059371361
 30
0.0
 10
25.39624579653223
 20
18.06597531687635
 30
0.0
 10
25.44316523977967
 20
18.12454348204881
 30
0.0
 10
25.48991534969808
 20
18.1812847176769
 30
0.0
 10
25.53563182075398
 20
18.23599303476105
 30
0.0
 10
25.53563182075398
 20
18.23599303476105
 30
0.0
 10
25.50066448831274
 20
18.27289006159751
 30
0.0
 10
25.50066448831274
 20
18.27289006159751
 30
0.0
 10
25.50066448831274
 20
18.27289006159751
 30
0.0
 10
25.54241926502526
 20
18.24398345122387
 30
0.0
 10
25.54241926502526
 20
18.24398345122387
 30
0.0
 10
25.57773231967991
 20
18.28604867237292
 30
0.0
 10
25.61238920768462
 20
18.32684082875163
 30
0.0
 10
25.6462205957104
 20
18.36628444810371
 30
0.0
 10
25.57625065305104
 20
18.53602699932877
 30
0.0
 10
25.50331737713394
 20
18.69932430071827
 30
0.0
 10
25.42084146257141
 20
18.84990749132101
 30
0.0
 10
25.28779132707692
 20
19.09588884615662
 30
0.0
 10
25.12697405340193
 20
19.30593625746453
 30
0.0
 10
24.950173049318
 20
19.44732253163524
 30
0.0
 10
24.90738400344858
 20
19.48435714180152
 30
0.0
 10
24.86180511572251
 20
19.51381408549446
 30
0.0
 10
24.81898495014827
 20
19.54340508473953
 30
0.0
 10
24.77464431239061
 20
19.56972583406803
 30
0.0
 10
24.7314431468261
 20
19.59570438896082
 30
0.0
 10
24.69044684231644
 20
19.61599263844322
 30
0.0
 10
24.60752289998757
 20
19.65523563744205
 30
0.0
 10
24.52687499386828
 20
19.67432091473292
 30
0.0
 10
24.4603510704089
 20
19.67504410915891
 30
0.0
 10
24.39354907211316
 20
19.67635291468108
 30
0.0
 10
24.34166666058125
 20
19.6588868873489
 30
0.0
 10
24.31090029644393
 20
19.6402143600475
 30
0.0
 10
24.27965476946329
 20
19.62171469385279
 30
0.0
 10
24.26714879756012
 20
19.60603724980831
 30
0.0
 10
24.26642560313413
 20
19.60693330534101
 30
0.0
 10
24.26732165866682
 20
19.60610780536207
 30
0.0
 10
24.27737935285467
 20
19.62316108270478
 30
0.0
 10
24.30669871321779
 20
19.64610574878608
 30
0.0
 10
24.33553476803767
 20
19.6691879981972
 30
0.0
 10
24.38741779449181
 20
19.69475027532283
 30
0.0
 10
24.45886940378003
 20
19.70243024734912
 30
0.0
 10
24.53011287418468
 20
19.71063233047321
 30
0.0
 10
24.61844489970892
 20
19.70132958071054
 30
0.0
 10
24.71339150839774
 20
19.67049680371937
 30
0.0
 10
24.76072722941233
 20
19.6542690263556
 30
0.0
 10
24.8079253670971
 20
19.6334944395361
 30
0.0
 10
24.85884531024246
 20
19.6114458284305
 30
0.0
 10
24.90783203121493
 20
19.58633108364439
 30
0.0
 10
24.96054471598208
 20
19.56097694540234
 30
0.0
 10
25.01115005635684
 20
19.52762886291979
 30
0.0
 10
25.21961349548294
 20
19.40133138403858
 30
0.0
 10
25.42315215695691
 20
19.19734773245707
 30
0.0
 10
25.59829926359964
 20
18.95601598861396
 30
0.0
 10
25.67867262266026
 20
18.84670426918051
 30
0.0
 10
25.75394834296204
 20
18.72994893882585
 30
0.0
 10
25.82619370223002
 20
18.60992335855463
 30
0.0
 10
25.82619370223002
 20
18.60992335855463
 30
0.0
 10
25.82543523002714
 20
18.61622749728269
 30
0.0
 10
25.82543523002714
 20
18.61622749728269
 30
0.0
 10
25.8061418138527
 20
18.77656193975029
 30
0.0
 10
25.77716817570298
 20
18.90830279538678
 30
0.0
 10
25.74953862085232
 20
18.99911484862553
 30
0.0
 10
25.73568856565011
 20
19.04445384746884
 30
0.0
 10
25.72370117706704
 20
19.08000679100625
 30
0.0
 10
25.7141585384216
 20
19.10374167928961
 30
0.0
 10
25.70502864976564
 20
19.12771998423343
 30
0.0
 10
25.70017089988957
 20
19.14046937279705
 30
0.0
 10
25.70017089988957
 20
19.14046937279705
 30
0.0
 10
25.70017089988957
 20
19.14046937279705
 30
0.0
 10
25.70733581637345
 20
19.12871834531907
 30
0.0
 10
25.72080839936306
 20
19.10681084587798
 30
0.0
 10
25.73476076011822
 20
19.08496684643526
 30
0.0
 10
25.75336273186587
 20
19.05196448616611
 30
0.0
 10
25.77592992573457
 20
19.00917607059106
 30
0.0
 10
25.8167886469144
 20
18.93117690591433
 30
0.0
 10
25.86594888242242
 20
18.81804107546733
 30
0.0
 10
25.91249020002841
 20
18.67892669012754
 30
0.0
 10
25.97367597624521
 20
18.76181888245723
 30
0.0
 10
26.01191708638071
 20
18.83905604715341
 30
0.0
 10
26.02032443793939
 20
18.9050642954694
 30
0.0
 10
26.03210721571418
 20
18.99887495974276
 30
0.0
 10
25.98890539252334
 20
19.04838026403533
 30
0.0
 10
25.99252136465331
 20
19.04806981959881
 30
0.0
 10
25.99252136465331
 20
19.04806981959881
 30
0.0
 10
26.00192641996892
 20
19.0375958476438
 30
0.0
 10
26.01598108627702
 20
19.01506745932966
 30
0.0
 10
26.03051971571458
 20
18.99281070989747
 30
0.0
 10
26.04540275219308
 20
18.95501762752832
 30
0.0
 10
26.04864125211046
 20
18.90413296215983
 30
0.0
 10
26.05456791862593
 20
18.81597379774229
 30
0.0
 10
26.01381150299904
 20
18.69866860643641
 30
0.0
 10
25.94525619919248
 20
18.57650472051832
 30
0.0
 10
25.97791283724823
 20
18.46977533435232
 30
0.0
 10
26.00933475311326
 20
18.35185277318978
 30
0.0
 10
26.0441292244478
 20
18.22948075714942
 30
0.0
 10
26.0441292244478
 20
18.22948075714942
 30
0.0
 10
26.0772021402707
 20
18.17008709199801
 30
0.0
 10
26.0772021402707
 20
18.17008709199801
 30
0.0
 10
26.0772021402707
 20
18.17008709199801
 30
0.0
 10
26.30426755114445
 20
17.76329199126511
 30
0.0
 10
26.30426755114445
 20
17.76329199126511
 30
0.0
 10
26.32197699513709
 20
17.7597430469112
 30
0.0
 10
26.34002863356544
 20
17.75595421367453
 30
0.0
 10
26.35828841087737
 20
17.75188668600053
 30
0.0
 10
26.36627882734019
 20
17.86616198864068
 30
0.0
 10
26.36783104952281
 20
17.96948001378259
 30
0.0
 10
26.36290274409298
 20
18.06180901142708
 30
0.0
 10
26.36662454955359
 20
18.13742692616457
 30
0.0
 10
26.39308288221191
 20
18.2216949517925
 30
0.0
 10
26.44227774206796
 20
18.31450725498021
 30
0.0
 10
26.46298226931752
 20
18.36428772593243
 30
0.0
 10
26.47993324110729
 20
18.41530997463074
 30
0.0
 10
26.49309537966038
 20
18.46760575107434
 30
0.0
 10
26.49309537966038
 20
18.46760575107434
 30
0.0
 10
26.48382790767459
 20
18.50422761125116
 30
0.0
 10
26.48382790767459
 20
18.50422761125116
 30
0.0
 10
26.4471707697209
 20
18.64502827432569
 30
0.0
 10
26.40699996519019
 20
18.78300318747233
 30
0.0
 10
26.35938907751596
 20
18.91722454515917
 30
0.0
 10
26.34140446686367
 20
18.93365693362883
 30
0.0
 10
26.32369855064872
 20
18.94806084992803
 30
0.0
 10
26.30671230108208
 20
18.96042571072368
 30
0.0
 10
26.26468235770991
 20
18.99157245992906
 30
0.0
 10
26.22758138233202
 20
19.01079532054976
 30
0.0
 10
26.20212074819487
 20
19.02367876466552
 30
0.0
 10
26.17587055442013
 20
19.03518637548305
 30
0.0
 10
26.16191819366497
 20
19.0413176531044
 30
0.0
 10
26.16191819366497
 20
19.0413176531044
 30
0.0
 10
26.16191819366497
 20
19.0413176531044
 30
0.0
 10
26.17686891550577
 20
19.03752881986773
 30
0.0
 10
26.2049112203459
 20
19.03036390338385
 30
0.0
 10
26.23240319186675
 20
19.02161148694048
 30
0.0
 10
26.27319554898727
 20
19.00841759838819
 30
0.0
 10
26.32190643958333
 20
18.9835079601348
 30
0.0
 10
26.32731452277869
 20
18.98082332131441
 30
0.0
 10
26.33286371708156
 20
18.97799805081108
 30
0.0
 10
26.33844466138363
 20
18.97496416192291
 30
0.0
 10
26.32965696716337
 20
18.99835637642266
 30
0.0
 10
26.32066818961492
 20
19.02171379249342
 30
0.0
 10
26.31140138231101
 20
19.04490187523518
 30
0.0
 10
26.24115560831012
 20
19.21839445414235
 30
0.0
 10
26.15985091593993
 20
19.38493025544923
 30
0.0
 10
26.07024249348243
 20
19.54082275147207
 30
0.0
 10
25.97763832683892
 20
19.69475027532283
 30
0.0
 10
25.87869408977951
 20
19.8388917438677
 30
0.0
 10
25.77255031470969
 20
19.9667736850496
 30
0.0
 10
25.66479081745886
 20
20.09286351516612
 30
0.0
 10
25.55575138249998
 20
20.20810190111503
 30
0.0
 10
25.44216687869402
 20
20.30060375986623
 30
0.0
 10
25.21882327328088
 20
20.49101556056397
 30
0.0
 10
24.99561372341988
 20
20.60680427983218
 30
0.0
 10
24.8331771997862
 20
20.66984971705474
 30
0.0
 10
24.75273328517183
 20
20.70474949955561
 30
0.0
 10
24.68579723132395
 20
20.72200738800421
 30
0.0
 10
24.64063109358735
 20
20.73558227654678
 30
0.0
 10
24.59532737252092
 20
20.74901605398183
 30
0.0
 10
24.57117973424809
 20
20.75621624824258
 30
0.0
 10
24.57117973424809
 20
20.75621624824258
 30
0.0
 10
24.57117973424809
 20
20.75621624824258
 30
0.0
 10
24.59591360496214
 20
20.75146433169715
 30
0.0
 10
24.64235264909898
 20
20.74253905414707
 30
0.0
 10
24.68882759235775
 20
20.73344444326798
 30
0.0
 10
24.75803906281424
 20
20.72276638370817
 30
0.0
 10
24.84258225510181
 20
20.69568663867571
 30
0.0
 10
25.01311502852894
 20
20.64828388988506
 30
0.0
 10
25.25351543906248
 20
20.55330200341936
 30
0.0
 10
25.50583332695687
 20
20.37904742453163
 30
0.0
 10
25.63381692936018
 20
20.29453951002094
 30
0.0
 10
25.75973742614768
 20
20.18632845722608
 30
0.0
 10
25.88655110463945
 20
20.06544209919903
 30
0.0
 10
26.01167719749794
 20
19.94269307455284
 30
0.0
 10
26.13142761110952
 20
19.80209702258419
 30
0.0
 10
26.24608038596226
 20
19.64944655425641
 30
0.0
 10
26.2974130790971
 20
19.57840769495765
 30
0.0
 10
26.34722882782619
 20
19.50468419683849
 30
0.0
 10
26.39521718771302
 20
19.42854769878089
 30
0.0
 10
26.21576332677939
 20
20.057860904948
 30
0.0
 10
26.03217358586392
 20
20.52119217090521
 30
0.0
 10
25.84448522954114
 20
20.81853796887485
 30
0.0
 10
25.78788203654076
 20
20.96492310402914
 30
0.0
 10
25.70113398319833
 20
21.04322971696142
 30
0.0
 10
25.53980165398093
 20
21.07871157334837
 30
0.0
 10
25.56233357007276
 20
21.07692299006068
 30
0.0
 10
25.59616143032085
 20
21.09187371190147
 30
0.0
 10
25.64126054028139
 20
21.12356726664845
 30
0.0
 10
25.58940926382645
 20
21.15679540468966
 30
0.0
 10
25.53091165420773
 20
21.16964709880623
 30
0.0
 10
25.46576771142525
 20
21.1620835434436
 30
0.0
 10
25.49739071061848
 20
21.22128670859987
 30
0.0
 10
25.49453321069138
 20
21.31828648390298
 30
0.0
 10
25.45722343386545
 20
21.45314284157365
 30
0.0
 10
25.45722343386545
 20
21.45314284157365
 30
0.0
 10
25.43724210104189
 20
21.39325175976823
 30
0.0
 10
25.39727943539475
 20
21.2734307906029
 30
0.0
 10
25.38425488017148
 20
21.41171614818605
 30
0.0
 10
25.34860027144061
 20
21.59294514356252
 30
0.0
 10
25.29023960479223
 20
21.81704777232351
 30
0.0
 10
25.28972166034423
 20
21.76469852806961
 30
0.0
 10
25.27545821628045
 20
21.69764252978035
 30
0.0
 10
25.24745118921719
 20
21.61587217075538
 30
0.0
 10
25.23511807842072
 20
21.7416691953238
 30
0.0
 10
25.21795896774738
 20
21.87439124749334
 30
0.0
 10
25.19608321830547
 20
22.01398893837635
 30
0.0
 10
25.19608321830547
 20
22.01398893837635
 30
0.0
 10
25.17610188548191
 20
21.98830318903165
 30
0.0
 10
25.13613921983477
 20
21.93695693896021
 30
0.0
 10
25.12979980332984
 20
22.085232408781
 30
0.0
 10
25.06920027151046
 20
22.27312890398736
 30
0.0
 10
24.9543069744737
 20
22.5005717870737
 30
0.0
 10
26.05849499348535
 20
24.13244413433006
 30
0.0
 10
25.95996416017666
 20
24.54088027164255
 30
0.0
 10
25.98091144828284
 20
24.5921594281573
 30
0.0
 10
25.9861466703715
 20
24.60490528894323
 30
0.0
 10
24.83941431073819
 20
21.768886000185
 30
0.0
 10
22.66083872742939
 20
21.67042572491916
 30
0.0
 10
23.24089004596439
 20
21.58607303262673
 30
0.0
 10
23.92412180631147
 20
21.9094961632644
 30
0.0
 10
24.29161040804717
 20
22.05858357612754
 30
0.0
 10
24.32771368490387
 20
21.93592274592354
 30
0.0
 10
24.35730821192663
 20
21.86169830337272
 30
0.0
 10
24.38042221133694
 20
21.83598080402883
 30
0.0
 10
24.3347762958348
 20
21.85167235918406
 30
0.0
 10
24.31193393530645
 20
21.85950755342861
 30
0.0
 10
24.31193393530645
 20
21.85950755342861
 30
0.0
 10
24.34890151769666
 20
21.71087169610951
 30
0.0
 10
24.38886418334379
 20
21.6224161983662
 30
0.0
 10
24.43175490447178
 20
21.5941340046433
 30
0.0
 10
24.36009868407766
 20
21.61597447630832
 30
0.0
 10
24.31655179629975
 20
21.6430536978397
 30
0.0
 10
24.30111776891572
 20
21.67538578034817
 30
0.0
 10
24.28237468606056
 20
21.5461950336441
 30
0.0
 10
24.30373537996005
 20
21.44132478631956
 30
0.0
 10
24.36533390616632
 20
21.36079620504069
 30
0.0
 10
24.31062512978428
 20
21.40010623181558
 30
0.0
 10
24.26380860504515
 20
21.44785470281964
 30
0.0
 10
24.22470610419848
 20
21.50399277240177
 30
0.0
 10
24.22232838203692
 20
21.45419411932457
 30
0.0
 10
24.22081143763117
 20
21.40408610576007
 30
0.0
 10
24.22022582653501
 20
21.35370184411057
 30
0.0
 10
24.35541026753061
 20
21.17298790427652
 30
0.0
 10
24.43058368227944
 20
20.95951149305609
 30
0.0
 10
24.44580957077989
 20
20.71329024933772
 30
0.0
 10
24.4286892656611
 20
20.5325974761698
 30
0.0
 10
24.35585829529695
 20
20.31900112050798
 30
0.0
 10
24.22735899301969
 20
20.07243415457621
 30
0.0
 10
24.2890598247789
 20
19.71703877475421
 30
0.0
 10
24.23573040947278
 20
19.38486322767316
 30
0.0
 10
24.06740249710052
 20
19.07587223555617
 30
0.0
 10
24.04928030311841
 20
19.03198315334254
 30
0.0
 10
24.03153971621436
 20
18.98809054335123
 30
0.0
 10
24.01421066512422
 20
18.94413138415284
 30
0.0
  0
SPLINE
  5
8D
330
70
100
AcDbEntity
  8
Layer 1
100
AcDbSpline
210
0.0
220
0.0
230
1.0
 70
     9
 71
     3
 72
    32
 73
    28
 74
     0
 42
0.0000000001
 43
0.0000000001
 40
0.0
 40
0.0
 40
0.0
 40
0.0
 40
1.0
 40
1.0
 40
1.0
 40
2.0
 40
2.0
 40
2.0
 40
3.0
 40
3.0
 40
3.0
 40
4.0
 40
4.0
 40
4.0
 40
5.0
 40
5.0
 40
5.0
 40
6.0
 40
6.0
 40
6.0
 40
7.0
 40
7.0
 40
7.0
 40
8.0
 40
8.0
 40
8.0
 40
9.0
 40
9.0
 40
9.0
 40
9.0
 10
13.42358921309126
 20
16.93629666243262
 30
0.0
 10
13.43074001846438
 20
16.91552115178243
 30
0.0
 10
13.43740399051659
 20
16.89471431897992
 30
0.0
 10
13.44381396257528
 20
16.87397451395349
 30
0.0
 10
13.45669740669104
 20
16.8310837928255
 30
0.0
 10
13.46827204528464
 20
16.78849998835634
 30
0.0
 10
13.47866135057514
 20
16.74636773943123
 30
0.0
 10
13.47866135057514
 20
16.74636773943123
 30
0.0
 10
13.49218332245239
 20
16.73279285088866
 30
0.0
 10
13.49218332245239
 20
16.73279285088866
 30
0.0
 10
13.57791184804305
 20
16.64673666250499
 30
0.0
 10
13.66057860769597
 20
16.55606177206412
 30
0.0
 10
13.73296120519852
 20
16.45946063563973
 30
0.0
 10
13.7528543435799
 20
16.43293174742765
 30
0.0
 10
13.77175264865331
 20
16.40606066477985
 30
0.0
 10
13.78954675931046
 20
16.37887913769553
 30
0.0
 10
13.7565761490405
 20
16.58176163251957
 30
0.0
 10
13.73390664961885
 20
16.80892934894626
 30
0.0
 10
13.72665706647047
 20
17.04805666240466
 30
0.0
 10
13.67640740108577
 20
17.11647395221125
 30
0.0
 10
13.62495476350955
 20
17.18551256156105
 30
0.0
 10
13.57336454260351
 20
17.25496744867799
 30
0.0
 10
13.55908762630108
 20
17.21779525518189
 30
0.0
 10
13.54356540447486
 20
17.18144856166472
 30
0.0
 10
13.5274787382186
 20
17.14582506257356
 30
0.0
 10
13.49385196129871
 20
17.07234145333717
 30
0.0
 10
13.45862710108626
 20
17.00333812176426
 30
0.0
 10
13.42358921309126
 20
16.93629666243262
 30
0.0
  0
SPLINE
  5
8E
330
70
100
AcDbEntity
  8
Layer 1
100
AcDbSpline
210
0.0
220
0.0
230
1.0
 70
     9
 71
     3
 72
    29
 73
    25
 74
     0
 42
0.0000000001
 43
0.0000000001
 40
0.0
 40
0.0
 40
0.0
 40
0.0
 40
1.0
 40
1.0
 40
1.0
 40
2.0
 40
2.0
 40
2.0
 40
3.0
 40
3.0
 40
3.0
 40
4.0
 40
4.0
 40
4.0
 40
5.0
 40
5.0
 40
5.0
 40
6.0
 40
6.0
 40
6.0
 40
7.0
 40
7.0
 40
7.0
 40
8.0
 40
8.0
 40
8.0
 40
8.0
 10
14.10115536247177
 20
18.04358451189203
 30
0.0
 10
14.13324402831979
 20
17.92142109834201
 30
0.0
 10
14.16235524979932
 20
17.79636490708801
 30
0.0
 10
14.18838319357974
 20
17.67058199363034
 30
0.0
 10
14.23298135910861
 20
17.44317086054319
 30
0.0
 10
14.26557096938829
 20
17.21345256084823
 30
0.0
 10
14.28932702433778
 20
16.99393306644864
 30
0.0
 10
14.3163356903154
 20
16.96488887274518
 30
0.0
 10
14.34293160630355
 20
16.93574590126646
 30
0.0
 10
14.36906221862995
 20
16.90642654090335
 30
0.0
 10
14.47639449178751
 20
16.78684898839847
 30
0.0
 10
14.57478773927729
 20
16.6640646859754
 30
0.0
 10
14.66012115376693
 20
16.54245160574467
 30
0.0
 10
14.64081009870404
 20
16.67973860224219
 30
0.0
 10
14.61030540503783
 20
16.82402118189457
 30
0.0
 10
14.5738034893024
 20
16.96850837265284
 30
0.0
 10
14.48256104718575
 20
17.31653069710738
 30
0.0
 10
14.34672043954022
 20
17.66159321608188
 30
0.0
 10
14.23785674787312
 20
17.91759698732846
 30
0.0
 10
14.18361363814587
 20
18.04520376185072
 30
0.0
 10
14.13725863932848
 20
18.15134753692054
 30
0.0
 10
14.10432330683543
 20
18.22582950724257
 30
0.0
 10
14.10270405687671
 20
18.16481659213247
 30
0.0
 10
14.1014658069083
 20
18.10407884368202
 30
0.0
 10
14.10115536247177
 20
18.04358451189203
 30
0.0
  0
SPLINE
  5
8F
330
70
100
AcDbEntity
  8
Layer 1
100
AcDbSpline
210
0.0
220
0.0
230
1.0
 70
     9
 71
     3
 72
    23
 73
    19
 74
     0
 42
0.0000000001
 43
0.0000000001
 40
0.0
 40
0.0
 40
0.0
 40
0.0
 40
1.0
 40
1.0
 40
1.0
 40
2.0
 40
2.0
 40
2.0
 40
3.0
 40
3.0
 40
3.0
 40
4.0
 40
4.0
 40
4.0
 40
5.0
 40
5.0
 40
5.0
 40
6.0
 40
6.0
 40
6.0
 40
6.0
 10
16.16414683761826
 20
16.916452485092
 30
0.0
 10
16.16971055151314
 20
17.02469528788606
 30
0.0
 10
16.17637805151145
 20
17.13466360682745
 30
0.0
 10
16.18459383709661
 20
17.2444581989461
 30
0.0
 10
16.19205155912857
 20
17.36121352930076
 30
0.0
 10
16.20114617000766
 20
17.47758785966514
 30
0.0
 10
16.21124266975007
 20
17.59165502342171
 30
0.0
 10
16.19701161455758
 20
17.60850368965853
 30
0.0
 10
16.18264650381296
 20
17.62486552257444
 30
0.0
 10
16.16812617085007
 20
17.64074757772481
 30
0.0
 10
16.1681438097385
 20
17.603402523122
 30
0.0
 10
16.16795330974337
 20
17.56619857962671
 30
0.0
 10
16.16733242087032
 20
17.52919571945962
 30
0.0
 10
16.1647677264913
 20
17.37368422342705
 30
0.0
 10
16.16200900433946
 20
17.22196156063115
 30
0.0
 10
16.16230221818165
 20
17.07692403655359
 30
0.0
 10
16.16235472655286
 20
17.02245867683201
 30
0.0
 10
16.16297561542591
 20
16.96888584486543
 30
0.0
 10
16.16414683761826
 20
16.916452485092
 30
0.0
  0
SPLINE
  5
90
330
70
100
AcDbEntity
  8
Layer 1
100
AcDbSpline
210
0.0
220
0.0
230
1.0
 70
     9
 71
     3
 72
    14
 73
    10
 74
     0
 42
0.0000000001
 43
0.0000000001
 40
0.0
 40
0.0
 40
0.0
 40
0.0
 40
1.0
 40
1.0
 40
1.0
 40
2.0
 40
2.0
 40
2.0
 40
3.0
 40
3.0
 40
3.0
 40
3.0
 10
16.59345621555455
 20
16.72934973986539
 30
0.0
 10
16.58632657684755
 20
16.77038132215193
 30
0.0
 10
16.57817741038879
 20
16.8115152099914
 30
0.0
 10
16.56875471618477
 20
16.852613820054
 30
0.0
 10
16.57500946602516
 20
16.81092959889523
 30
0.0
 10
16.5813488825301
 20
16.76965812772593
 30
0.0
 10
16.58779060458798
 20
16.72890171209905
 30
0.0
 10
16.58779060458798
 20
16.72890171209905
 30
0.0
 10
16.59345621555455
 20
16.72934973986539
 30
0.0
 10
16.59345621555455
 20
16.72934973986539
 30
0.0
  0
SPLINE
  5
91
330
70
100
AcDbEntity
  8
Layer 1
100
AcDbSpline
210
0.0
220
0.0
230
1.0
 70
     9
 71
     3
 72
    17
 73
    13
 74
     0
 42
0.0000000001
 43
0.0000000001
 40
0.0
 40
0.0
 40
0.0
 40
0.0
 40
1.0
 40
1.0
 40
1.0
 40
2.0
 40
2.0
 40
2.0
 40
3.0
 40
3.0
 40
3.0
 40
4.0
 40
4.0
 40
4.0
 40
4.0
 10
19.44229192065247
 20
17.1667377287067
 30
0.0
 10
19.43574789304165
 20
17.07709689766029
 30
0.0
 10
19.42799383768391
 20
16.98828156659283
 30
0.0
 10
19.41914264346528
 20
16.90112076326093
 30
0.0
 10
19.41914264346528
 20
16.90112076326093
 30
0.0
 10
19.42005281010876
 20
16.88010579157484
 30
0.0
 10
19.42005281010876
 20
16.88010579157484
 30
0.0
 10
19.42005281010876
 20
16.88010579157484
 30
0.0
 10
19.48671722507464
 20
16.8819649304163
 30
0.0
 10
19.48671722507464
 20
16.8819649304163
 30
0.0
 10
19.4732799198619
 20
16.97753242797817
 30
0.0
 10
19.45839975357486
 20
17.07296277350955
 30
0.0
 10
19.44229192065247
 20
17.1667377287067
 30
0.0
  0
SPLINE
  5
92
330
70
100
AcDbEntity
  8
Layer 1
100
AcDbSpline
210
0.0
220
0.0
230
1.0
 70
     9
 71
     3
 72
    26
 73
    22
 74
     0
 42
0.0000000001
 43
0.0000000001
 40
0.0
 40
0.0
 40
0.0
 40
0.0
 40
1.0
 40
1.0
 40
1.0
 40
2.0
 40
2.0
 40
2.0
 40
3.0
 40
3.0
 40
3.0
 40
4.0
 40
4.0
 40
4.0
 40
5.0
 40
5.0
 40
5.0
 40
6.0
 40
6.0
 40
6.0
 40
7.0
 40
7.0
 40
7.0
 40
7.0
 10
25.26987727197838
 20
17.26213236516187
 30
0.0
 10
25.26987727197838
 20
17.26213236516187
 30
0.0
 10
25.28324402163737
 20
17.24153014346525
 30
0.0
 10
25.28324402163737
 20
17.24153014346525
 30
0.0
 10
25.38263563021279
 20
17.09005089732981
 30
0.0
 10
25.485780794248
 20
16.93774305132112
 30
0.0
 10
25.58090026404353
 20
16.78588237731202
 30
0.0
 10
25.59326865261687
 20
16.78123276631952
 30
0.0
 10
25.60556648563646
 20
16.77644204421952
 30
0.0
 10
25.61790312421062
 20
16.77155254434427
 30
0.0
 10
25.60257140237954
 20
16.80176443246239
 30
0.0
 10
25.58779001386776
 20
16.83245962612373
 30
0.0
 10
25.57394348644323
 20
16.86360284755142
 30
0.0
 10
25.4756525445064
 20
17.07444444017583
 30
0.0
 10
25.40954199063746
 20
17.29007236444906
 30
0.0
 10
25.36337749181522
 20
17.49567477587037
 30
0.0
 10
25.35631488088429
 20
17.47941524850741
 30
0.0
 10
25.34932282550712
 20
17.46308516559069
 30
0.0
 10
25.34243307568289
 20
17.4466880548979
 30
0.0
 10
25.31635221523716
 20
17.38529413979752
 30
0.0
 10
25.29213402141057
 20
17.32362858581519
 30
0.0
 10
25.26987727197838
 20
17.26213236516187
 30
0.0
  0
SPLINE
  5
93
330
70
100
AcDbEntity
  8
Layer 1
100
AcDbSpline
210
0.0
220
0.0
230
1.0
 70
     9
 71
     3
 72
    50
 73
    46
 74
     0
 42
0.0000000001
 43
0.0000000001
 40
0.0
 40
0.0
 40
0.0
 40
0.0
 40
1.0
 40
1.0
 40
1.0
 40
2.0
 40
2.0
 40
2.0
 40
3.0
 40
3.0
 40
3.0
 40
4.0
 40
4.0
 40
4.0
 40
5.0
 40
5.0
 40
5.0
 40
6.0
 40
6.0
 40
6.0
 40
7.0
 40
7.0
 40
7.0
 40
8.0
 40
8.0
 40
8.0
 40
9.0
 40
9.0
 40
9.0
 40
10.0
 40
10.0
 40
10.0
 40
11.0
 40
11.0
 40
11.0
 40
12.0
 40
12.0
 40
12.0
 40
13.0
 40
13.0
 40
13.0
 40
14.0
 40
14.0
 40
14.0
 40
15.0
 40
15.0
 40
15.0
 40
15.0
 10
25.49125943299712
 20
17.76828777333569
 30
0.0
 10
25.51000251585228
 20
17.71502493694095
 30
0.0
 10
25.53008615422879
 20
17.66097277336254
 30
0.0
 10
25.55172201478793
 20
17.60653916226505
 30
0.0
 10
25.63336890159383
 20
17.40627736148442
 30
0.0
 10
25.73317326015872
 20
17.1996377834229
 30
0.0
 10
25.86267445129931
 20
17.01746334362611
 30
0.0
 10
25.9382958938145
 20
16.90763304087256
 30
0.0
 10
26.02373514163476
 20
16.80741593231821
 30
0.0
 10
26.11499522263985
 20
16.71374285137467
 30
0.0
 10
26.11499522263985
 20
16.71374285137467
 30
0.0
 10
26.12453786128529
 20
16.72604110692959
 30
0.0
 10
26.12453786128529
 20
16.72604110692959
 30
0.0
 10
26.14041991643566
 20
16.76066582239979
 30
0.0
 10
26.14834330512241
 20
16.79828604366224
 30
0.0
 10
26.14830802734553
 20
16.83886959818242
 30
0.0
 10
26.08608861226621
 20
17.02218351017236
 30
0.0
 10
26.02962653037335
 20
17.21724492186259
 30
0.0
 10
25.98566689260596
 20
17.41430305572411
 30
0.0
 10
25.97040219855095
 20
17.4816558289629
 30
0.0
 10
25.95631225446597
 20
17.54911002450712
 30
0.0
 10
25.94360167145691
 20
17.61628949501545
 30
0.0
 10
25.94360167145691
 20
17.61628949501545
 30
0.0
 10
25.87797089535352
 20
17.7826877129925
 30
0.0
 10
25.87797089535352
 20
17.7826877129925
 30
0.0
 10
25.78171548114253
 20
17.79967043478146
 30
0.0
 10
25.72563087146225
 20
17.80766437902196
 30
0.0
 10
25.72563087146225
 20
17.80766437902196
 30
0.0
 10
25.72563087146225
 20
17.80766437902196
 30
0.0
 10
25.7747911046674
 20
17.80935110665878
 30
0.0
 10
25.86267445129931
 20
17.80959407341718
 30
0.0
 10
25.84345159067862
 20
17.84221896147373
 30
0.0
 10
25.82381598006846
 20
17.87322459957161
 30
0.0
 10
25.80383464724489
 20
17.90230054327426
 30
0.0
 10
25.78416023108016
 20
17.93199737584996
 30
0.0
 10
25.76535012044893
 20
17.96052298623332
 30
0.0
 10
25.74740431535121
 20
17.9876022077647
 30
0.0
 10
25.72725012142095
 20
18.01319976266721
 30
0.0
 10
25.70816484413007
 20
18.03738267871692
 30
0.0
 10
25.69018023347779
 20
18.06018976146839
 30
0.0
 10
25.68129023370459
 20
18.07159153895529
 30
0.0
 10
25.6727142061456
 20
18.08261584422959
 30
0.0
 10
25.66430751191563
 20
18.09319212173754
 30
0.0
 10
25.60618737450951
 20
17.98932376327633
 30
0.0
 10
25.54741459823115
 20
17.8803542382786
 30
0.0
 10
25.49125943299712
 20
17.76828777333569
 30
0.0
  0
SPLINE
  5
94
330
70
100
AcDbEntity
  8
Layer 1
100
AcDbSpline
210
0.0
220
0.0
230
1.0
 70
     9
 71
     3
 72
    17
 73
    13
 74
     0
 42
0.0000000001
 43
0.0000000001
 40
0.0
 40
0.0
 40
0.0
 40
0.0
 40
1.0
 40
1.0
 40
1.0
 40
2.0
 40
2.0
 40
2.0
 40
3.0
 40
3.0
 40
3.0
 40
4.0
 40
4.0
 40
4.0
 40
4.0
 10
25.68952471579985
 20
18.13804781503762
 30
0.0
 10
25.70378687201954
 20
18.1263355931142
 30
0.0
 10
25.71870584386115
 20
18.11382962121104
 30
0.0
 10
25.73434448235107
 20
18.10070276043482
 30
0.0
 10
25.73434448235107
 20
18.10070276043482
 30
0.0
 10
25.76152666022627
 20
18.07806853879004
 30
0.0
 10
25.76152666022627
 20
18.07806853879004
 30
0.0
 10
25.74695693800768
 20
18.11489853785043
 30
0.0
 10
25.73252062128648
 20
18.15162270358019
 30
0.0
 10
25.7180849549881
 20
18.18820928598012
 30
0.0
 10
25.7180849549881
 20
18.18820928598012
 30
0.0
 10
25.68952471579985
 20
18.13804781503762
 30
0.0
 10
25.68952471579985
 20
18.13804781503762
 30
0.0
  0
SPLINE
  5
95
330
70
100
AcDbEntity
  8
Layer 1
100
AcDbSpline
210
0.0
220
0.0
230
1.0
 70
     9
 71
     3
 72
    26
 73
    22
 74
     0
 42
0.0000000001
 43
0.0000000001
 40
0.0
 40
0.0
 40
0.0
 40
0.0
 40
1.0
 40
1.0
 40
1.0
 40
2.0
 40
2.0
 40
2.0
 40
3.0
 40
3.0
 40
3.0
 40
4.0
 40
4.0
 40
4.0
 40
5.0
 40
5.0
 40
5.0
 40
6.0
 40
6.0
 40
6.0
 40
7.0
 40
7.0
 40
7.0
 40
7.0
 10
24.89584527155384
 20
17.34178252979649
 30
0.0
 10
24.88550888266749
 20
17.32331814137866
 30
0.0
 10
24.8753136048923
 20
17.30488550296003
 30
0.0
 10
24.86525175452346
 20
17.28635055898845
 30
0.0
 10
24.79659061738627
 20
17.36810327912499
 30
0.0
 10
24.72579517474797
 20
17.44830730485659
 30
0.0
 10
24.65434356545974
 20
17.52892055279998
 30
0.0
 10
24.65434356545974
 20
17.52892055279998
 30
0.0
 10
24.63653181591415
 20
17.5487995800706
 30
0.0
 10
24.63653181591415
 20
17.5487995800706
 30
0.0
 10
24.6553066487685
 20
17.8132806011009
 30
0.0
 10
24.68273221605153
 20
18.07472773331972
 30
0.0
 10
24.70763832715642
 20
18.3093743384445
 30
0.0
 10
24.70694978633986
 20
18.28398139464788
 30
0.0
 10
24.70687923078611
 20
18.25776693987999
 30
0.0
 10
24.70746484188228
 20
18.23068725711864
 30
0.0
 10
24.71067221604452
 20
18.07135165007252
 30
0.0
 10
24.73668189669244
 20
17.88455934928243
 30
0.0
 10
24.78732314540048
 20
17.69042574312408
 30
0.0
 10
24.81674481131654
 20
17.57587880160197
 30
0.0
 10
24.85401931036558
 20
17.45884830458767
 30
0.0
 10
24.89584527155384
 20
17.34178252979649
 30
0.0
  0
SPLINE
  5
96
330
70
100
AcDbEntity
  8
Layer 1
100
AcDbSpline
210
0.0
220
0.0
230
1.0
 70
     9
 71
     3
 72
    17
 73
    13
 74
     0
 42
0.0000000001
 43
0.0000000001
 40
0.0
 40
0.0
 40
0.0
 40
0.0
 40
1.0
 40
1.0
 40
1.0
 40
2.0
 40
2.0
 40
2.0
 40
3.0
 40
3.0
 40
3.0
 40
4.0
 40
4.0
 40
4.0
 40
4.0
 10
24.67356642608043
 20
16.86963181961983
 30
0.0
 10
24.66646916050006
 20
16.85078995898942
 30
0.0
 10
24.6595787875484
 20
16.83201159835738
 30
0.0
 10
24.65289717660775
 20
16.81330732105679
 30
0.0
 10
24.65289717660775
 20
16.81330732105679
 30
0.0
 10
24.62033931632726
 20
16.81516645989825
 30
0.0
 10
24.62033931632726
 20
16.81516645989825
 30
0.0
 10
24.6181344552724
 20
16.86687662524568
 30
0.0
 10
24.61675862197417
 20
16.9194828461258
 30
0.0
 10
24.61620476087718
 20
16.97278051143274
 30
0.0
 10
24.63615434370156
 20
16.93812009565033
 30
0.0
 10
24.6553066487685
 20
16.90370662430607
 30
0.0
 10
24.67356642608043
 20
16.86963181961983
 30
0.0
  0
SPLINE
  5
97
330
70
100
AcDbEntity
  8
Layer 1
100
AcDbSpline
210
0.0
220
0.0
230
1.0
 70
     9
 71
     3
 72
    20
 73
    16
 74
     0
 42
0.0000000001
 43
0.0000000001
 40
0.0
 40
0.0
 40
0.0
 40
0.0
 40
1.0
 40
1.0
 40
1.0
 40
2.0
 40
2.0
 40
2.0
 40
3.0
 40
3.0
 40
3.0
 40
4.0
 40
4.0
 40
4.0
 40
5.0
 40
5.0
 40
5.0
 40
5.0
 10
22.77862769664657
 20
18.34265186537329
 30
0.0
 10
22.74813711409112
 20
18.44138777316741
 30
0.0
 10
22.70969139284972
 20
18.53168430499512
 30
0.0
 10
22.66386908846319
 20
18.61047416201402
 30
0.0
 10
22.60519861773778
 20
18.71537568919765
 30
0.0
 10
22.53612473061111
 20
18.79881821484663
 30
0.0
 10
22.47149584337105
 20
18.86151740769149
 30
0.0
 10
22.46839492678349
 20
18.57905530378658
 30
0.0
 10
22.47807514875875
 20
18.2789543114428
 30
0.0
 10
22.50005673153129
 20
17.98074420793966
 30
0.0
 10
22.50794484244115
 20
17.88748740476329
 30
0.0
 10
22.51707473109712
 20
17.7944352126928
 30
0.0
 10
22.52734056416855
 20
17.70224379837813
 30
0.0
 10
22.62173683953808
 20
17.92717490375077
 30
0.0
 10
22.70552155962277
 20
18.14070070385883
 30
0.0
 10
22.77862769664657
 20
18.34265186537329
 30
0.0
  0
SPLINE
  5
98
330
70
100
AcDbEntity
  8
Layer 1
100
AcDbSpline
210
0.0
220
0.0
230
1.0
 70
     9
 71
     3
 72
    26
 73
    22
 74
     0
 42
0.0000000001
 43
0.0000000001
 40
0.0
 40
0.0
 40
0.0
 40
0.0
 40
1.0
 40
1.0
 40
1.0
 40
2.0
 40
2.0
 40
2.0
 40
3.0
 40
3.0
 40
3.0
 40
4.0
 40
4.0
 40
4.0
 40
5.0
 40
5.0
 40
5.0
 40
6.0
 40
6.0
 40
6.0
 40
7.0
 40
7.0
 40
7.0
 40
7.0
 10
23.82359425332058
 20
16.85347459780982
 30
0.0
 10
23.86782905774762
 20
17.07919945316221
 30
0.0
 10
23.92181111192597
 20
17.31163766945444
 30
0.0
 10
23.96615174968364
 20
17.54232258023584
 30
0.0
 10
23.98651055471979
 20
17.64939768861523
 30
0.0
 10
24.00332394317974
 20
17.75698785253705
 30
0.0
 10
24.01558649842245
 20
17.86350909981947
 30
0.0
 10
23.92787536177126
 20
17.9765779024904
 30
0.0
 10
23.83981850290667
 20
18.08423555103449
 30
0.0
 10
23.75407233842757
 20
18.18438517496657
 30
0.0
 10
23.68937289563374
 20
17.96165893064879
 30
0.0
 10
23.63438895259206
 20
17.73789904746849
 30
0.0
 10
23.58918753707857
 20
17.51307377542648
 30
0.0
 10
23.59197860521311
 20
17.38219322320997
 30
0.0
 10
23.59786999410051
 20
17.24825055996047
 30
0.0
 10
23.60817110520908
 20
17.11533800779579
 30
0.0
 10
23.61547360520727
 20
17.02965887109276
 30
0.0
 10
23.62429304964951
 20
16.94449478993214
 30
0.0
 10
23.63480170258153
 20
16.86091820873102
 30
0.0
 10
23.69801947874648
 20
16.85857576434634
 30
0.0
 10
23.7609620882518
 20
16.85602518107808
 30
0.0
 10
23.82359425332058
 20
16.85347459780982
 30
0.0
  0
SPLINE
  5
99
330
70
100
AcDbEntity
  8
Layer 1
100
AcDbSpline
210
0.0
220
0.0
230
1.0
 70
     9
 71
     3
 72
    17
 73
    13
 74
     0
 42
0.0000000001
 43
0.0000000001
 40
0.0
 40
0.0
 40
0.0
 40
0.0
 40
1.0
 40
1.0
 40
1.0
 40
2.0
 40
2.0
 40
2.0
 40
3.0
 40
3.0
 40
3.0
 40
4.0
 40
4.0
 40
4.0
 40
4.0
 10
24.28981829698177
 20
17.35756227939391
 30
0.0
 10
24.28981829698177
 20
17.35756227939391
 30
0.0
 10
24.29743124123199
 20
17.39132311186593
 30
0.0
 10
24.29743124123199
 20
17.39132311186593
 30
0.0
 10
24.30235601888413
 20
17.41275083354149
 30
0.0
 10
24.30731960209083
 20
17.43414680521786
 30
0.0
 10
24.31234668529592
 20
17.45543694356359
 30
0.0
 10
24.31234668529592
 20
17.45543694356359
 30
0.0
 10
24.29353657466469
 20
17.48303166229591
 30
0.0
 10
24.29353657466469
 20
17.48303166229591
 30
0.0
 10
24.29250293580217
 20
17.44100127726521
 30
0.0
 10
24.29129996361064
 20
17.39917947277661
 30
0.0
 10
24.28981829698177
 20
17.35756227939391
 30
0.0
  0
SPLINE
  5
9A
330
70
100
AcDbEntity
  8
Layer 1
100
AcDbSpline
210
0.0
220
0.0
230
1.0
 70
    11
 71
     3
 72
    14
 73
    10
 74
     0
 42
0.0000000001
 43
0.0000000001
 40
0.0
 40
0.0
 40
0.0
 40
0.0
 40
1.0
 40
1.0
 40
1.0
 40
2.0
 40
2.0
 40
2.0
 40
3.0
 40
3.0
 40
3.0
 40
3.0
 10
27.76609043051691
 20
17.0873980085086
 30
0.0
 10
27.76609043051691
 20
17.0873980085086
 30
0.0
 10
27.77970059683635
 20
17.07782009208629
 30
0.0
 10
27.77970059683635
 20
17.07782009208629
 30
0.0
 10
27.77970059683635
 20
17.07782009208629
 30
0.0
 10
27.76505749305871
 20
17.09707823048386
 30
0.0
 10
27.76505749305871
 20
17.09707823048386
 30
0.0
 10
27.76505749305871
 20
17.09707823048386
 30
0.0
 10
27.76609043051691
 20
17.0873980085086
 30
0.0
 10
27.76609043051691
 20
17.0873980085086
 30
0.0
  0
SPLINE
  5
9B
330
70
100
AcDbEntity
  8
Layer 1
100
AcDbSpline
210
0.0
220
0.0
230
1.0
 70
    11
 71
     3
 72
    35
 73
    31
 74
     0
 42
0.0000000001
 43
0.0000000001
 40
0.0
 40
0.0
 40
0.0
 40
0.0
 40
1.0
 40
1.0
 40
1.0
 40
2.0
 40
2.0
 40
2.0
 40
3.0
 40
3.0
 40
3.0
 40
4.0
 40
4.0
 40
4.0
 40
5.0
 40
5.0
 40
5.0
 40
6.0
 40
6.0
 40
6.0
 40
7.0
 40
7.0
 40
7.0
 40
8.0
 40
8.0
 40
8.0
 40
9.0
 40
9.0
 40
9.0
 40
10.0
 40
10.0
 40
10.0
 40
10.0
 10
27.71406982073295
 20
17.54159938580984
 30
0.0
 10
27.71406982073295
 20
17.54159938580984
 30
0.0
 10
27.83323462324836
 20
17.43872938843428
 30
0.0
 10
27.83323462324836
 20
17.43872938843428
 30
0.0
 10
27.83323462324836
 20
17.43872938843428
 30
0.0
 10
27.91233445456369
 20
17.36896405688081
 30
0.0
 10
27.91233445456369
 20
17.36896405688081
 30
0.0
 10
27.9329366762603
 20
17.43400922188803
 30
0.0
 10
27.95288273130699
 20
17.49936130355409
 30
0.0
 10
27.97166109193903
 20
17.56485449632767
 30
0.0
 10
27.95925742558881
 20
17.60164568983349
 30
0.0
 10
27.94664914813269
 20
17.63830282778718
 30
0.0
 10
27.9336598706863
 20
17.67495996574087
 30
0.0
 10
27.88511764970249
 20
17.8106277122797
 30
0.0
 10
27.83075459553385
 20
17.94770656989363
 30
0.0
 10
27.77401381920365
 20
18.08085901094107
 30
0.0
 10
27.71727304287345
 20
18.21370100755199
 30
0.0
 10
27.65888126658537
 20
18.34292749541428
 30
0.0
 10
27.59655601817542
 20
18.46495332871707
 30
0.0
 10
27.59655601817542
 20
18.46495332871707
 30
0.0
 10
27.58157001855775
 20
18.49396177817972
 30
0.0
 10
27.58157001855775
 20
18.49396177817972
 30
0.0
 10
27.596764157059
 20
18.42715977988398
 30
0.0
 10
27.60906199007859
 20
18.35839633719384
 30
0.0
 10
27.61902090649118
 20
18.28901200563065
 30
0.0
 10
27.65281701674008
 20
18.04751138437703
 30
0.0
 10
27.68296187708214
 20
17.79691524040731
 30
0.0
 10
27.71403454295607
 20
17.54180444005898
 30
0.0
 10
27.71403454295607
 20
17.54180444005898
 30
0.0
 10
27.71406982073295
 20
17.54159938580984
 30
0.0
 10
27.71406982073295
 20
17.54159938580984
 30
0.0
  0
SPLINE
  5
9C
330
70
100
AcDbEntity
  8
Layer 1
100
AcDbSpline
210
0.0
220
0.0
230
1.0
 70
     9
 71
     3
 72
    20
 73
    16
 74
     0
 42
0.0000000001
 43
0.0000000001
 40
0.0
 40
0.0
 40
0.0
 40
0.0
 40
1.0
 40
1.0
 40
1.0
 40
2.0
 40
2.0
 40
2.0
 40
3.0
 40
3.0
 40
3.0
 40
4.0
 40
4.0
 40
4.0
 40
5.0
 40
5.0
 40
5.0
 40
5.0
 10
27.61375110420769
 20
19.50530508571154
 30
0.0
 10
27.61375110420769
 20
19.50530508571154
 30
0.0
 10
27.76867629156205
 20
19.25815250868359
 30
0.0
 10
27.76867629156205
 20
19.25815250868359
 30
0.0
 10
27.85411201160462
 20
19.12090078996295
 30
0.0
 10
27.95061084247607
 20
18.96400993285446
 30
0.0
 10
28.05206972877652
 20
18.79454607606674
 30
0.0
 10
28.02567842389426
 20
18.897588934549
 30
0.0
 10
27.99047120257025
 20
18.99339632099364
 30
0.0
 10
27.94923148140014
 20
19.07842281882443
 30
0.0
 10
27.86303728915469
 20
19.25773975869412
 30
0.0
 10
27.74962276427036
 20
19.38699753317426
 30
0.0
 10
27.6604299609903
 20
19.46637253114923
 30
0.0
 10
27.64378943363706
 20
19.48063582846318
 30
0.0
 10
27.62811551737027
 20
19.49369164156338
 30
0.0
 10
27.61375110420769
 20
19.50530508571154
 30
0.0
  0
SPLINE
  5
9D
330
70
100
AcDbEntity
  8
Layer 1
100
AcDbSpline
210
0.0
220
0.0
230
1.0
 70
     9
 71
     3
 72
    11
 73
     7
 74
     0
 42
0.0000000001
 43
0.0000000001
 40
0.0
 40
0.0
 40
0.0
 40
0.0
 40
1.0
 40
1.0
 40
1.0
 40
2.0
 40
2.0
 40
2.0
 40
2.0
 10
23.05189288411944
 20
27.68149784934171
 30
0.0
 10
23.0571281062081
 20
27.67297121067035
 30
0.0
 10
23.06064177278512
 20
27.6637884053491
 30
0.0
 10
23.06236332829676
 20
27.65391768337867
 30
0.0
 10
23.05895196727268
 20
27.66316751647602
 30
0.0
 10
23.05547416090277
 20
27.67236796068574
 30
0.0
 10
23.05189288411944
 20
27.68149784934171
 30
0.0
  0
SPLINE
  5
9E
330
70
100
AcDbEntity
  8
Layer 1
100
AcDbSpline
210
0.0
220
0.0
230
1.0
 70
     9
 71
     3
 72
    41
 73
    37
 74
     0
 42
0.0000000001
 43
0.0000000001
 40
0.0
 40
0.0
 40
0.0
 40
0.0
 40
1.0
 40
1.0
 40
1.0
 40
2.0
 40
2.0
 40
2.0
 40
3.0
 40
3.0
 40
3.0
 40
4.0
 40
4.0
 40
4.0
 40
5.0
 40
5.0
 40
5.0
 40
6.0
 40
6.0
 40
6.0
 40
7.0
 40
7.0
 40
7.0
 40
8.0
 40
8.0
 40
8.0
 40
9.0
 40
9.0
 40
9.0
 40
10.0
 40
10.0
 40
10.0
 40
11.0
 40
11.0
 40
11.0
 40
12.0
 40
12.0
 40
12.0
 40
12.0
 10
19.02760518123201
 20
21.06341512929418
 30
0.0
 10
18.82937582517815
 20
21.11867423899551
 30
0.0
 10
18.71441260588889
 20
21.22590456959317
 30
0.0
 10
18.64408282990537
 20
21.42317138353309
 30
0.0
 10
18.64149696886023
 20
21.24221701362145
 30
0.0
 10
18.55504172106589
 20
21.36229551055799
 30
0.0
 10
18.57312863727112
 20
20.65334625086701
 30
0.0
 10
18.02863379005123
 20
21.98170624475551
 30
0.0
 10
17.27999703137277
 20
22.14223071288241
 30
0.0
 10
17.3352561410741
 20
22.68693369898588
 30
0.0
 10
17.35115583511291
 20
22.2049475446157
 30
0.0
 10
18.10115078820117
 20
21.82478363764782
 30
0.0
 10
18.46383455672614
 20
21.10131404499396
 30
0.0
 10
18.45384389031433
 20
21.28431805023447
 30
0.0
 10
18.54413736023297
 20
21.68203564128963
 30
0.0
 10
18.58157060927797
 20
21.95390382879814
 30
0.0
 10
18.63984244112467
 20
21.91492188534821
 30
0.0
 10
18.60267024762856
 20
21.37512956578612
 30
0.0
 10
18.94263160006653
 20
21.27351545726741
 30
0.0
 10
18.96976373826323
 20
21.71529905710768
 30
0.0
 10
19.50368583575285
 20
22.3676945126859
 30
0.0
 10
19.51491475213304
 20
22.80644422371469
 30
0.0
 10
19.51491475213304
 20
22.80644422371469
 30
0.0
 10
19.60527877760544
 20
22.64933111661187
 30
0.0
 10
19.62221211050677
 20
22.39201853984312
 30
0.0
 10
20.20972166161423
 20
23.19851438037881
 30
0.0
 10
19.86266190992794
 20
24.17340868884052
 30
0.0
 10
20.42154303455859
 20
25.26553810542242
 30
0.0
 10
19.93669938026131
 20
24.02116804955026
 30
0.0
 10
20.36936720255637
 20
23.42909345782958
 30
0.0
 10
19.56014791764572
 20
21.97536682825057
 30
0.0
 10
19.56014791764572
 20
21.97536682825057
 30
0.0
 10
19.54559230690595
 20
22.11897560236459
 30
0.0
 10
19.51643169653879
 20
22.40624606725793
 30
0.0
 10
19.44127592067839
 20
22.15027404601054
 30
0.0
 10
19.0086751261594
 20
21.63421661473182
 30
0.0
 10
19.02760518123201
 20
21.06341512929418
 30
0.0
  0
SPLINE
  5
9F
330
70
100
AcDbEntity
  8
Layer 1
100
AcDbSpline
210
0.0
220
0.0
230
1.0
 70
     9
 71
     3
 72
    68
 73
    64
 74
     0
 42
0.0000000001
 43
0.0000000001
 40
0.0
 40
0.0
 40
0.0
 40
0.0
 40
1.0
 40
1.0
 40
1.0
 40
2.0
 40
2.0
 40
2.0
 40
3.0
 40
3.0
 40
3.0
 40
4.0
 40
4.0
 40
4.0
 40
5.0
 40
5.0
 40
5.0
 40
6.0
 40
6.0
 40
6.0
 40
7.0
 40
7.0
 40
7.0
 40
8.0
 40
8.0
 40
8.0
 40
9.0
 40
9.0
 40
9.0
 40
10.0
 40
10.0
 40
10.0
 40
11.0
 40
11.0
 40
11.0
 40
12.0
 40
12.0
 40
12.0
 40
13.0
 40
13.0
 40
13.0
 40
14.0
 40
14.0
 40
14.0
 40
15.0
 40
15.0
 40
15.0
 40
16.0
 40
16.0
 40
16.0
 40
17.0
 40
17.0
 40
17.0
 40
18.0
 40
18.0
 40
18.0
 40
19.0
 40
19.0
 40
19.0
 40
20.0
 40
20.0
 40
20.0
 40
21.0
 40
21.0
 40
21.0
 40
21.0
 10
19.8412871049177
 20
27.91174884346752
 30
0.0
 10
19.77670760656526
 20
28.00893559098808
 30
0.0
 10
19.78463099525201
 20
28.06016597856997
 30
0.0
 10
19.86502249503374
 20
28.0652636173288
 30
0.0
 10
19.89206593695556
 20
28.1390047543364
 30
0.0
 10
19.93736965802199
 20
28.20652994705814
 30
0.0
 10
20.00110248972936
 20
28.26783638182192
 30
0.0
 10
19.97476762929011
 20
28.20582439152058
 30
0.0
 10
19.97948779583635
 20
28.15256200399053
 30
0.0
 10
20.01535118381029
 20
28.10798147735012
 30
0.0
 10
20.02866501680396
 20
28.11196081058191
 30
0.0
 10
20.04976465515456
 20
28.1293950879149
 30
0.0
 10
20.07865362663975
 20
28.16026314268294
 30
0.0
 10
20.12535081989286
 20
28.21035405807169
 30
0.0
 10
20.16860490212269
 20
28.29682341697678
 30
0.0
 10
20.20837706777468
 20
28.41971002495279
 30
0.0
 10
20.21328773431607
 20
28.4660297459933
 30
0.0
 10
20.29710773217764
 20
28.52879949439191
 30
0.0
 10
20.45992172802391
 20
28.60798752014943
 30
0.0
 10
20.49747492151029
 20
28.60409285358212
 30
0.0
 10
20.49645943932034
 20
28.57370810435734
 30
0.0
 10
20.45680317254792
 20
28.51684738358572
 30
0.0
 10
20.43664897861765
 20
28.51023280042114
 30
0.0
 10
20.42374789561344
 20
28.49257627309382
 30
0.0
 10
20.41801172909312
 20
28.46384252382688
 30
0.0
 10
20.43578820086183
 20
28.44215727438011
 30
0.0
 10
20.44157728404747
 20
28.41077063629196
 30
0.0
 10
20.43535832822451
 20
28.36972494289468
 30
0.0
 10
20.36590645264466
 20
28.37914410932105
 30
0.0
 10
20.31474662061652
 20
28.36036999290991
 30
0.0
 10
20.28191359367639
 20
28.31351686099534
 30
0.0
 10
20.27669601047616
 20
28.30983033331161
 30
0.0
 10
20.23793631702056
 20
28.27158922317611
 30
0.0
 10
20.16562443940303
 20
28.19882880836575
 30
0.0
 10
20.19959290133212
 20
28.2186901967479
 30
0.0
 10
20.24234603913028
 20
28.25033436260726
 30
0.0
 10
20.29374928781888
 20
28.29374013927766
 30
0.0
 10
20.33114373130931
 20
28.33768213815661
 30
0.0
 10
20.37708598013722
 20
28.35454915957804
 30
0.0
 10
20.43137847875211
 20
28.34445194353945
 30
0.0
 10
20.45701131143149
 20
28.28569680614953
 30
0.0
 10
20.4551345337016
 20
28.23765552959739
 30
0.0
 10
20.42585045111536
 20
28.2004480583244
 30
0.0
 10
20.32516767590621
 20
28.23582814075512
 30
0.0
 10
20.23289159492704
 20
28.20294572492736
 30
0.0
 10
20.14895165262408
 20
28.10161031084597
 30
0.0
 10
20.21120332828054
 20
28.05132889546209
 30
0.0
 10
20.26372437191821
 20
28.04714142334669
 30
0.0
 10
20.30639284305187
 20
28.08891383894766
 30
0.0
 10
20.29831423214686
 20
28.0814561169157
 30
0.0
 10
20.28170898257049
 20
28.07590692261283
 30
0.0
 10
20.25660884432197
 20
28.07232693742637
 30
0.0
 10
20.28870103794767
 20
28.09251217218919
 30
0.0
 10
20.31743125943692
 20
28.1281011040791
 30
0.0
 10
20.3428065643451
 20
28.17908736442492
 30
0.0
 10
20.35288189742139
 20
28.16637749295842
 30
0.0
 10
20.35131556412801
 20
28.13683517105842
 30
0.0
 10
20.33803348113353
 20
28.09053308890635
 30
0.0
 10
20.39984014622338
 20
27.86884048345109
 30
0.0
 10
20.24582795570812
 20
27.84088284527546
 30
0.0
 10
19.87606443947543
 20
28.0066778132679
 30
0.0
 10
19.89087707587478
 20
27.960961342212
 30
0.0
 10
19.87928479839274
 20
27.92932070413033
 30
0.0
 10
19.8412871049177
 20
27.91174884346752
 30
0.0
  0
SPLINE
  5
A0
330
70
100
AcDbEntity
  8
Layer 1
100
AcDbSpline
210
0.0
220
0.0
230
1.0
 70
     9
 71
     3
 72
    53
 73
    49
 74
     0
 42
0.0000000001
 43
0.0000000001
 40
0.0
 40
0.0
 40
0.0
 40
0.0
 40
1.0
 40
1.0
 40
1.0
 40
2.0
 40
2.0
 40
2.0
 40
3.0
 40
3.0
 40
3.0
 40
4.0
 40
4.0
 40
4.0
 40
5.0
 40
5.0
 40
5.0
 40
6.0
 40
6.0
 40
6.0
 40
7.0
 40
7.0
 40
7.0
 40
8.0
 40
8.0
 40
8.0
 40
9.0
 40
9.0
 40
9.0
 40
10.0
 40
10.0
 40
10.0
 40
11.0
 40
11.0
 40
11.0
 40
12.0
 40
12.0
 40
12.0
 40
13.0
 40
13.0
 40
13.0
 40
14.0
 40
14.0
 40
14.0
 40
15.0
 40
15.0
 40
15.0
 40
16.0
 40
16.0
 40
16.0
 40
16.0
 10
20.48784408842266
 20
30.03213726159412
 30
0.0
 10
20.59548716900979
 20
30.68694571711082
 30
0.0
 10
20.3417376477057
 20
31.05274804111176
 30
0.0
 10
19.72658141339964
 20
31.12951953915312
 30
0.0
 10
19.7580527181523
 20
31.19802545407209
 30
0.0
 10
19.89313485359495
 20
31.33644839498504
 30
0.0
 10
19.96913376832273
 20
31.3650621998106
 30
0.0
 10
19.45910530911241
 20
31.37221026993473
 30
0.0
 10
18.89893301784805
 20
31.5069988073006
 30
0.0
 10
18.63954963557658
 20
31.12959009470691
 30
0.0
 10
18.72516221754094
 20
31.643496380978
 30
0.0
 10
18.90832043427522
 20
31.83025260460927
 30
0.0
 10
18.9412557667683
 20
32.01323843327424
 30
0.0
 10
18.65314216300758
 20
31.98726340615914
 30
0.0
 10
18.43637832872422
 20
31.8350927155969
 30
0.0
 10
18.43637832872422
 20
31.8350927155969
 30
0.0
 10
18.63974013557172
 20
32.27599789879291
 30
0.0
 10
19.04614012520359
 20
32.6072950292297
 30
0.0
 10
19.50349582845744
 20
32.49489650431946
 30
0.0
 10
20.04530554415721
 20
32.36172642438357
 30
0.0
 10
20.5934380504072
 20
32.04019771036423
 30
0.0
 10
21.14782073825192
 20
31.53039150114825
 30
0.0
 10
21.41385045368716
 20
31.32413292307701
 30
0.0
 10
21.55772082794387
 20
31.17203278806852
 30
0.0
 10
21.57945844946215
 20
31.07412284612197
 30
0.0
 10
21.40840709271492
 20
30.53675763760907
 30
0.0
 10
21.09450896183424
 20
30.1673569803666
 30
0.0
 10
20.78157443924904
 20
30.02719484505355
 30
0.0
 10
21.19460666136803
 20
30.1125819369163
 30
0.0
 10
21.51668870106353
 20
30.45881138959765
 30
0.0
 10
21.74778636183441
 20
31.0661465407699
 30
0.0
 10
21.56323067209838
 20
30.20487489607611
 30
0.0
 10
21.0694123513634
 20
30.04478081682715
 30
0.0
 10
20.85162852358619
 20
30.01696076198131
 30
0.0
 10
20.74967222063176
 20
30.00392209564728
 30
0.0
 10
20.6723115837165
 20
29.98073754068322
 30
0.0
 10
20.58157008603151
 20
29.96921304806324
 30
0.0
 10
20.37789384122772
 20
30.00330120677423
 30
0.0
 10
20.37036556364201
 20
29.7149124363539
 30
0.0
 10
20.55894997549749
 20
29.10399306305083
 30
0.0
 10
20.85288794022073
 20
29.08616367461681
 30
0.0
 10
21.08379510099646
 20
29.15913222831078
 30
0.0
 10
21.25175965226688
 20
29.32284227968974
 30
0.0
 10
21.11664277249863
 20
29.13524211780916
 30
0.0
 10
20.84331055034472
 20
29.03388553706165
 30
0.0
 10
20.43177711763083
 20
29.01877959300262
 30
0.0
 10
20.2838432880716
 20
29.70747235321035
 30
0.0
 10
20.30255109314988
 20
30.04526412237034
 30
0.0
 10
20.48784408842266
 20
30.03213726159412
 30
0.0
  0
SPLINE
  5
A1
330
70
100
AcDbEntity
  8
Layer 1
100
AcDbSpline
210
0.0
220
0.0
230
1.0
 70
     9
 71
     3
 72
    17
 73
    13
 74
     0
 42
0.0000000001
 43
0.0000000001
 40
0.0
 40
0.0
 40
0.0
 40
0.0
 40
1.0
 40
1.0
 40
1.0
 40
2.0
 40
2.0
 40
2.0
 40
3.0
 40
3.0
 40
3.0
 40
4.0
 40
4.0
 40
4.0
 40
4.0
 10
16.64265460318828
 20
30.01327499249669
 30
0.0
 10
16.70574890713417
 20
29.86949259907687
 30
0.0
 10
16.73723785077526
 20
29.54141632966901
 30
0.0
 10
16.5830880769302
 20
29.02906306496245
 30
0.0
 10
16.12978275516162
 20
29.0754004248914
 30
0.0
 10
15.83548495711423
 20
29.20209350499252
 30
0.0
 10
15.70017704389955
 20
29.4090929163782
 30
0.0
 10
15.87350028947771
 20
29.22471082602717
 30
0.0
 10
16.12307997755488
 20
29.13100172902845
 30
0.0
 10
16.44895138590784
 20
29.12797136799465
 30
0.0
 10
16.63052610349771
 20
29.4561358318447
 30
0.0
 10
16.6322300201209
 20
29.80355490631463
 30
0.0
 10
16.64265460318828
 20
30.01327499249669
 30
0.0
  0
SPLINE
  5
A2
330
70
100
AcDbEntity
  8
Layer 1
100
AcDbSpline
210
0.0
220
0.0
230
1.0
 70
     9
 71
     3
 72
    65
 73
    61
 74
     0
 42
0.0000000001
 43
0.0000000001
 40
0.0
 40
0.0
 40
0.0
 40
0.0
 40
1.0
 40
1.0
 40
1.0
 40
2.0
 40
2.0
 40
2.0
 40
3.0
 40
3.0
 40
3.0
 40
4.0
 40
4.0
 40
4.0
 40
5.0
 40
5.0
 40
5.0
 40
6.0
 40
6.0
 40
6.0
 40
7.0
 40
7.0
 40
7.0
 40
8.0
 40
8.0
 40
8.0
 40
9.0
 40
9.0
 40
9.0
 40
10.0
 40
10.0
 40
10.0
 40
11.0
 40
11.0
 40
11.0
 40
12.0
 40
12.0
 40
12.0
 40
13.0
 40
13.0
 40
13.0
 40
14.0
 40
14.0
 40
14.0
 40
15.0
 40
15.0
 40
15.0
 40
16.0
 40
16.0
 40
16.0
 40
17.0
 40
17.0
 40
17.0
 40
18.0
 40
18.0
 40
18.0
 40
19.0
 40
19.0
 40
19.0
 40
20.0
 40
20.0
 40
20.0
 40
20.0
 10
17.70138302062231
 20
25.63819554914602
 30
0.0
 10
17.67006693808792
 20
25.62558309623694
 30
0.0
 10
17.60638349526818
 20
25.66243138247329
 30
0.0
 10
17.51042088660527
 20
25.74871312087338
 30
0.0
 10
17.62340194003858
 20
25.68704403911335
 30
0.0
 10
17.7164889646814
 20
25.68277190033346
 30
0.0
 10
17.7896444905928
 20
25.73591499356602
 30
0.0
 10
17.81662140657126
 20
25.83258250762258
 30
0.0
 10
17.88178651601984
 20
25.8883072839787
 30
0.0
 10
17.98512218005019
 20
25.9030851447128
 30
0.0
 10
18.01621248481257
 20
25.92711636632193
 30
0.0
 10
18.09884362159339
 20
25.8798512008611
 30
0.0
 10
18.1130887878966
 20
25.9068069501734
 30
0.0
 10
18.1927742303081
 20
26.0359306691014
 30
0.0
 10
18.27090745053698
 20
25.99305471572395
 30
0.0
 10
18.41598025239142
 20
25.88095186749969
 30
0.0
 10
18.46140391789923
 20
25.85037661827973
 30
0.0
 10
18.56270805091487
 20
25.88634231180661
 30
0.0
 10
18.7798352431087
 20
25.95471064339572
 30
0.0
 10
18.850461352418
 20
26.00823055869698
 30
0.0
 10
18.9312121836912
 20
26.02493811382629
 30
0.0
 10
19.01360343158923
 20
25.96196375432179
 30
0.0
 10
19.24518087012564
 20
25.93628153275477
 30
0.0
 10
19.37359903351608
 20
25.89156342278452
 30
0.0
 10
19.3989355328697
 20
25.65660637322322
 30
0.0
 10
19.37893656115772
 20
25.34462029784931
 30
0.0
 10
19.24385442571503
 20
25.10756069278609
 30
0.0
 10
18.99375968209549
 20
24.94543461358894
 30
0.0
 10
18.86795912974937
 20
24.86490666045045
 30
0.0
 10
18.83774724163125
 20
24.87057517105432
 30
0.0
 10
18.90309932329731
 20
24.96245614093246
 30
0.0
 10
18.97599732143753
 20
25.06584119385045
 30
0.0
 10
18.9750518770172
 20
25.1140235815101
 30
0.0
 10
18.90025946225865
 20
25.10694333169074
 30
0.0
 10
18.74256074405966
 20
25.08582252667401
 30
0.0
 10
18.70387160615781
 20
25.16514813576136
 30
0.0
 10
18.78410738188861
 20
25.34494838117427
 30
0.0
 10
18.80898221751996
 20
25.27978327172566
 30
0.0
 10
18.8798124627803
 20
25.23727002281026
 30
0.0
 10
18.9965819042457
 20
25.21742627331652
 30
0.0
 10
19.1482199003771
 20
25.30164138227916
 30
0.0
 10
19.24454234236415
 20
25.45372387839918
 30
0.0
 10
19.28555628576224
 20
25.67362437278905
 30
0.0
 10
19.25327711991909
 20
25.80669214717199
 30
0.0
 10
19.21544875977305
 20
25.82559110465473
 30
0.0
 10
19.17216292754404
 20
25.73028048245474
 30
0.0
 10
19.18642573273572
 20
25.70128920541659
 30
0.0
 10
19.09099581850371
 20
25.77189832689037
 30
0.0
 10
19.03139754224637
 20
25.75363789852554
 30
0.0
 10
18.92189532281778
 20
25.7999047029007
 30
0.0
 10
18.85893555084081
 20
25.68589110468965
 30
0.0
 10
18.6969465785567
 20
25.59995443804444
 30
0.0
 10
18.63718955230346
 20
25.63013040167645
 30
0.0
 10
18.59987977547753
 20
25.71281445512256
 30
0.0
 10
18.448107723794
 20
25.71093832690561
 30
0.0
 10
18.35486503172838
 20
25.7232884270776
 30
0.0
 10
18.23706195140045
 20
25.69245277135467
 30
0.0
 10
18.12903832880108
 20
25.65273287332204
 30
0.0
 10
18.00567193994302
 20
25.73451734345777
 30
0.0
 10
17.82891923959082
 20
25.69543309445492
 30
0.0
 10
17.70138302062231
 20
25.63819554914602
 30
0.0
  0
SPLINE
  5
A3
330
70
100
AcDbEntity
  8
Layer 1
100
AcDbSpline
210
0.0
220
0.0
230
1.0
 70
     9
 71
     3
 72
    26
 73
    22
 74
     0
 42
0.0000000001
 43
0.0000000001
 40
0.0
 40
0.0
 40
0.0
 40
0.0
 40
1.0
 40
1.0
 40
1.0
 40
2.0
 40
2.0
 40
2.0
 40
3.0
 40
3.0
 40
3.0
 40
4.0
 40
4.0
 40
4.0
 40
5.0
 40
5.0
 40
5.0
 40
6.0
 40
6.0
 40
6.0
 40
7.0
 40
7.0
 40
7.0
 40
7.0
 10
18.44423069611513
 20
24.69608070328386
 30
0.0
 10
18.22205831289434
 20
24.65117209331843
 30
0.0
 10
18.08130749547968
 20
24.67857939817476
 30
0.0
 10
18.02206859577428
 20
24.77826443824989
 30
0.0
 10
18.18071628617128
 20
24.75888572945931
 30
0.0
 10
18.30348294970591
 20
24.75602470175453
 30
0.0
 10
18.39038269748891
 20
24.76975481251535
 30
0.0
 10
18.67960049566591
 20
24.77369886797029
 30
0.0
 10
18.8996385733856
 20
24.76799860491911
 30
0.0
 10
19.05053220842487
 20
24.75273328517183
 30
0.0
 10
18.9838541619207
 20
24.62654114950237
 30
0.0
 10
18.89507362905762
 20
24.53682976290221
 30
0.0
 10
18.78420968744155
 20
24.48357090314984
 30
0.0
 10
18.82949576961954
 20
24.55624312351805
 30
0.0
 10
18.86065662993567
 20
24.61196789987416
 30
0.0
 10
18.87770990727838
 20
24.65074170444052
 30
0.0
 10
18.75871796586967
 20
24.64664304939391
 30
0.0
 10
18.66144302390692
 20
24.64380256572866
 30
0.0
 10
18.58587802583474
 20
24.64223332717279
 30
0.0
 10
18.4914288337999
 20
24.67811373152001
 30
0.0
 10
18.44423069611513
 20
24.69608070328386
 30
0.0
 10
18.44423069611513
 20
24.69608070328386
 30
0.0
  0
SPLINE
  5
A4
330
70
100
AcDbEntity
  8
Layer 1
100
AcDbSpline
210
0.0
220
0.0
230
1.0
 70
     9
 71
     3
 72
    17
 73
    13
 74
     0
 42
0.0000000001
 43
0.0000000001
 40
0.0
 40
0.0
 40
0.0
 40
0.0
 40
1.0
 40
1.0
 40
1.0
 40
2.0
 40
2.0
 40
2.0
 40
3.0
 40
3.0
 40
3.0
 40
4.0
 40
4.0
 40
4.0
 40
4.0
 10
18.10418467701266
 20
25.27408238298221
 30
0.0
 10
18.12619800978438
 20
25.15250458052837
 30
0.0
 10
18.0799316621467
 20
25.08449608226341
 30
0.0
 10
17.96538073610939
 20
25.0700956937419
 30
0.0
 10
17.96353570837869
 20
25.01182386189521
 30
0.0
 10
17.97962590241264
 20
24.94381536363025
 30
0.0
 10
18.01352431821448
 20
24.86609489339084
 30
0.0
 10
17.95807823629569
 20
24.9070911979005
 30
0.0
 10
17.89572123788656
 20
25.01382058406649
 30
0.0
 10
17.82655915631769
 20
25.18623013522351
 30
0.0
 10
17.90323187658383
 20
25.12632141452969
 30
0.0
 10
17.99576548533422
 20
25.15557021933905
 30
0.0
 10
18.10418467701266
 20
25.27408238298221
 30
0.0
  0
SPLINE
  5
A5
330
70
100
AcDbEntity
  8
Layer 1
100
AcDbSpline
210
0.0
220
0.0
230
1.0
 70
     9
 71
     3
 72
    11
 73
     7
 74
     0
 42
0.0000000001
 43
0.0000000001
 40
0.0
 40
0.0
 40
0.0
 40
0.0
 40
1.0
 40
1.0
 40
1.0
 40
2.0
 40
2.0
 40
2.0
 40
2.0
 10
18.4357569741091
 20
25.44961048961523
 30
0.0
 10
18.5210409997111
 20
25.28376260495747
 30
0.0
 10
18.52291777744103
 20
25.14396030296857
 30
0.0
 10
18.44140494618723
 20
25.03027061142459
 30
0.0
 10
18.45112044593937
 20
25.18717910742152
 30
0.0
 10
18.44924366820947
 20
25.32694613163355
 30
0.0
 10
18.4357569741091
 20
25.44961048961523
 30
0.0
  0
SPLINE
  5
A6
330
70
100
AcDbEntity
  8
Layer 1
100
AcDbSpline
210
0.0
220
0.0
230
1.0
 70
     9
 71
     3
 72
    11
 73
     7
 74
     0
 42
0.0000000001
 43
0.0000000001
 40
0.0
 40
0.0
 40
0.0
 40
0.0
 40
1.0
 40
1.0
 40
1.0
 40
2.0
 40
2.0
 40
2.0
 40
2.0
 10
20.48722319954961
 20
25.39340304920721
 30
0.0
 10
20.97000310389954
 20
26.00097744777091
 30
0.0
 10
20.3687815914602
 20
26.73509387348648
 30
0.0
 10
20.61810375176612
 20
27.71561851513788
 30
0.0
 10
20.48615832821179
 20
26.73946831781936
 30
0.0
 10
21.18158509850163
 20
25.81704617468561
 30
0.0
 10
20.48722319954961
 20
25.39340304920721
 30
0.0
  0
SPLINE
  5
A7
330
70
100
AcDbEntity
  8
Layer 1
100
AcDbSpline
210
0.0
220
0.0
230
1.0
 70
     9
 71
     3
 72
    17
 73
    13
 74
     0
 42
0.0000000001
 43
0.0000000001
 40
0.0
 40
0.0
 40
0.0
 40
0.0
 40
1.0
 40
1.0
 40
1.0
 40
2.0
 40
2.0
 40
2.0
 40
3.0
 40
3.0
 40
3.0
 40
4.0
 40
4.0
 40
4.0
 40
4.0
 10
15.63980305164559
 20
30.44944161205891
 30
0.0
 10
15.53607188141956
 20
30.43252591804602
 30
0.0
 10
15.35337885830267
 20
30.51929161027689
 30
0.0
 10
15.24433916285556
 20
30.7258747438954
 30
0.0
 10
15.26838763824875
 20
30.4213640294419
 30
0.0
 10
15.3471064695738
 20
30.13883136998324
 30
0.0
 10
15.48060463283465
 20
29.87832968218475
 30
0.0
 10
15.2259766948863
 20
30.19021345200571
 30
0.0
 10
15.11065364227288
 20
30.67876480065284
 30
0.0
 10
15.13473425276965
 20
31.34399431145919
 30
0.0
 10
15.21095894526944
 20
31.06087604090437
 30
0.0
 10
15.40119435708279
 20
30.63456174622499
 30
0.0
 10
15.63980305164559
 20
30.44944161205891
 30
0.0
  0
HATCH
  5
A8
330
70
100
AcDbEntity
  8
Layer 1
 62
    29
420
  3877660
440
 33554687
100
AcDbHatch
 10
0.0
 20
0.0
 30
0.0
210
0.0
220
0.0
230
1.0
  2
SOLID
 70
     1
 71
     1
 91
       45
 92
        1
 93
        1
 72
     4
 94
        3
 73
     0
 74
     0
 95
       11
 96
        7
 40
0.0
 40
0.0
 40
0.0
 40
0.0
 40
1.0
 40
1.0
 40
1.0
 40
2.0
 40
2.0
 40
2.0
 40
2.0
 10
22.00458443894331
 20
23.70229221629665
 10
22.00213560534542
 20
23.67376600714302
 10
21.99941568874814
 20
23.64563610519972
 10
21.99641707771354
 20
23.61790364745708
 10
21.99920754986457
 20
23.64618584117998
 10
22.00189571646265
 20
23.67433397935075
 10
22.00458443894331
 20
23.70229221629665
 97
        0
 97
        1
330
7B
 92
        1
 93
        1
 72
     4
 94
        3
 73
     0
 74
     0
 95
      920
 96
      916
 40
0.0
 40
0.0
 40
0.0
 40
0.0
 40
1.0
 40
1.0
 40
1.0
 40
2.0
 40
2.0
 40
2.0
 40
3.0
 40
3.0
 40
3.0
 40
4.0
 40
4.0
 40
4.0
 40
5.0
 40
5.0
 40
5.0
 40
6.0
 40
6.0
 40
6.0
 40
7.0
 40
7.0
 40
7.0
 40
8.0
 40
8.0
 40
8.0
 40
9.0
 40
9.0
 40
9.0
 40
10.0
 40
10.0
 40
10.0
 40
11.0
 40
11.0
 40
11.0
 40
12.0
 40
12.0
 40
12.0
 40
13.0
 40
13.0
 40
13.0
 40
14.0
 40
14.0
 40
14.0
 40
15.0
 40
15.0
 40
15.0
 40
16.0
 40
16.0
 40
16.0
 40
17.0
 40
17.0
 40
17.0
 40
18.0
 40
18.0
 40
18.0
 40
19.0
 40
19.0
 40
19.0
 40
20.0
 40
20.0
 40
20.0
 40
21.0
 40
21.0
 40
21.0
 40
22.0
 40
22.0
 40
22.0
 40
23.0
 40
23.0
 40
23.0
 40
24.0
 40
24.0
 40
24.0
 40
25.0
 40
25.0
 40
25.0
 40
26.0
 40
26.0
 40
26.0
 40
27.0
 40
27.0
 40
27.0
 40
28.0
 40
28.0
 40
28.0
 40
29.0
 40
29.0
 40
29.0
 40
30.0
 40
30.0
 40
30.0
 40
31.0
 40
31.0
 40
31.0
 40
32.0
 40
32.0
 40
32.0
 40
33.0
 40
33.0
 40
33.0
 40
34.0
 40
34.0
 40
34.0
 40
35.0
 40
35.0
 40
35.0
 40
36.0
 40
36.0
 40
36.0
 40
37.0
 40
37.0
 40
37.0
 40
38.0
 40
38.0
 40
38.0
 40
39.0
 40
39.0
 40
39.0
 40
40.0
 40
40.0
 40
40.0
 40
41.0
 40
41.0
 40
41.0
 40
42.0
 40
42.0
 40
42.0
 40
43.0
 40
43.0
 40
43.0
 40
44.0
 40
44.0
 40
44.0
 40
45.0
 40
45.0
 40
45.0
 40
46.0
 40
46.0
 40
46.0
 40
47.0
 40
47.0
 40
47.0
 40
48.0
 40
48.0
 40
48.0
 40
49.0
 40
49.0
 40
49.0
 40
50.0
 40
50.0
 40
50.0
 40
51.0
 40
51.0
 40
51.0
 40
52.0
 40
52.0
 40
52.0
 40
53.0
 40
53.0
 40
53.0
 40
54.0
 40
54.0
 40
54.0
 40
55.0
 40
55.0
 40
55.0
 40
56.0
 40
56.0
 40
56.0
 40
57.0
 40
57.0
 40
57.0
 40
58.0
 40
58.0
 40
58.0
 40
59.0
 40
59.0
 40
59.0
 40
60.0
 40
60.0
 40
60.0
 40
61.0
 40
61.0
 40
61.0
 40
62.0
 40
62.0
 40
62.0
 40
63.0
 40
63.0
 40
63.0
 40
64.0
 40
64.0
 40
64.0
 40
65.0
 40
65.0
 40
65.0
 40
66.0
 40
66.0
 40
66.0
 40
67.0
 40
67.0
 40
67.0
 40
68.0
 40
68.0
 40
68.0
 40
69.0
 40
69.0
 40
69.0
 40
70.0
 40
70.0
 40
70.0
 40
71.0
 40
71.0
 40
71.0
 40
72.0
 40
72.0
 40
72.0
 40
73.0
 40
73.0
 40
73.0
 40
74.0
 40
74.0
 40
74.0
 40
75.0
 40
75.0
 40
75.0
 40
76.0
 40
76.0
 40
76.0
 40
77.0
 40
77.0
 40
77.0
 40
78.0
 40
78.0
 40
78.0
 40
79.0
 40
79.0
 40
79.0
 40
80.0
 40
80.0
 40
80.0
 40
81.0
 40
81.0
 40
81.0
 40
82.0
 40
82.0
 40
82.0
 40
83.0
 40
83.0
 40
83.0
 40
84.0
 40
84.0
 40
84.0
 40
85.0
 40
85.0
 40
85.0
 40
86.0
 40
86.0
 40
86.0
 40
87.0
 40
87.0
 40
87.0
 40
88.0
 40
88.0
 40
88.0
 40
89.0
 40
89.0
 40
89.0
 40
90.0
 40
90.0
 40
90.0
 40
91.0
 40
91.0
 40
91.0
 40
92.0
 40
92.0
 40
92.0
 40
93.0
 40
93.0
 40
93.0
 40
94.0
 40
94.0
 40
94.0
 40
95.0
 40
95.0
 40
95.0
 40
96.0
 40
96.0
 40
96.0
 40
97.0
 40
97.0
 40
97.0
 40
98.0
 40
98.0
 40
98.0
 40
99.0
 40
99.0
 40
99.0
 40
100.0
 40
100.0
 40
100.0
 40
101.0
 40
101.0
 40
101.0
 40
102.0
 40
102.0
 40
102.0
 40
103.0
 40
103.0
 40
103.0
 40
104.0
 40
104.0
 40
104.0
 40
105.0
 40
105.0
 40
105.0
 40
106.0
 40
106.0
 40
106.0
 40
107.0
 40
107.0
 40
107.0
 40
108.0
 40
108.0
 40
108.0
 40
109.0
 40
109.0
 40
109.0
 40
110.0
 40
110.0
 40
110.0
 40
111.0
 40
111.0
 40
111.0
 40
112.0
 40
112.0
 40
112.0
 40
113.0
 40
113.0
 40
113.0
 40
114.0
 40
114.0
 40
114.0
 40
115.0
 40
115.0
 40
115.0
 40
116.0
 40
116.0
 40
116.0
 40
117.0
 40
117.0
 40
117.0
 40
118.0
 40
118.0
 40
118.0
 40
119.0
 40
119.0
 40
119.0
 40
120.0
 40
120.0
 40
120.0
 40
121.0
 40
121.0
 40
121.0
 40
122.0
 40
122.0
 40
122.0
 40
123.0
 40
123.0
 40
123.0
 40
124.0
 40
124.0
 40
124.0
 40
125.0
 40
125.0
 40
125.0
 40
126.0
 40
126.0
 40
126.0
 40
127.0
 40
127.0
 40
127.0
 40
128.0
 40
128.0
 40
128.0
 40
129.0
 40
129.0
 40
129.0
 40
130.0
 40
130.0
 40
130.0
 40
131.0
 40
131.0
 40
131.0
 40
132.0
 40
132.0
 40
132.0
 40
133.0
 40
133.0
 40
133.0
 40
134.0
 40
134.0
 40
134.0
 40
135.0
 40
135.0
 40
135.0
 40
136.0
 40
136.0
 40
136.0
 40
137.0
 40
137.0
 40
137.0
 40
138.0
 40
138.0
 40
138.0
 40
139.0
 40
139.0
 40
139.0
 40
140.0
 40
140.0
 40
140.0
 40
141.0
 40
141.0
 40
141.0
 40
142.0
 40
142.0
 40
142.0
 40
143.0
 40
143.0
 40
143.0
 40
144.0
 40
144.0
 40
144.0
 40
145.0
 40
145.0
 40
145.0
 40
146.0
 40
146.0
 40
146.0
 40
147.0
 40
147.0
 40
147.0
 40
148.0
 40
148.0
 40
148.0
 40
149.0
 40
149.0
 40
149.0
 40
150.0
 40
150.0
 40
150.0
 40
151.0
 40
151.0
 40
151.0
 40
152.0
 40
152.0
 40
152.0
 40
153.0
 40
153.0
 40
153.0
 40
154.0
 40
154.0
 40
154.0
 40
155.0
 40
155.0
 40
155.0
 40
156.0
 40
156.0
 40
156.0
 40
157.0
 40
157.0
 40
157.0
 40
158.0
 40
158.0
 40
158.0
 40
159.0
 40
159.0
 40
159.0
 40
160.0
 40
160.0
 40
160.0
 40
161.0
 40
161.0
 40
161.0
 40
162.0
 40
162.0
 40
162.0
 40
163.0
 40
163.0
 40
163.0
 40
164.0
 40
164.0
 40
164.0
 40
165.0
 40
165.0
 40
165.0
 40
166.0
 40
166.0
 40
166.0
 40
167.0
 40
167.0
 40
167.0
 40
168.0
 40
168.0
 40
168.0
 40
169.0
 40
169.0
 40
169.0
 40
170.0
 40
170.0
 40
170.0
 40
171.0
 40
171.0
 40
171.0
 40
172.0
 40
172.0
 40
172.0
 40
173.0
 40
173.0
 40
173.0
 40
174.0
 40
174.0
 40
174.0
 40
175.0
 40
175.0
 40
175.0
 40
176.0
 40
176.0
 40
176.0
 40
177.0
 40
177.0
 40
177.0
 40
178.0
 40
178.0
 40
178.0
 40
179.0
 40
179.0
 40
179.0
 40
180.0
 40
180.0
 40
180.0
 40
181.0
 40
181.0
 40
181.0
 40
182.0
 40
182.0
 40
182.0
 40
183.0
 40
183.0
 40
183.0
 40
184.0
 40
184.0
 40
184.0
 40
185.0
 40
185.0
 40
185.0
 40
186.0
 40
186.0
 40
186.0
 40
187.0
 40
187.0
 40
187.0
 40
188.0
 40
188.0
 40
188.0
 40
189.0
 40
189.0
 40
189.0
 40
190.0
 40
190.0
 40
190.0
 40
191.0
 40
191.0
 40
191.0
 40
192.0
 40
192.0
 40
192.0
 40
193.0
 40
193.0
 40
193.0
 40
194.0
 40
194.0
 40
194.0
 40
195.0
 40
195.0
 40
195.0
 40
196.0
 40
196.0
 40
196.0
 40
197.0
 40
197.0
 40
197.0
 40
198.0
 40
198.0
 40
198.0
 40
199.0
 40
199.0
 40
199.0
 40
200.0
 40
200.0
 40
200.0
 40
201.0
 40
201.0
 40
201.0
 40
202.0
 40
202.0
 40
202.0
 40
203.0
 40
203.0
 40
203.0
 40
204.0
 40
204.0
 40
204.0
 40
205.0
 40
205.0
 40
205.0
 40
206.0
 40
206.0
 40
206.0
 40
207.0
 40
207.0
 40
207.0
 40
208.0
 40
208.0
 40
208.0
 40
209.0
 40
209.0
 40
209.0
 40
210.0
 40
210.0
 40
210.0
 40
211.0
 40
211.0
 40
211.0
 40
212.0
 40
212.0
 40
212.0
 40
213.0
 40
213.0
 40
213.0
 40
214.0
 40
214.0
 40
214.0
 40
215.0
 40
215.0
 40
215.0
 40
216.0
 40
216.0
 40
216.0
 40
217.0
 40
217.0
 40
217.0
 40
218.0
 40
218.0
 40
218.0
 40
219.0
 40
219.0
 40
219.0
 40
220.0
 40
220.0
 40
220.0
 40
221.0
 40
221.0
 40
221.0
 40
222.0
 40
222.0
 40
222.0
 40
223.0
 40
223.0
 40
223.0
 40
224.0
 40
224.0
 40
224.0
 40
225.0
 40
225.0
 40
225.0
 40
226.0
 40
226.0
 40
226.0
 40
227.0
 40
227.0
 40
227.0
 40
228.0
 40
228.0
 40
228.0
 40
229.0
 40
229.0
 40
229.0
 40
230.0
 40
230.0
 40
230.0
 40
231.0
 40
231.0
 40
231.0
 40
232.0
 40
232.0
 40
232.0
 40
233.0
 40
233.0
 40
233.0
 40
234.0
 40
234.0
 40
234.0
 40
235.0
 40
235.0
 40
235.0
 40
236.0
 40
236.0
 40
236.0
 40
237.0
 40
237.0
 40
237.0
 40
238.0
 40
238.0
 40
238.0
 40
239.0
 40
239.0
 40
239.0
 40
240.0
 40
240.0
 40
240.0
 40
241.0
 40
241.0
 40
241.0
 40
242.0
 40
242.0
 40
242.0
 40
243.0
 40
243.0
 40
243.0
 40
244.0
 40
244.0
 40
244.0
 40
245.0
 40
245.0
 40
245.0
 40
246.0
 40
246.0
 40
246.0
 40
247.0
 40
247.0
 40
247.0
 40
248.0
 40
248.0
 40
248.0
 40
249.0
 40
249.0
 40
249.0
 40
250.0
 40
250.0
 40
250.0
 40
251.0
 40
251.0
 40
251.0
 40
252.0
 40
252.0
 40
252.0
 40
253.0
 40
253.0
 40
253.0
 40
254.0
 40
254.0
 40
254.0
 40
255.0
 40
255.0
 40
255.0
 40
256.0
 40
256.0
 40
256.0
 40
257.0
 40
257.0
 40
257.0
 40
258.0
 40
258.0
 40
258.0
 40
259.0
 40
259.0
 40
259.0
 40
260.0
 40
260.0
 40
260.0
 40
261.0
 40
261.0
 40
261.0
 40
262.0
 40
262.0
 40
262.0
 40
263.0
 40
263.0
 40
263.0
 40
264.0
 40
264.0
 40
264.0
 40
265.0
 40
265.0
 40
265.0
 40
266.0
 40
266.0
 40
266.0
 40
267.0
 40
267.0
 40
267.0
 40
268.0
 40
268.0
 40
268.0
 40
269.0
 40
269.0
 40
269.0
 40
270.0
 40
270.0
 40
270.0
 40
271.0
 40
271.0
 40
271.0
 40
272.0
 40
272.0
 40
272.0
 40
273.0
 40
273.0
 40
273.0
 40
274.0
 40
274.0
 40
274.0
 40
275.0
 40
275.0
 40
275.0
 40
276.0
 40
276.0
 40
276.0
 40
277.0
 40
277.0
 40
277.0
 40
278.0
 40
278.0
 40
278.0
 40
279.0
 40
279.0
 40
279.0
 40
280.0
 40
280.0
 40
280.0
 40
281.0
 40
281.0
 40
281.0
 40
282.0
 40
282.0
 40
282.0
 40
283.0
 40
283.0
 40
283.0
 40
284.0
 40
284.0
 40
284.0
 40
285.0
 40
285.0
 40
285.0
 40
286.0
 40
286.0
 40
286.0
 40
287.0
 40
287.0
 40
287.0
 40
288.0
 40
288.0
 40
288.0
 40
289.0
 40
289.0
 40
289.0
 40
290.0
 40
290.0
 40
290.0
 40
291.0
 40
291.0
 40
291.0
 40
292.0
 40
292.0
 40
292.0
 40
293.0
 40
293.0
 40
293.0
 40
294.0
 40
294.0
 40
294.0
 40
295.0
 40
295.0
 40
295.0
 40
296.0
 40
296.0
 40
296.0
 40
297.0
 40
297.0
 40
297.0
 40
298.0
 40
298.0
 40
298.0
 40
299.0
 40
299.0
 40
299.0
 40
300.0
 40
300.0
 40
300.0
 40
301.0
 40
301.0
 40
301.0
 40
302.0
 40
302.0
 40
302.0
 40
303.0
 40
303.0
 40
303.0
 40
304.0
 40
304.0
 40
304.0
 40
305.0
 40
305.0
 40
305.0
 40
305.0
 10
30.14758025864893
 20
15.98775795322942
 10
31.9457167683302
 20
15.60166777387737
 10
33.16741440382876
 20
15.09403075380808
 10
33.51547200606018
 20
14.52793179602825
 10
31.64099791499311
 20
15.40133194041262
 10
27.0261531716165
 20
16.01900388488415
 10
21.62999739261723
 20
16.01900388488415
 10
16.23385925250641
 20
16.01900388488415
 10
11.6190145091298
 20
15.40133194041262
 10
9.744554529173479
 20
14.52793179602825
 10
10.04513882706049
 20
15.01682533911109
 10
10.99733188610135
 20
15.46210496663995
 10
12.40957890562748
 20
15.82315184631776
 10
12.69009367624873
 20
16.21737394737143
 10
12.9406752531892
 20
16.67243610242849
 10
12.71975875882525
 20
17.05866425924166
 10
12.52030526391373
 20
17.3940465562409
 10
12.40880279453618
 20
17.76077668577372
 10
12.36069096243028
 20
18.07886228876979
 10
12.36069096243028
 20
18.07886228876979
 10
12.32433015780236
 20
18.13673900951546
 10
12.32433015780236
 20
18.13673900951546
 10
12.18626705021353
 20
18.35491794839369
 10
12.06329577557301
 20
18.55776516544085
 10
11.93804908432388
 20
18.71682560582733
 10
11.81404064304316
 20
18.87660971750303
 10
11.68791583041134
 20
18.99270888414072
 10
11.58811117658487
 20
19.05978204152222
 10
11.56365309387552
 20
19.07728334663129
 10
11.54088128890092
 20
19.09175429070655
 10
11.52048367831019
 20
19.10336420707702
 10
11.50050234548663
 20
19.11573259565036
 10
11.48305395704288
 20
19.12568798428527
 10
11.46839604075017
 20
19.13271531743932
 10
11.43935184704671
 20
19.14763428928092
 10
11.42385079188662
 20
19.15562470574374
 10
11.42385079188662
 20
19.15562470574374
 10
11.42385079188662
 20
19.15562470574374
 10
11.4404207636861
 20
19.1499066618792
 10
11.47140876289553
 20
19.13926287282783
 10
11.4872558304615
 20
19.13433456739801
 10
11.50613620645401
 20
19.12685920647761
 10
11.52802959478435
 20
19.11738712338593
 10
11.55038864976948
 20
19.10863470694255
 10
11.5754502748839
 20
19.09729995723173
 10
11.6028220095429
 20
19.08317473536987
 10
11.71421864558983
 20
19.02984532006375
 10
11.86246291958558
 20
18.9290778781901
 10
12.01544147123832
 20
18.78276329858956
 10
12.1185869414148
 20
18.68519907885641
 10
12.2228712715019
 20
18.56858133183157
 10
12.33102971913947
 20
18.44359216835365
 10
12.32849646325163
 20
18.60062060879196
 10
12.33843805247095
 20
18.73119071657195
 10
12.35118360156172
 20
18.82489554751468
 10
12.35635179587434
 20
18.87798555083605
 10
12.36573921230148
 20
18.91925654510733
 10
12.36958096220347
 20
18.9474046832781
 10
12.37421293430752
 20
18.97551754367199
 10
12.37674587868735
 20
18.99050354328966
 10
12.37674587868735
 20
18.99050354328966
 10
12.37674587868735
 20
18.99050354328966
 10
12.37684818424029
 20
18.97530940478841
 10
12.37700340645855
 20
18.94678379440505
 10
12.37797001754501
 20
18.91829346179856
 10
12.37567696204795
 20
18.87671154619274
 10
12.37948696195075
 20
18.82375960309921
 10
12.38315585074604
 20
18.71813441134949
 10
12.39822651702822
 20
18.56748066519299
 10
12.43495068275797
 20
18.39198783633685
 10
12.44108196037933
 20
18.36146197600452
 10
12.44813046019951
 20
18.33011414347094
 10
12.45600093222094
 20
18.29824419983956
 10
12.45600093222094
 20
18.29824419983956
 10
12.49398451458523
 20
18.25425281207299
 10
12.49398451458523
 20
18.25425281207299
 10
12.66291214916442
 20
18.05677840044431
 10
12.84154117238499
 20
17.85299985008758
 10
13.02297830664503
 20
17.63699402226501
 10
13.1032493601527
 20
17.53880891365881
 10
13.1839155247614
 20
17.43332130523892
 10
13.25092213416303
 20
17.31725389153338
 10
13.2989281329383
 20
17.39135838964281
 10
13.33739502084585
 20
17.4659109155186
 10
13.36758927007549
 20
17.54483832894714
 10
13.28320130000619
 20
17.67041266030132
 10
13.20465532978784
 20
17.79753612928035
 10
13.13654452596994
 20
17.92438443159974
 10
13.01595097349098
 20
18.14586889817142
 10
12.9316123923093
 20
18.36811183694598
 10
12.887550448989
 20
18.56338138751979
 10
12.84253953347063
 20
18.75895832864359
 10
12.84216206125804
 20
18.92656305082392
 10
12.85428703317093
 20
19.04031929201876
 10
12.85690817199294
 20
19.09761040166825
 10
12.86839461614434
 20
19.14164059498939
 10
12.87285725491938
 20
19.17171489977769
 10
12.87823006033786
 20
19.20165162123616
 10
12.88110872693109
 20
19.2176399951956
 10
12.88110872693109
 20
19.2176399951956
 10
12.88110872693109
 20
19.2176399951956
 10
12.88085119915988
 20
19.20137693964407
 10
12.88024794917527
 20
19.17092114979794
 10
12.8805583936118
 20
19.14053640057312
 10
12.87621569927815
 20
19.09626631836921
 10
12.88253747689464
 20
19.04000884758223
 10
12.88851706007542
 20
18.92797416193464
 10
12.91469669829641
 20
18.76836291006805
 10
12.98635644646822
 20
18.59156127568975
 10
13.05720480577184
 20
18.41458678020475
 10
13.16815341405242
 20
18.22069659070686
 10
13.3138471047799
 20
18.03073281777546
 10
13.35587704815208
 20
17.97523381919135
 10
13.40054224145702
 20
17.9200099872669
 10
13.44730999026387
 20
17.86502604422521
 10
13.45118701794274
 20
17.89385857126741
 10
13.45427029564185
 20
17.92280045941793
 10
13.4564222400314
 20
17.95170354201388
 10
13.47578268398192
 20
18.18411000830692
 10
13.46105421213545
 20
18.41086497474415
 10
13.45354710121586
 20
18.60537605311509
 10
13.4460011847417
 20
18.77270207662402
 10
13.44403621256961
 20
18.91712223960622
 10
13.44805082357831
 20
19.02667737570013
 10
13.16510541413018
 20
19.23410717596371
 10
12.87063475497608
 20
19.40229397722846
 10
12.56458945722839
 20
19.53107197394306
 10
12.52159643054746
 20
19.47364328096374
 10
12.44585504359089
 20
19.44535805069422
 10
12.37295704545068
 20
19.46616792004334
 10
12.37295704545068
 20
19.46616792004334
 10
11.74531277484145
 20
19.64544958213615
 10
11.74531277484145
 20
19.64544958213615
 10
11.65117373053157
 20
19.67232066478395
 10
11.59614039860225
 20
19.77136655114597
 10
11.62301148125005
 20
19.86548765985585
 10
11.62301148125005
 20
19.86548765985585
 10
11.62301148125005
 20
19.86552293763273
 10
11.62301148125005
 20
19.86552293763273
 10
11.64991784167472
 20
19.95971107411868
 10
11.74891110817388
 20
20.01473029493725
 10
11.84308483674662
 20
19.98785971722522
 10
11.84308483674662
 20
19.98785971722522
 10
12.47072971910454
 20
19.80850749504788
 10
12.47072971910454
 20
19.80850749504788
 10
12.55821860797154
 20
19.78356207861261
 10
12.61192517824301
 20
19.69633424750465
 10
12.59752478972151
 20
19.60858832843121
 10
12.88641450457351
 20
19.50736883565889
 10
13.17471508055168
 20
19.35575249516104
 10
13.45614707337175
 20
19.16162192781296
 10
13.45788626777183
 20
19.18015687178454
 10
13.45967837883722
 20
19.19610595471098
 10
13.46102246213626
 20
19.20937039881702
 10
13.46412337872381
 20
19.23961805074565
 10
13.46580999663353
 20
19.25570775874597
 10
13.46580999663353
 20
19.25570775874597
 10
13.46580999663353
 20
19.25570775874597
 10
13.46668807310283
 20
19.23951525915907
 10
13.4684272675029
 20
19.20919753771032
 10
13.46930568414716
 20
19.1933860381137
 10
13.47020173967985
 20
19.17381745527961
 10
13.47185626741542
 20
19.15076695586767
 10
13.52136157170799
 20
19.11628292896965
 10
13.57060934822935
 20
19.08059240210242
 10
13.61961723586798
 20
19.04355779193614
 10
13.61961723586798
 20
19.04355779193614
 10
13.59143416326881
 20
19.13113134525751
 10
13.59143416326881
 20
19.13113134525751
 10
13.57572462587663
 20
19.17192303866127
 10
13.56073862625895
 20
19.21060864878542
 10
13.54673721883555
 20
19.24699110629939
 10
13.51925901620608
 20
19.32023434043309
 10
13.49406010018229
 20
19.38382958881064
 10
13.46920337859421
 20
19.43436853196573
 10
13.4220757964632
 20
19.53713622378835
 10
13.39518707492697
 20
19.59577141673689
 10
13.39518707492697
 20
19.59577141673689
 10
13.39518707492697
 20
19.59577141673689
 10
13.43118804623073
 20
19.54175408478165
 10
13.49431762795349
 20
19.44708264275247
 10
13.52728823822346
 20
19.40033253283406
 10
13.56254837621278
 20
19.34093886768265
 10
13.60189015298687
 20
19.27189721740427
 10
13.62188912469888
 20
19.23744798143403
 10
13.64317926304461
 20
19.20079084348035
 10
13.66562651247193
 20
19.1621017055785
 10
13.68584773417827
 20
19.12231190103806
 10
13.707137872524
 20
19.08055712432554
 10
13.72942989973306
 20
19.03690793099468
 10
13.75130564917496
 20
18.99515315428216
 10
13.77287095418034
 20
18.95122879429164
 10
13.79421400919139
 20
18.90533946212905
 10
13.82957645273366
 20
18.87609065731969
 10
13.86476956294692
 20
18.84615393586122
 10
13.89980745094192
 20
18.81562807552889
 10
13.89980745094192
 20
18.81562807552889
 10
13.9025273675392
 20
18.84288015816696
 10
13.9025273675392
 20
18.84288015816696
 10
13.93067550570997
 20
19.11669567895912
 10
13.91673725606556
 20
19.37259714465276
 10
13.84921559112151
 20
19.58261280596148
 10
13.78608248162106
 20
19.79372610616269
 10
13.67866517880595
 20
19.95151251877229
 10
13.58740509780086
 20
20.04673429412076
 10
13.54113829342567
 20
20.09393243180552
 10
13.50065704445843
 20
20.12783084760736
 10
13.47177194107651
 20
20.14915626372998
 10
13.4424522403878
 20
20.17024179096981
 10
13.42682805219885
 20
20.18143895735082
 10
13.42682805219885
 20
20.18143895735082
 10
13.42682805219885
 20
20.18143895735082
 10
13.44391626812823
 20
20.17230906869485
 10
13.47587087842411
 20
20.15511820802232
 10
13.5077372942778
 20
20.13747931958343
 10
13.55300573756735
 20
20.10874557031649
 10
13.60683609730513
 20
20.06664859916825
 10
13.71299398348571
 20
19.98175968466728
 10
13.84807611892836
 20
19.83234771625687
 10
13.94574617199215
 20
19.61740777287345
 10
13.95093200519318
 20
19.60662286090449
 10
13.9559767272867
 20
19.59570438896082
 10
13.96088739382809
 20
19.58457425035588
 10
13.96088739382809
 20
19.58457425035588
 10
13.96002661607227
 20
19.59263522237245
 10
13.96002661607227
 20
19.59263522237245
 10
13.96002661607227
 20
19.59263522237245
 10
13.95949039386373
 20
19.7896263284579
 10
13.95949039386373
 20
19.7896263284579
 10
13.55145351538473
 20
20.27452289942049
 10
13.10261083239121
 20
20.68015082816332
 10
12.61289178932943
 20
21.00647027252618
 10
12.53637429128155
 20
20.93677496585837
 10
12.42136168310466
 20
20.91727693857803
 10
12.32377629670541
 20
20.96657410398702
 10
12.32377629670541
 20
20.96657410398702
 10
11.48322681814959
 20
21.39101162093649
 10
11.48322681814959
 20
21.39101162093649
 10
11.35710171025619
 20
21.45469506375624
 10
11.306044183781
 20
21.6098966612642
 10
11.36972762660074
 20
21.73596830658036
 10
11.36972762660074
 20
21.73596830658036
 10
11.36974555271313
 20
21.73600358435724
 10
11.36974555271313
 20
21.73600358435724
 10
11.43342870830893
 20
21.86212869225063
 10
11.58862975990498
 20
21.91318269094813
 10
11.71470195113305
 20
21.84951688701683
 10
11.71470195113305
 20
21.84951688701683
 10
12.55530434635417
 20
21.42501234229129
 10
12.55530434635417
 20
21.42501234229129
 10
12.6724406766991
 20
21.36591148268796
 10
12.72480348091877
 20
21.227714319547
 10
12.68060395426862
 20
21.10730773928549
 10
13.69476948395065
 20
20.51802422654159
 10
14.60730679400322
 20
19.4265827266088
 10
15.28637224890104
 20
18.07172912228511
 10
15.32514605346739
 20
18.34223911538382
 10
15.37925157986482
 20
18.59989741436597
 10
15.40233382927595
 20
18.84288015816696
 10
15.43051371744594
 20
19.11669567895912
 10
15.41656135669075
 20
19.37259714465276
 10
15.34907144174589
 20
19.58261280596148
 10
15.28592422113469
 20
19.79372610616269
 10
15.17850339054189
 20
19.95151251877229
 10
15.08726094842524
 20
20.04673429412076
 10
15.04094122738473
 20
20.09393243180552
 10
15.00053053397125
 20
20.12783084760736
 10
14.97157453470998
 20
20.14915626372998
 10
14.94232610737552
 20
20.17024179096981
 10
14.92663417474542
 20
20.18143895735082
 10
14.92663417474542
 20
20.18143895735082
 10
14.92663417474542
 20
20.18143895735082
 10
14.94370509097654
 20
20.17230906869485
 10
14.97570909016005
 20
20.15511820802232
 10
15.00761078379061
 20
20.13747931958343
 10
15.05287922708016
 20
20.10874557031649
 10
15.10670958681795
 20
20.06664859916825
 10
15.21287138508566
 20
19.98175968466728
 10
15.34791785844199
 20
19.83234771625687
 10
15.44558438372812
 20
19.61740777287345
 10
15.54785465889673
 20
19.4047069771669
 10
15.60144160197406
 20
19.12771998423343
 10
15.61084665728967
 20
18.83753910274767
 10
15.62266471254373
 20
18.54635986017627
 10
15.59722277387848
 20
18.24143639573329
 10
15.60144160197406
 20
17.94856734764945
 10
15.60266574083172
 20
17.71626671468704
 10
15.62007885149858
 20
17.48609685944806
 10
15.64929590630875
 20
17.26767803168705
 10
15.67084357242569
 20
17.21438389415781
 10
15.69203140521848
 20
17.16081106219123
 10
15.71287351579786
 20
17.1069665913427
 10
15.72739384876075
 20
17.21889592182047
 10
15.74389679278417
 20
17.33237747448087
 10
15.76081248679706
 20
17.44671980489709
 10
15.76653101442895
 20
17.61584146724911
 10
15.76742706996164
 20
17.78165407412998
 10
15.76344773672983
 20
17.94419290331661
 10
15.75276915366893
 20
17.94915295874562
 10
15.74249979281981
 20
17.95373554196204
 10
15.73269962640317
 20
17.95793712518818
 10
15.69589079400891
 20
17.9758547080644
 10
15.66481499608381
 20
17.98477645783679
 10
15.64417749608896
 20
17.99287270763024
 10
15.6233349903044
 20
18.00038334632752
 10
15.61220837947716
 20
18.00441206844696
 10
15.61220837947716
 20
18.00441206844696
 10
15.61220837947716
 20
18.00441206844696
 10
15.62393824028901
 20
18.00282809626514
 10
15.6459339341723
 20
17.99979773523134
 10
15.66782732250264
 20
17.99628406865432
 10
15.70098843276774
 20
17.99390634649276
 10
15.7416072650648
 20
17.98398270785704
 10
15.7416072650648
 20
17.98398270785704
 10
15.7625344405038
 20
17.97967881907795
 10
15.7625344405038
 20
17.97967881907795
 10
15.73399079303689
 20
18.96552687726021
 10
15.52547796502317
 20
19.82972657743486
 10
15.13705944066019
 20
20.57235200293335
 10
15.05325669929276
 20
20.55202494789638
 10
14.96141138514853
 20
20.58389489152776
 10
14.90980314739701
 20
20.65892719516908
 10
14.90980314739701
 20
20.65892719516908
 10
14.4654901309546
 20
21.30560765089311
 10
14.4654901309546
 20
21.30560765089311
 10
14.39884688265481
 20
21.40260443909379
 10
14.42365068757757
 20
21.53647953389196
 10
14.52064693510299
 20
21.60312630996944
 10
14.52064693510299
 20
21.60312630996944
 10
14.52068221287986
 20
21.60312630996944
 10
14.52068221287986
 20
21.60312630996944
 10
14.61771373818216
 20
21.66980483604611
 10
14.75155409587872
 20
21.64500103112335
 10
14.81821498306695
 20
21.54800478359793
 10
14.81821498306695
 20
21.54800478359793
 10
15.26253152728704
 20
20.90128905009702
 10
15.26253152728704
 20
20.90128905009702
 10
15.32445499616889
 20
20.81120019128427
 10
15.30743660947475
 20
20.68924491661783
 10
15.22694330597275
 20
20.61896452952194
 10
15.583940296865
 20
20.02775132238283
 10
15.80339276348852
 20
19.27358653606762
 10
15.88521603917882
 20
18.43670241852942
 10
15.88521603917882
 20
18.43670241852942
 10
15.94581267652175
 20
18.93979221748728
 10
15.94581267652175
 20
18.93979221748728
 10
15.97969698121285
 20
19.23348628709066
 10
15.99667970300181
 20
19.50175614135764
 10
15.95086092639296
 20
19.72644383006982
 10
15.90769503860533
 20
19.95061646323959
 10
15.79974151358171
 20
20.12125154221966
 10
15.70164107163998
 20
20.21705943939019
 10
15.65287660066184
 20
20.26570345520105
 10
15.60807382402708
 20
20.29812373215172
 10
15.57627443594946
 20
20.31810506497528
 10
15.54423555166949
 20
20.33777595336233
 10
15.5262187983376
 20
20.3472515642317
 10
15.5262187983376
 20
20.3472515642317
 10
15.5262187983376
 20
20.3472515642317
 10
15.54518413118709
 20
20.34011839774701
 10
15.57996096363319
 20
20.32433916158557
 10
15.61444851830889
 20
20.30825249492292
 10
15.66395382260146
 20
20.28113748258507
 10
15.72073027384761
 20
20.23728367814833
 10
15.83436312380952
 20
20.15122354145501
 10
15.97211578696182
 20
19.98710074008657
 10
16.05058061829335
 20
19.75166038498205
 10
16.13126442179049
 20
19.51787808539078
 10
16.14971117131987
 20
19.22821578722512
 10
16.15431139342473
 20
18.93383027304433
 10
16.15756753223055
 20
18.63679444120242
 10
16.16099300436538
 20
18.31995061595245
 10
16.16445728205478
 20
18.00306798514791
 10
16.16471480982599
 20
17.94091912562235
 10
16.165663782024
 20
17.87856212721321
 10
16.16650692089138
 20
17.81641326768765
 10
16.18705622592267
 20
17.80411543466806
 10
16.20784894761443
 20
17.79109440722248
 10
16.22869105819382
 20
17.77731137979633
 10
16.29197586213484
 20
18.41369072467205
 10
16.3779654432744
 20
18.93197065589408
 10
16.3779654432744
 20
18.93197065589408
 10
16.3779654432744
 20
18.93197065589408
 10
16.3977915538797
 20
18.29380272773065
 10
16.47492994080063
 20
17.58083885703098
 10
16.47492994080063
 20
17.58083885703098
 10
16.47992527400652
 20
17.57598110715492
 10
16.47992527400652
 20
17.57598110715492
 10
16.55008218888333
 20
17.50869933109364
 10
16.61726165939166
 20
17.43325074968516
 10
16.67960101891237
 20
17.35160033510157
 10
16.66647415813615
 20
17.57932191262524
 10
16.66588854703998
 20
17.80497666221544
 10
16.67608777360874
 20
18.01722848478665
 10
16.68972926865398
 20
18.26648055098896
 10
16.70826421262555
 20
18.49058569493252
 10
16.69200468526259
 20
18.68254666199606
 10
16.68451168545375
 20
18.77818071537314
 10
16.66945555138821
 20
18.86492876871557
 10
16.64832021415485
 20
18.94020448901734
 10
16.62525560363217
 20
19.01454887600955
 10
16.59929821540551
 20
19.07856040215426
 10
16.57018699392597
 20
19.12748009535066
 10
16.54181660576087
 20
19.17681253853652
 10
16.5153723842133
 20
19.21412231536245
 10
16.49470313474061
 20
19.23713753699751
 10
16.47458421858723
 20
19.26094298083462
 10
16.46387035774945
 20
19.27365356384369
 10
16.46387035774945
 20
19.27365356384369
 10
16.46387035774945
 20
19.27365356384369
 10
16.47644335742868
 20
19.26266453634626
 10
16.50014649571286
 20
19.24199528687358
 10
16.52450227286927
 20
19.22194388408339
 10
16.55688727204305
 20
19.18863059379058
 10
16.5939042433209
 20
19.14250137274521
 10
16.63169732569005
 20
19.09664731835949
 10
16.66902474140441
 20
19.03480537549276
 10
16.70549137936299
 20
18.9603591619266
 10
16.74001110692612
 20
18.88518526819878
 10
16.77019082215678
 20
18.79644049268507
 10
16.79377048822188
 20
18.69787791186628
 10
16.84227743142881
 20
18.50085152800395
 10
16.85969406987337
 20
18.26465622847424
 10
16.88461781923751
 20
18.02301756797229
 10
16.89769176334841
 20
17.90323187658383
 10
16.91497081846314
 20
17.779999995555
 10
16.93633194021036
 20
17.65576885511936
 10
16.94461473437353
 20
17.72601396443837
 10
16.95474298411516
 20
17.7961572177732
 10
16.96654340048075
 20
17.86581626642727
 10
17.00281953844415
 20
18.08392464975175
 10
17.05688978706471
 20
18.29803958873367
 10
17.1176451744036
 20
18.50071394467413
 10
17.103125273502
 20
18.57140708175948
 10
17.08588106410285
 20
18.64089371887562
 10
17.06588209239085
 20
18.70904027310048
 10
16.91915476280084
 20
18.94451190557412
 10
16.78979468276776
 20
19.22163295405973
 10
16.67789710228917
 20
19.54037472370573
 10
16.65155871407223
 20
19.44301511507847
 10
16.6227932148061
 20
19.33921378439332
 10
16.59154416004777
 20
19.22900600942718
 10
16.59538590994976
 20
19.37824864450858
 10
16.57538693823776
 20
19.57513391726339
 10
16.53161780046551
 20
19.819668883247
 10
16.52495030063565
 20
19.79114327286364
 10
16.49780405132817
 20
19.75121638395109
 10
16.45021080254238
 20
19.69995021963462
 10
16.44530055144423
 20
19.83155396627713
 10
16.43103733080931
 20
19.98561907345771
 10
16.40740474807889
 20
20.16221256895244
 10
16.40602538700298
 20
20.14554029160001
 10
16.37464227669251
 20
20.09989084832017
 10
16.31325188936983
 20
20.02523601689144
 10
16.32296386134427
 20
20.10220154270566
 10
16.33578027768396
 20
20.23345956713477
 10
16.35173288838809
 20
20.41908064573252
 10
16.33435194036084
 20
20.39933971712238
 10
16.29724636200038
 20
20.35510439736469
 10
16.24042091900567
 20
20.2864115102283
 10
16.27382191815354
 20
20.4367195341714
 10
16.29238861212431
 20
20.59367741905596
 10
16.29607555148152
 20
20.75721813710591
 10
16.28181233461636
 20
20.73437577657756
 10
16.23761280796624
 20
20.69441311093042
 10
16.16342364319226
 20
20.63739716794058
 10
16.21442825300213
 20
20.90918068878458
 10
16.24291858560862
 20
21.33232351132264
 10
16.24891227990015
 20
21.90670569111337
 10
16.24891227990015
 20
21.90670569111337
 10
16.24894755767703
 20
21.91153169099025
 10
16.24894755767703
 20
21.91153169099025
 10
16.25075730763086
 20
22.0964613251612
 10
16.26460383505538
 20
22.27696712611166
 10
16.29058238994817
 20
22.45306320495241
 10
16.30737461174199
 20
22.98452291361597
 10
16.17203494852812
 20
23.5071279002832
 10
15.88457751141733
 20
24.02087463717643
 10
15.8607191509149
 20
23.96332599975573
 10
15.83519215156614
 20
23.90563625122752
 10
15.80802826337026
 20
23.84775953048185
 10
15.81226512437328
 20
23.92110555638842
 10
15.79371254151326
 20
24.00387427649903
 10
15.75237051479024
 20
24.09601277414838
 10
15.7424151261553
 20
24.06740249710052
 10
15.70102371054462
 20
24.0131770262617
 10
15.62826329573423
 20
23.93333636163194
 10
15.66119862822731
 20
24.0980306629858
 10
15.67546143341899
 20
24.2834612415884
 10
15.67106582242002
 20
24.48975509743652
 10
15.64914068409049
 20
24.39621959982281
 10
15.56640371397906
 20
24.29918807452051
 10
15.42281257875349
 20
24.1986957993065
 10
15.53407163147059
 20
24.39136184994674
 10
15.61398285165411
 20
24.62250889960524
 10
15.66252507263791
 20
24.89210582711031
 10
15.61658282381
 20
24.85820678248098
 10
15.55665646422774
 20
24.8125432280904
 10
15.48275657722419
 20
24.75518156288714
 10
15.5749656304273
 20
24.94297222476291
 10
15.67196187795271
 20
25.30468938220137
 10
15.77371356980126
 20
25.84017781298436
 10
15.79886309693742
 20
26.04042505787563
 10
15.83484642935274
 20
26.24814832677131
 10
15.88211512259126
 20
26.46467207482996
 10
15.88211512259126
 20
26.46467207482996
 10
15.88230249602943
 20
26.46598088035213
 10
15.88230249602943
 20
26.46598088035213
 10
15.97745684238111
 20
26.90137214702219
 10
16.11825750545565
 20
27.37269382944218
 10
16.3092196394727
 20
27.89178514953239
 10
15.45096110724835
 20
27.90268951036531
 10
15.0593033102496
 20
28.35024102672509
 10
15.00606208938568
 20
28.8788573465723
 10
15.09871564257745
 20
29.12097931261748
 10
15.29429563758778
 20
29.32384416855308
 10
15.59279501886132
 20
29.48746602548984
 10
15.14598471843572
 20
30.05385778881776
 10
15.00266836725004
 20
30.67581910628354
 10
14.97677800679945
 20
31.30494534023319
 10
14.9637044407035
 20
31.62308033211689
 10
15.17840108498895
 20
31.59659024945938
 10
15.20384341767319
 20
31.47285776990957
 10
15.3885508018498
 20
30.57467066441961
 10
15.95983559283067
 20
30.21765603463892
 10
16.30925491724957
 20
30.16663378594061
 10
16.30096816746099
 20
30.5908631640065
 10
16.3976049959006
 20
30.9688574876964
 10
16.56491296628275
 20
31.29595303490705
 10
16.79213712715244
 20
31.75480402320079
 10
16.97505240026366
 20
32.0777658253139
 10
17.11359881339572
 20
32.26486776018798
 10
17.08507320301236
 20
32.13550415237721
 10
17.07079275893223
 20
32.07082234847182
 10
17.07079275893223
 20
32.07082234847182
 10
17.24948880992888
 20
32.27482749193131
 10
17.45066738812971
 20
32.45135314431923
 10
17.67426852131406
 20
32.60037082518322
 10
17.62653768919844
 20
32.51103961501872
 10
17.59515457888798
 20
32.4544187831299
 10
17.5800808289383
 20
32.430614158559
 10
17.76635763007579
 20
32.58419514093014
 10
17.94326157000706
 20
32.70012144352818
 10
18.11084864906487
 20
32.77825819153474
 10
18.0254094012446
 20
32.6851354439105
 10
17.98401798563392
 20
32.62718816761108
 10
17.986706152232
 20
32.60441636263648
 10
18.23082484044846
 20
32.75088616445528
 10
18.43057114090807
 20
32.84254135656141
 10
18.58594505361081
 20
32.87930080006804
 10
18.53860933259623
 20
32.82171688487049
 10
18.51006608332442
 20
32.78934952458514
 10
18.50036822246073
 20
32.78226927476574
 10
18.62928380250515
 20
32.81811502385124
 10
18.70920913379942
 20
32.86123152275125
 10
18.74004543856827
 20
32.91165052146495
 10
18.80746527307591
 20
32.85363621738947
 10
18.85884687998184
 20
32.82263057929159
 10
18.89414277305425
 20
32.81866971401754
 10
18.90272185108472
 20
32.87525526955896
 10
18.90699398986462
 20
32.9035542716715
 10
18.90699398986462
 20
32.9035542716715
 10
19.10470829037606
 20
32.8212159404388
 10
19.2188424819087
 20
32.76061930309586
 10
19.24938598112947
 20
32.7216726374228
 10
19.25796249518552
 20
32.8051963019586
 10
19.26223414746835
 20
32.84696871755957
 10
19.26223414746835
 20
32.84696871755957
 10
19.46845744776271
 20
32.72224060963053
 10
19.59830436111671
 20
32.68649716609798
 10
19.67743594243122
 20
32.61988566779738
 10
19.70277596956252
 20
32.64507047271042
 10
19.70739383055583
 20
32.68122749182969
 10
19.70739383055583
 20
32.68122749182969
 10
19.77391713441423
 20
32.61451286237889
 10
19.83289804957617
 20
32.55896094712948
 10
19.88421360614005
 20
32.51295249187177
 10
20.47110125551647
 20
32.2442831773798
 10
21.0211276581508
 20
31.759129078646
 10
21.64984114211098
 20
31.18543481550438
 10
21.69335275211202
 20
31.15511709405563
 10
21.7150909182241
 20
31.13994138110391
 10
21.7150909182241
 20
31.13994138110391
 10
21.8091767491571
 20
31.42540130938233
 10
21.87787316407117
 20
31.55665933381144
 10
21.92114135741176
 20
31.53371466773013
 10
22.0067887441156
 20
31.54782304766861
 10
22.04392565983482
 20
31.46664103055244
 10
22.03266146567775
 20
31.29016395172141
 10
22.03238332782527
 20
31.08830098464914
 10
22.02335871591508
 20
30.92097221449197
 10
22.00561752192326
 20
30.78811179786316
 10
22.83567538963561
 20
29.9297152919849
 10
22.99373804980709
 20
29.88521943200897
 10
24.31196921308333
 20
29.74817585217192
 10
24.86311744902236
 20
29.73393068586867
 10
25.47716948891214
 20
29.42078749941318
 10
26.15413304901704
 20
28.80859459836485
 10
26.80139492735056
 20
28.15779722607919
 10
27.21139677800165
 20
27.13670666879604
 10
27.38423671803658
 20
25.74561220428582
 10
27.47749352121296
 20
25.53971345953874
 10
27.54464193755827
 20
25.37851871365115
 10
27.58560226845487
 20
25.26205618884459
 10
27.51852510349949
 20
25.30841118766197
 10
27.48500415991023
 20
25.33161338151448
 10
27.48500415991023
 20
25.33161338151448
 10
27.59342335158868
 20
25.04837516651826
 10
27.64761354465061
 20
24.90676664235322
 10
27.64761354465061
 20
24.90676664235322
 10
27.56479543565237
 20
24.99380397346605
 10
27.52341813115244
 20
25.03731558346709
 10
27.52341813115244
 20
25.03731558346709
 10
27.60551657350238
 20
24.76964897918472
 10
27.64113654481585
 20
24.60199487235082
 10
27.63028510064825
 20
24.53433209629926
 10
27.55611357476275
 20
24.6456087879048
 10
27.51900840904272
 20
24.70126653648486
 10
27.51900840904272
 20
24.70126653648486
 10
27.56465785232255
 20
24.42447004354652
 10
27.58749668507321
 20
24.28609649152117
 10
27.58749668507321
 20
24.28609649152117
 10
27.58749668507321
 20
24.28609649152117
 10
27.47332721576369
 20
24.50477284705338
 10
27.47332721576369
 20
24.50477284705338
 10
27.47498174349926
 20
24.43947368205264
 10
27.47629054902143
 20
24.37356773928959
 10
27.47718660455412
 20
24.30702679654275
 10
27.54911799160789
 20
23.72744114466254
 10
27.5218694367475
 20
23.16249577018661
 10
27.39543388441759
 20
22.61222947866952
 10
27.33779705255469
 20
22.35012617980077
 10
27.35391899658783
 20
22.01817288271405
 10
27.44376796651781
 20
21.6163554762986
 10
27.48745243762555
 20
21.17932732078145
 10
27.4462832720092
 20
20.5912996968944
 10
27.32033102522251
 20
19.85229377130357
 10
27.35126610776662
 20
19.61719913841244
 10
27.36904257953533
 20
19.39109681084746
 10
27.37362516275175
 20
19.17409262193925
 10
27.38072305145955
 20
19.1274095397969
 10
27.38768335683754
 20
19.08059240210242
 10
27.39453782888489
 20
19.03360240330123
 10
27.52517496444095
 20
18.90120490667898
 10
27.65436571114502
 20
18.74186929963286
 10
27.77680499305579
 20
18.56654933188342
 10
27.85893448370381
 20
18.4488313842767
 10
27.93751925947673
 20
18.32380693986352
 10
28.01451653529014
 20
18.19558234134757
 10
28.03763406247814
 20
18.15699550899867
 10
28.06057943742929
 20
18.11806693991495
 10
28.08331525575716
 20
18.07882701099291
 10
28.08717464454759
 20
18.10790295469557
 10
28.09055072779479
 20
18.1368413150684
 10
28.09340822772189
 20
18.16574792544205
 10
27.95019809248659
 20
18.55311249536175
 10
27.79861301302052
 20
18.9233911005574
 10
27.67655190502344
 20
19.21357198204316
 10
27.67655190502344
 20
19.21357198204316
 10
27.52586288109006
 20
19.56855461187569
 10
27.52586288109006
 20
19.56855461187569
 10
27.52586288109006
 20
19.56855461187569
 10
27.50877785374816
 20
19.58009750047009
 10
27.50877785374816
 20
19.58009750047009
 10
27.50877785374816
 20
19.58009750047009
 10
27.52414132557843
 20
19.57265388954888
 10
27.52414132557843
 20
19.57265388954888
 10
27.52414132557843
 20
19.57265388954888
 10
27.42482027255677
 20
19.80667960580061
 10
27.42482027255677
 20
19.80667960580061
 10
27.42482027255677
 20
19.80667960580061
 10
27.59280246271563
 20
19.53872019597016
 10
27.59280246271563
 20
19.53872019597016
 10
27.61691835098927
 20
19.525491029641
 10
27.64544396137263
 20
19.50843775229829
 10
27.67796654387624
 20
19.48783553060167
 10
27.78045554126153
 20
19.42055375454039
 10
27.91860684329255
 20
19.30414414639914
 10
28.03890759022343
 20
19.12744481757378
 10
28.15921186493199
 20
18.95174384983406
 10
28.26183915960119
 20
18.71961607797836
 10
28.31041665958906
 20
18.45430955696911
 10
28.31899549974446
 20
18.40873066924304
 10
28.32595227734475
 20
18.36235803153721
 10
28.33146619387074
 20
18.31550561606585
 10
28.38548352582598
 20
18.22021328516363
 10
28.43929624667533
 20
18.12330170430272
 10
28.49221291199198
 20
18.02563517901662
 10
28.57110460442373
 20
17.87842499553042
 10
28.64813715801402
 20
17.72973576989897
 10
28.72079526727146
 20
17.58321657919255
 10
28.73099407256683
 20
17.74313779733484
 10
28.74632226662022
 20
17.9043678209993
 10
28.76465332614218
 20
18.06490992801464
 10
28.79589812646655
 20
18.5528721377879
 10
28.86490498581714
 20
19.02488526463474
 10
28.9697399553648
 20
19.46854564220491
 10
28.99599014913955
 20
19.64507210992356
 10
29.01876195411415
 20
19.81894568882101
 10
29.03526489813757
 20
19.98775388389196
 10
29.06861298062012
 20
20.33784650891608
 10
29.07436678602888
 20
20.66681883385664
 10
29.04738987005045
 20
20.9472136600365
 10
29.02296353734029
 20
21.2278871806537
 10
28.96880862205523
 20
21.45896367475845
 10
28.91937034553873
 20
21.6172515318313
 10
28.89659854056413
 20
21.69714158534869
 10
28.8722780411846
 20
21.75787933379914
 10
28.85660059714012
 20
21.79973641606461
 10
28.84092668087332
 20
21.8416464149954
 10
28.83248470886647
 20
21.86393491442677
 10
28.83248470886647
 20
21.86393491442677
 10
28.83248470886647
 20
21.86393491442677
 10
28.84323384748113
 20
21.84260949830416
 10
28.8633880414114
 20
21.8025974437694
 10
28.88347167978791
 20
21.76246191701556
 10
28.91454860388247
 20
21.70416891850274
 10
28.94607209485751
 20
21.62638142048726
 10
29.0129736038579
 20
21.47264086885396
 10
29.09324392443618
 20
21.24478523577815
 10
29.14939908967021
 20
20.96116602079165
 10
29.18884669977492
 20
20.77054960898802
 10
29.2157530601996
 20
20.55540455892127
 10
29.2306022149146
 20
20.32499481479951
 10
29.42976216585088
 20
20.84806546812154
 10
29.68783321482249
 20
21.30857098415084
 10
30.00037315129338
 20
21.67876186359537
 10
29.93223059747629
 20
21.76049749455986
 10
29.93453776408409
 20
21.8830907472714
 10
30.00953831772623
 20
21.96196480081471
 10
30.00953831772623
 20
21.96196480081471
 10
30.54769374844118
 20
22.52828953636656
 10
30.54769374844118
 20
22.52828953636656
 10
30.62841360345402
 20
22.61319256197831
 10
30.7639429929242
 20
22.61667095077843
 10
30.84886718520205
 20
22.53590304992158
 10
30.84886718520205
 20
22.53590304992158
 10
30.84886718520205
 20
22.53593832769936
 10
30.84886718520205
 20
22.53593832769936
 10
30.93382312747909
 20
22.4552010382312
 10
30.93726623850236
 20
22.31973790279827
 10
30.85654715722834
 20
22.23475021052204
 10
30.85654715722834
 20
22.23475021052204
 10
30.31842347651258
 20
21.66844311385863
 10
30.31842347651258
 20
21.66844311385863
 10
30.25596417255049
 20
21.6027629488676
 10
30.16067184164826
 20
21.58584725485471
 10
30.08146970477999
 20
21.61895544845453
 10
29.71856443701478
 20
21.13135360582826
 10
29.4395129433799
 20
20.5653246697793
 10
29.24414108725314
 20
19.92105721399371
 10
29.24476197612618
 20
19.7590334403495
 10
29.24062742067611
 20
19.59277280570227
 10
29.23373767085188
 20
19.42448017110689
 10
29.22447019886609
 20
19.23782545364662
 10
29.21495931021985
 20
19.04820740292863
 10
29.20548722712817
 20
18.85848704665769
 10
29.18581633874112
 20
18.36360027318686
 10
29.13848061772654
 20
17.87670298837175
 10
29.16965558915342
 20
17.34185308535024
 10
29.17606556121211
 20
17.38791175084185
 10
29.18333278324893
 20
17.4344219718775
 10
29.19187706080872
 20
17.48106977624297
 10
29.25137655929077
 20
17.81824110665657
 10
29.35972166763776
 20
18.15823728674477
 10
29.47740833130199
 20
18.48655344503539
 10
29.71146579755291
 20
19.14325984494808
 10
29.98049412402276
 20
19.78507902301836
 10
30.19750184070865
 20
20.25891953870746
 10
30.30550475461994
 20
20.49601089376986
 10
30.39979872443652
 20
20.69144977767269
 10
30.46673554793887
 20
20.82780544086064
 10
30.53422469322925
 20
20.96381943920349
 10
30.57281152557815
 20
21.04153937985227
 10
30.57281152557815
 20
21.04153937985227
 10
30.57281152557815
 20
21.04153937985227
 10
30.54376733187468
 20
20.96006535415307
 10
30.49302024983602
 20
20.81747258001314
 10
30.44286230667121
 20
20.67477397254257
 10
30.3726171973522
 20
20.47048036664342
 10
30.29396539380322
 20
20.22394867848853
 10
30.13559287006586
 20
19.73119927439294
 10
29.94656043044404
 20
19.06846390241184
 10
29.79456260098849
 20
18.39980539169296
 10
29.73530651916691
 20
18.14180489827511
 10
29.68480360368994
 20
17.88524726593155
 10
29.65737791004391
 20
17.64123088326804
 10
30.08084881590694
 20
18.56028047093223
 10
30.66141871776204
 20
19.31024416183912
 10
31.32321922865588
 20
19.73712241313072
 10
31.28873520175786
 20
19.81908327215084
 10
31.32053458983548
 20
19.91647463077729
 10
31.39973672670375
 20
19.96115746297067
 10
31.39973672670375
 20
19.96115746297067
 10
31.9681428510914
 20
20.28217112144759
 10
31.9681428510914
 20
20.28217112144759
 10
32.05337396002807
 20
20.33033638380629
 10
32.16251634613251
 20
20.29998287099318
 10
32.21067756712604
 20
20.21468120650274
 10
32.21067756712604
 20
20.21468120650274
 10
32.21067756712604
 20
20.21468120650274
 10
32.21067756712604
 20
20.21468120650274
 10
32.25883878811957
 20
20.12941834756686
 10
32.22848931667162
 20
20.02034651701618
 10
32.14318765218119
 20
19.97214649046809
 10
32.14318765218119
 20
19.97214649046809
 10
31.57481680557042
 20
19.65116860619829
 10
31.57481680557042
 20
19.65116860619829
 10
31.50884383503131
 20
19.61389361071899
 10
31.42860453152283
 20
19.6236761382472
 10
31.37334542182149
 20
19.66949491485604
 10
30.64023165900659
 20
19.13020001194793
 10
30.06056056642454
 20
18.32408517140252
 10
29.63436621618655
 20
17.25110805988756
 10
29.63457435507013
 20
17.09907495265514
 10
29.64628657699355
 20
16.95386499576154
 10
29.66361502099591
 20
16.81740659872999
 10
29.70020160339584
 20
16.96926684485571
 10
29.74547004668539
 20
17.12746297970868
 10
29.80141707303584
 20
17.28869300337313
 10
29.85447484946
 20
17.44975369370858
 10
29.92427193101266
 20
17.61246582893022
 10
29.99992512352703
 20
17.77500421318852
 10
30.08119453812034
 20
17.93609665352316
 10
30.16987304801312
 20
18.09712206608173
 10
30.28025292193083
 20
18.248015701121
 10
30.72945896602619
 20
18.84715277306599
 10
31.37489764400412
 20
19.22818050944824
 10
31.88359965880382
 20
19.40725805070375
 10
32.13795243009253
 20
19.49986221734727
 10
32.35847110302148
 20
19.54702458464718
 10
32.51288193631622
 20
19.57227641733629
 10
32.58987839078515
 20
19.58643691697503
 10
32.65123702810865
 20
19.59232527287968
 10
32.69271663816153
 20
19.59739066669557
 10
32.73426327599048
 20
19.6023189721254
 10
32.75637891431515
 20
19.60496833316892
 10
32.75637891431515
 20
19.60496833316892
 10
32.75637891431515
 20
19.60496833316892
 10
32.73467602597995
 20
19.59987069441008
 10
32.69399016590682
 20
19.59036333354152
 10
32.65340661138664
 20
19.58071486156545
 10
32.59363547402263
 20
19.56814186188622
 10
32.51932283702962
 20
19.54554291801832
 10
32.37018603527886
 20
19.50371758575204
 10
32.15982817953443
 20
19.43298917088981
 10
31.92511454663358
 20
19.31602971739319
 10
31.80677524409711
 20
19.25963417531246
 10
31.68502458053656
 20
19.18701134383189
 10
31.55962266706917
 20
19.10756579030316
 10
31.43646089243351
 20
19.02457482019821
 10
31.31019820121029
 20
18.93279615587301
 10
31.18972459317272
 20
18.82723799189936
 10
31.06962845734774
 20
18.72143993904294
 10
30.95277082144014
 20
18.60554891422179
 10
30.84490549085868
 20
18.47983655631787
 10
30.73845127135233
 20
18.35309055955142
 10
30.63840349612698
 20
18.21701006302313
 10
30.55961410924818
 20
18.07851656655639
 10
30.47958647240097
 20
17.93733888440452
 10
30.41777980731112
 20
17.78458212961084
 10
30.36252069760978
 20
17.63313463347459
 10
30.33423850388688
 20
17.54642185790904
 10
30.30746972679203
 20
17.4602241378859
 10
30.28407703294438
 20
17.37430555121198
 10
30.40158730772422
 20
17.48665072054504
 10
30.53136719330215
 20
17.59296382894387
 10
30.66920452311896
 20
17.68684504877098
 10
30.8590977404966
 20
17.81696712878463
 10
31.06328904084281
 20
17.92348837606705
 10
31.26189939688694
 20
18.00083137409386
 10
31.45923269740811
 20
18.07920448320551
 10
31.65643194237713
 20
18.12912606526523
 10
31.82730691023997
 20
18.14221764826458
 10
31.99873573919979
 20
18.15620528679661
 10
32.14174126332919
 20
18.13201884296921
 10
32.23355249194162
 20
18.09970439934918
 10
32.25684206594829
 20
18.09250420508843
 10
32.2769257043248
 20
18.08413278863533
 10
32.29415184277421
 20
18.07644928883135
 10
32.31158259232952
 20
18.0694219556773
 10
32.32588067529807
 20
18.06259923362914
 10
32.33714839723283
 20
18.05615751157126
 10
32.35974734110073
 20
18.04413484521132
 10
32.37180610301817
 20
18.03772840093032
 10
32.37180610301817
 20
18.03772840093032
 10
32.37180610301817
 20
18.03772840093032
 10
32.35881600779116
 20
18.04186295638039
 10
32.33425209175117
 20
18.04954292840668
 10
32.32222942539123
 20
18.0537797894097
 10
32.30703610303438
 20
18.05784777326332
 10
32.28888134290868
 20
18.06149856699056
 10
32.27096728781015
 20
18.0658730113234
 10
32.25032978833665
 20
18.07031801121
 10
32.2267642333823
 20
18.07303792780728
 10
32.1336811030777
 20
18.08771701076612
 10
31.99763154478352
 20
18.08520170527473
 10
31.84487877090279
 20
18.04392670632774
 10
31.53950375091578
 20
17.96286543061801
 10
31.16994787145504
 20
17.73173249207026
 10
30.8827311033904
 20
17.44379174941624
 10
30.73834543802169
 20
17.29941082900849
 10
30.61408299674745
 20
17.13962675717613
 10
30.51589788814125
 20
16.98176971797676
 10
30.41740233509852
 20
16.82374601523492
 10
30.34574258692672
 20
16.66775121365913
 10
30.29582453264468
 20
16.53215049489636
 10
30.26864300556036
 20
16.46517916327161
 10
30.25255281152641
 20
16.40103005379708
 10
30.23453721466357
 20
16.34601436075621
 10
30.22099684010925
 20
16.28989094552137
 10
30.209147034856
 20
16.24100694038419
 10
30.19932570177323
 20
16.20069814224131
 10
30.19240420194982
 20
16.16214658766929
 10
30.16956184142146
 20
16.07181783997376
 10
30.14758025864893
 20
15.98775795322942
 97
        0
 97
        1
330
7C
 92
        1
 93
        1
 72
     4
 94
        3
 73
     0
 74
     0
 95
       26
 96
       22
 40
0.0
 40
0.0
 40
0.0
 40
0.0
 40
1.0
 40
1.0
 40
1.0
 40
2.0
 40
2.0
 40
2.0
 40
3.0
 40
3.0
 40
3.0
 40
4.0
 40
4.0
 40
4.0
 40
5.0
 40
5.0
 40
5.0
 40
6.0
 40
6.0
 40
6.0
 40
7.0
 40
7.0
 40
7.0
 40
7.0
 10
14.83364901045097
 20
17.56753913514807
 10
14.60308757188864
 20
17.89644443231255
 10
14.36215446692424
 20
18.18986381371569
 10
14.11069800111721
 20
18.44762441825078
 10
14.1091140289354
 20
18.38891866974849
 10
14.10723372342781
 20
18.33011414347094
 10
14.10558272346994
 20
18.27140839496864
 10
14.15415669445293
 20
18.20581289664212
 10
14.23256860911914
 20
18.09911878825301
 10
14.32844302333985
 20
17.96510556944975
 10
14.49241413026771
 20
17.73566243641444
 10
14.70501249632375
 20
17.42308722216668
 10
14.88243464809523
 20
17.08057528646044
 10
14.94925075750172
 20
16.9486646231591
 10
15.01205578367721
 20
16.81309918217321
 10
15.06500772677074
 20
16.67784418562385
 10
15.06264764349762
 20
16.75890898911127
 10
15.0558425603379
 20
16.84189995921622
 10
15.0428532828915
 20
16.92582226263074
 10
15.01155483924558
 20
17.13145995182893
 10
14.93533367452345
 20
17.35015394624958
 10
14.83364901045097
 20
17.56753913514807
 97
        0
 97
        1
330
7D
 92
        1
 93
        1
 72
     4
 94
        3
 73
     0
 74
     0
 95
       32
 96
       28
 40
0.0
 40
0.0
 40
0.0
 40
0.0
 40
1.0
 40
1.0
 40
1.0
 40
2.0
 40
2.0
 40
2.0
 40
3.0
 40
3.0
 40
3.0
 40
4.0
 40
4.0
 40
4.0
 40
5.0
 40
5.0
 40
5.0
 40
6.0
 40
6.0
 40
6.0
 40
7.0
 40
7.0
 40
7.0
 40
8.0
 40
8.0
 40
8.0
 40
9.0
 40
9.0
 40
9.0
 40
9.0
 10
13.68087003986081
 20
18.84498271366888
 10
13.61735945814777
 20
18.89762421232588
 10
13.55322832994501
 20
18.94823018325704
 10
13.48849679476866
 20
18.99670537646478
 10
13.50239623885854
 20
18.89380010131233
 10
13.52530562716293
 20
18.7649162712671
 10
13.55588087638289
 20
18.61698596948556
 10
13.59370923652891
 20
18.42647186323487
 10
13.64535237410028
 20
18.20367859114102
 10
13.66504090137576
 20
17.95080748648119
 10
13.67339467894042
 20
17.84817737798839
 10
13.67313749658171
 20
17.73982874186371
 10
13.66145667924498
 20
17.62886249469469
 10
13.68536442863507
 20
17.60395638421899
 10
13.70956851135088
 20
17.57904674596559
 10
13.73395956628417
 20
17.5543099688189
 10
13.74215812163056
 20
17.69152993754035
 10
13.75505920463476
 20
17.82974826734744
 10
13.77249348196775
 20
17.96703526384496
 10
13.78320734280553
 20
18.05298956720764
 10
13.79605550914441
 20
18.1377373706011
 10
13.80947517546871
 20
18.2211446184732
 10
13.80262070342136
 20
18.27109795053212
 10
13.79505749655124
 20
18.32046567149487
 10
13.7868233149355
 20
18.36904317025555
 10
13.75590587127982
 20
18.53840166203205
 10
13.72109023327915
 20
18.69977232848462
 10
13.68087003986081
 20
18.84498271366888
 97
        0
 97
        1
330
7E
 92
        1
 93
        1
 72
     4
 94
        3
 73
     0
 74
     0
 95
       20
 96
       16
 40
0.0
 40
0.0
 40
0.0
 40
0.0
 40
1.0
 40
1.0
 40
1.0
 40
2.0
 40
2.0
 40
2.0
 40
3.0
 40
3.0
 40
3.0
 40
4.0
 40
4.0
 40
4.0
 40
5.0
 40
5.0
 40
5.0
 40
5.0
 10
14.11397177881147
 20
18.61888038610389
 10
14.2352536075523
 20
18.50167749537459
 10
14.35402293935392
 20
18.37679416207244
 10
14.46965996418155
 20
18.24522522896996
 10
14.4401501038233
 20
18.29759156096732
 10
14.41100749639725
 20
18.34967919852735
 10
14.3826861330671
 20
18.40132233609871
 10
14.27039344148749
 20
18.60434241425257
 10
14.17236355509954
 20
18.80281518696688
 10
14.10222110758554
 20
18.98550821008377
 10
14.10649289011338
 20
18.9367261002172
 10
14.10945622337111
 20
18.88732310147757
 10
14.11104055202778
 20
18.83753910274767
 10
14.11398588992222
 20
18.76536429903344
 10
14.11457150101839
 20
18.69236399534028
 10
14.11397177881147
 20
18.61888038610389
 97
        0
 97
        1
330
7F
 92
        1
 93
        1
 72
     4
 94
        3
 73
     0
 74
     0
 95
       26
 96
       22
 40
0.0
 40
0.0
 40
0.0
 40
0.0
 40
1.0
 40
1.0
 40
1.0
 40
2.0
 40
2.0
 40
2.0
 40
3.0
 40
3.0
 40
3.0
 40
4.0
 40
4.0
 40
4.0
 40
5.0
 40
5.0
 40
5.0
 40
6.0
 40
6.0
 40
6.0
 40
7.0
 40
7.0
 40
7.0
 40
7.0
 10
15.24558055549728
 20
17.71557527026024
 10
14.87499103717403
 20
18.51976394418812
 10
14.44633429810997
 20
19.21116250988241
 10
13.95954331052904
 20
19.78959105068102
 10
13.95954331052904
 20
19.78959105068102
 10
13.98813947646616
 20
19.59625472228011
 10
13.98813947646616
 20
19.59625472228011
 10
14.01916275345247
 20
19.47574583646566
 10
14.0627061134527
 20
19.30407359084538
 10
14.16368169420993
 20
19.11676623451288
 10
14.25975013620346
 20
18.92811126710365
 10
14.39800021600974
 20
18.72230071679876
 10
14.55961123966448
 20
18.50818930559453
 10
14.72053081889241
 20
18.2933546999643
 10
14.90343198089288
 20
18.06856117792149
 10
15.07225730991912
 20
17.82382160083198
 10
15.12893105847325
 20
17.74224174180214
 10
15.1837245015198
 20
17.6576632717377
 10
15.2348666946595
 20
17.57053774618268
 10
15.2378480517461
 20
17.61880480050684
 10
15.24139661115957
 20
17.66717416038394
 10
15.24558055549728
 20
17.71557527026024
 97
        0
 97
        1
330
80
 92
        1
 93
        1
 72
     4
 94
        3
 73
     0
 74
     0
 95
       17
 96
       13
 40
0.0
 40
0.0
 40
0.0
 40
0.0
 40
1.0
 40
1.0
 40
1.0
 40
2.0
 40
2.0
 40
2.0
 40
3.0
 40
3.0
 40
3.0
 40
4.0
 40
4.0
 40
4.0
 40
4.0
 10
18.23868166210701
 20
17.47559113749385
 10
18.27840045034582
 20
17.40024838941601
 10
18.3172099954207
 20
17.32349100248536
 10
18.35460750395717
 20
17.24583756002203
 10
18.35509080950039
 20
17.27491350372468
 10
18.35581400392639
 20
17.30385186409751
 10
18.35686528167735
 20
17.33272319669428
 10
18.36320117040459
 20
17.52341016405167
 10
18.37896328111358
 20
17.71044235372453
 10
18.39531100291874
 20
17.88927951582867
 10
18.33021644902388
 20
17.77941393529825
 10
18.27798770035635
 20
17.64154132770456
 10
18.23868166210701
 20
17.47559113749385
 97
        0
 97
        1
330
81
 92
        1
 93
        1
 72
     4
 94
        3
 73
     0
 74
     0
 95
       68
 96
       64
 40
0.0
 40
0.0
 40
0.0
 40
0.0
 40
1.0
 40
1.0
 40
1.0
 40
2.0
 40
2.0
 40
2.0
 40
3.0
 40
3.0
 40
3.0
 40
4.0
 40
4.0
 40
4.0
 40
5.0
 40
5.0
 40
5.0
 40
6.0
 40
6.0
 40
6.0
 40
7.0
 40
7.0
 40
7.0
 40
8.0
 40
8.0
 40
8.0
 40
9.0
 40
9.0
 40
9.0
 40
10.0
 40
10.0
 40
10.0
 40
11.0
 40
11.0
 40
11.0
 40
12.0
 40
12.0
 40
12.0
 40
13.0
 40
13.0
 40
13.0
 40
14.0
 40
14.0
 40
14.0
 40
15.0
 40
15.0
 40
15.0
 40
16.0
 40
16.0
 40
16.0
 40
17.0
 40
17.0
 40
17.0
 40
18.0
 40
18.0
 40
18.0
 40
19.0
 40
19.0
 40
19.0
 40
20.0
 40
20.0
 40
20.0
 40
21.0
 40
21.0
 40
21.0
 40
21.0
 10
18.61228344182775
 20
18.15541153681686
 10
18.62320544154911
 20
18.01547165149813
 10
18.6336264968388
 20
17.869502794111
 10
18.64647466317768
 20
17.72198524231893
 10
18.64906052422282
 20
17.71774838131591
 10
18.65174516304322
 20
17.71357854808896
 10
18.65450388519506
 20
17.70944444001708
 10
18.65450388519506
 20
17.70944444001708
 10
18.64702499649698
 20
17.71568110359087
 10
18.64702499649698
 20
17.71568110359087
 10
18.65777413511163
 20
17.59317196782745
 10
18.6701954403503
 20
17.46962919320151
 10
18.68611277327755
 20
17.34777666232971
 10
18.70859177270405
 20
17.17807247841752
 10
18.74071571632895
 20
17.01246801042022
 10
18.78400555085955
 20
16.85902379211269
 10
18.78400555085955
 20
16.85902379211269
 10
18.80477663136129
 20
16.85981444022946
 10
18.80477663136129
 20
16.85981444022946
 10
18.80477663136129
 20
16.85981444022946
 10
18.82393246420592
 20
16.86053720874075
 10
18.82393246420592
 20
16.86053720874075
 10
18.82393246420592
 20
16.86053720874075
 10
18.9702611549172
 20
16.86591354193692
 10
18.9702611549172
 20
16.86591354193692
 10
18.99634249525092
 20
16.9568283290941
 10
19.02181962582406
 20
17.05060328722509
 10
19.04607309742752
 20
17.14617078478696
 10
19.06138718037016
 20
17.2312995881707
 10
19.07926595769182
 20
17.3164954193305
 10
19.09981526272311
 20
17.40090102828825
 10
19.1111147346571
 20
17.44720311044032
 10
19.12327498434683
 20
17.49323002593274
 10
19.13619723401716
 20
17.53884419143569
 10
19.1770206774201
 20
17.73435363089227
 10
19.21066156545074
 20
17.92772523707007
 10
19.22251137070398
 20
18.11269367679557
 10
19.2040646211746
 20
18.1752552863106
 10
19.18723359382622
 20
18.22944547937254
 10
19.1731260108528
 20
18.27354270046975
 10
19.14615262265206
 20
18.35760305096614
 10
19.13068331749116
 20
18.40559447487861
 10
19.13068331749116
 20
18.40559447487861
 10
19.13068331749116
 20
18.40559447487861
 10
19.15559295574455
 20
18.36139494822845
 10
19.1992738990746
 20
18.28411943987344
 10
19.20790637107659
 20
18.26879078392432
 10
19.21722323195001
 20
18.25207970101732
 10
19.22712971741543
 20
18.23416610655256
 10
19.22971156496474
 20
18.44693650160166
 10
19.19559138409
 20
18.6444779410064
 10
19.13161465080073
 20
18.80570796467086
 10
19.1094602069215
 20
18.86382810207698
 10
19.08389792979587
 20
18.91677651739282
 10
19.056959819372
 20
18.96445796062081
 10
18.95839371077552
 20
18.54667030461279
 10
18.79411568718882
 20
18.11010781575043
 10
18.89269638416572
 20
17.77989724084147
 10
18.7913252150378
 20
17.94191748670799
 10
18.7059711064346
 20
18.11558645449955
 10
18.65115955194705
 20
18.29900267204243
 10
18.63509052457923
 20
18.24870361777011
 10
18.62213652490971
 20
18.20085284121311
 10
18.61228344182775
 20
18.15541153681686
 97
        0
 97
        1
330
82
 92
        1
 93
        1
 72
     4
 94
        3
 73
     0
 74
     0
 95
       23
 96
       19
 40
0.0
 40
0.0
 40
0.0
 40
0.0
 40
1.0
 40
1.0
 40
1.0
 40
2.0
 40
2.0
 40
2.0
 40
3.0
 40
3.0
 40
3.0
 40
4.0
 40
4.0
 40
4.0
 40
5.0
 40
5.0
 40
5.0
 40
6.0
 40
6.0
 40
6.0
 40
6.0
 10
19.0765954299822
 20
19.05168931950646
 10
19.12687684536605
 20
18.99553415427243
 10
19.17798376072887
 20
18.9280447174902
 10
19.22466684287122
 20
18.84839407469296
 10
19.31642434053029
 20
18.69701360633277
 10
19.38777364426557
 20
18.50071394467413
 10
19.42553193958807
 20
18.28512086684103
 10
19.45473086477957
 20
18.34361847645974
 10
19.4845652806851
 20
18.39987594724672
 10
19.51475952991478
 20
18.45351580698936
 10
19.44685686498045
 20
18.62174141380868
 10
19.39116736640121
 20
18.77184129886821
 10
19.34781097861844
 20
18.9038225177233
 10
19.05520298608349
 20
19.2488850366978
 10
19.40563831047647
 20
20.14316256943844
 10
19.91740596408686
 20
20.83786666282617
 10
19.26042439751452
 20
20.11129666163887
 10
19.22707631503197
 20
19.74780452396931
 10
19.0765954299822
 20
19.05168931950646
 97
        0
 97
        1
330
83
 92
        1
 93
        1
 72
     4
 94
        3
 73
     0
 74
     0
 95
       29
 96
       25
 40
0.0
 40
0.0
 40
0.0
 40
0.0
 40
1.0
 40
1.0
 40
1.0
 40
2.0
 40
2.0
 40
2.0
 40
3.0
 40
3.0
 40
3.0
 40
4.0
 40
4.0
 40
4.0
 40
5.0
 40
5.0
 40
5.0
 40
6.0
 40
6.0
 40
6.0
 40
7.0
 40
7.0
 40
7.0
 40
8.0
 40
8.0
 40
8.0
 40
8.0
 10
19.59878766665993
 20
18.25087672882579
 10
19.54940230680875
 20
18.09381301061059
 10
19.50690669678179
 20
17.92328023718347
 10
19.4754177531407
 20
17.74692663057151
 10
19.58824313915117
 20
17.50638863670815
 10
19.70853027285065
 20
17.2190335051503
 10
19.81203830010835
 20
16.923582123799
 10
19.81203830010835
 20
16.923582123799
 10
19.82351063314899
 20
16.89006118020975
 10
19.82351063314899
 20
16.89006118020975
 10
19.82351063314899
 20
16.89006118020975
 10
19.85797702115857
 20
16.89078437463574
 10
19.85797702115857
 20
16.89078437463574
 10
19.87062057639156
 20
16.923582123799
 10
19.88392029827448
 20
16.95648570629289
 10
19.89795732569415
 20
16.98941751100829
 10
19.92536463055048
 20
17.05363717603658
 10
19.95528371312052
 20
17.11802617439388
 10
19.98739354563469
 20
17.18206945053777
 10
19.99230068439836
 20
17.42574055119914
 10
19.90702018657404
 20
17.68088310447864
 10
19.73152382994022
 20
17.94753416217977
 10
19.68386355337836
 20
18.05367748385676
 10
19.63957583228601
 20
18.1547911065724
 10
19.59878766665993
 20
18.25087672882579
 97
        0
 97
        1
330
84
 92
        1
 93
        1
 72
     4
 94
        3
 73
     0
 74
     0
 95
       35
 96
       31
 40
0.0
 40
0.0
 40
0.0
 40
0.0
 40
1.0
 40
1.0
 40
1.0
 40
2.0
 40
2.0
 40
2.0
 40
3.0
 40
3.0
 40
3.0
 40
4.0
 40
4.0
 40
4.0
 40
5.0
 40
5.0
 40
5.0
 40
6.0
 40
6.0
 40
6.0
 40
7.0
 40
7.0
 40
7.0
 40
8.0
 40
8.0
 40
8.0
 40
9.0
 40
9.0
 40
9.0
 40
10.0
 40
10.0
 40
10.0
 40
10.0
 10
21.3893923709778
 20
18.09105781623644
 10
21.39163305020766
 20
17.89520265456645
 10
21.40145031511462
 20
17.69125477088071
 10
21.41857062023341
 20
17.48864744271632
 10
21.43758886974821
 20
17.28972664223565
 10
21.46363499463408
 20
17.09225575838467
 10
21.49526097938798
 20
16.90459915206108
 10
21.49526097938798
 20
16.90459915206108
 10
21.63306303142791
 20
16.90391166244066
 10
21.63306303142791
 20
16.90391166244066
 10
21.63550832792449
 20
16.93319531799819
 10
21.63819594796363
 20
16.96261698391425
 10
21.64105697566842
 20
16.9921766624186
 10
21.66851366941238
 20
17.28029027345767
 10
21.71302364049906
 20
17.58028852371169
 10
21.75374477834907
 20
17.87728859946792
 10
21.77600152778125
 20
18.03910423422855
 10
21.79670605503081
 20
18.20026723011694
 10
21.81306788794672
 20
18.35822347608714
 10
21.74640700075849
 20
18.39984066946984
 10
21.69014952997152
 20
18.44328525169481
 10
21.64429547558579
 20
18.4885541620445
 10
21.67402405816069
 20
18.37579533674995
 10
21.70995800168838
 20
18.28690945012873
 10
21.7520902506135
 20
18.22197011845214
 10
21.66875355829515
 20
18.2730946727034
 10
21.59764767122032
 20
18.32353131030554
 10
21.53866675605839
 20
18.37328003125857
 10
21.48209884083489
 20
18.28043245029398
 10
21.43324617541455
 20
18.187521369331
 10
21.3893923709778
 20
18.09105781623644
 97
        0
 97
        1
330
85
 92
        1
 93
        1
 72
     4
 94
        3
 73
     0
 74
     0
 95
       14
 96
       10
 40
0.0
 40
0.0
 40
0.0
 40
0.0
 40
1.0
 40
1.0
 40
1.0
 40
2.0
 40
2.0
 40
2.0
 40
3.0
 40
3.0
 40
3.0
 40
3.0
 10
21.83029402639613
 20
18.5450510546541
 10
21.83311977632404
 20
18.57998663709616
 10
21.83559980403855
 20
18.61474583065382
 10
21.83780466509341
 20
18.64926513532872
 10
21.82988127640666
 20
18.66680171821466
 10
21.8230585543585
 20
18.68316707890825
 10
21.81730827672742
 20
18.69794493964235
 10
21.8200281933247
 20
18.64247769105744
 10
21.82433560988148
 20
18.59152599791288
 10
21.83029402639613
 20
18.5450510546541
 97
        0
 97
        1
330
86
 92
        1
 93
        1
 72
     4
 94
        3
 73
     0
 74
     0
 95
       32
 96
       28
 40
0.0
 40
0.0
 40
0.0
 40
0.0
 40
1.0
 40
1.0
 40
1.0
 40
2.0
 40
2.0
 40
2.0
 40
3.0
 40
3.0
 40
3.0
 40
4.0
 40
4.0
 40
4.0
 40
5.0
 40
5.0
 40
5.0
 40
6.0
 40
6.0
 40
6.0
 40
7.0
 40
7.0
 40
7.0
 40
8.0
 40
8.0
 40
8.0
 40
9.0
 40
9.0
 40
9.0
 40
9.0
 10
22.07672340899808
 20
18.31688497714177
 10
22.08137301999057
 20
18.1645767032497
 10
22.08261479773667
 20
18.01009884607965
 10
22.08268182551273
 20
17.85654879444148
 10
22.08281940884256
 20
17.55417238548908
 10
22.07992663113858
 20
17.25500272645487
 10
22.09160710306282
 20
16.98011828902331
 10
22.09267305003238
 20
16.95296851193818
 10
22.09391426967062
 20
16.92613270706727
 10
22.09532538074573
 20
16.89950194021954
 10
22.09532538074573
 20
16.89950194021954
 10
22.09684232515147
 20
16.89946666244183
 10
22.09684232515147
 20
16.89946666244183
 10
22.11861576904043
 20
16.94394445661285
 10
22.14114471668692
 20
16.98638714997449
 10
22.1643992678724
 20
17.02686839894173
 10
22.1643992678724
 20
17.02686839894173
 10
22.16278001791371
 20
17.06100670362634
 10
22.16278001791371
 20
17.06100670362634
 10
22.15234132373558
 20
17.35435905725341
 10
22.15485662922696
 20
17.66669085484072
 10
22.17039296216393
 20
17.97733637469327
 10
22.17580457313698
 20
18.06573542799357
 10
22.18224629519486
 20
18.15396514796487
 10
22.18968693889701
 20
18.24157443988407
 10
22.14886293493543
 20
18.26179520076945
 10
22.11117215811922
 20
18.28756561677866
 10
22.07672340899808
 20
18.31688497714177
 97
        0
 97
        1
330
87
 92
        1
 93
        1
 72
     4
 94
        3
 73
     0
 74
     0
 95
       17
 96
       13
 40
0.0
 40
0.0
 40
0.0
 40
0.0
 40
1.0
 40
1.0
 40
1.0
 40
2.0
 40
2.0
 40
2.0
 40
3.0
 40
3.0
 40
3.0
 40
4.0
 40
4.0
 40
4.0
 40
4.0
 10
22.19785318368558
 20
18.33304219895179
 10
22.21545679434759
 20
18.52186649969004
 10
22.23757243267226
 20
18.70707482829831
 10
22.26365329311799
 20
18.88404932378332
 10
22.26365329311799
 20
18.88404932378332
 10
22.27826182052308
 20
18.97427576592589
 10
22.27826182052308
 20
18.97427576592589
 10
22.19471698932115
 20
19.03167270890602
 10
22.1234735189165
 20
19.09385684620846
 10
22.06455963153063
 20
19.16093048338616
 10
22.06841902032106
 20
18.90037940670003
 10
22.10414482496517
 20
18.62246460823468
 10
22.19785318368558
 20
18.33304219895179
 97
        0
 97
        1
330
88
 92
        1
 93
        1
 72
     4
 94
        3
 73
     0
 74
     0
 95
       14
 96
       10
 40
0.0
 40
0.0
 40
0.0
 40
0.0
 40
1.0
 40
1.0
 40
1.0
 40
2.0
 40
2.0
 40
2.0
 40
3.0
 40
3.0
 40
3.0
 40
3.0
 10
22.29269395904377
 20
19.0605087637259
 10
22.30640643091616
 20
19.14077628945589
 10
22.32046462500195
 20
19.21898055075084
 10
22.3349673190764
 20
19.2946015077537
 10
22.28625223698589
 20
19.32433361810629
 10
22.24701332777157
 20
19.36233131158133
 10
22.21538623879383
 20
19.40291486610151
 10
22.23850376598183
 20
19.26710953623286
 10
22.26427418199104
 20
19.15297181692253
 10
22.29269395904377
 20
19.0605087637259
 97
        0
 97
        1
330
89
 92
        1
 93
        1
 72
     4
 94
        3
 73
     0
 74
     0
 95
      146
 96
      142
 40
0.0
 40
0.0
 40
0.0
 40
0.0
 40
1.0
 40
1.0
 40
1.0
 40
2.0
 40
2.0
 40
2.0
 40
3.0
 40
3.0
 40
3.0
 40
4.0
 40
4.0
 40
4.0
 40
5.0
 40
5.0
 40
5.0
 40
6.0
 40
6.0
 40
6.0
 40
7.0
 40
7.0
 40
7.0
 40
8.0
 40
8.0
 40
8.0
 40
9.0
 40
9.0
 40
9.0
 40
10.0
 40
10.0
 40
10.0
 40
11.0
 40
11.0
 40
11.0
 40
12.0
 40
12.0
 40
12.0
 40
13.0
 40
13.0
 40
13.0
 40
14.0
 40
14.0
 40
14.0
 40
15.0
 40
15.0
 40
15.0
 40
16.0
 40
16.0
 40
16.0
 40
17.0
 40
17.0
 40
17.0
 40
18.0
 40
18.0
 40
18.0
 40
19.0
 40
19.0
 40
19.0
 40
20.0
 40
20.0
 40
20.0
 40
21.0
 40
21.0
 40
21.0
 40
22.0
 40
22.0
 40
22.0
 40
23.0
 40
23.0
 40
23.0
 40
24.0
 40
24.0
 40
24.0
 40
25.0
 40
25.0
 40
25.0
 40
26.0
 40
26.0
 40
26.0
 40
27.0
 40
27.0
 40
27.0
 40
28.0
 40
28.0
 40
28.0
 40
29.0
 40
29.0
 40
29.0
 40
30.0
 40
30.0
 40
30.0
 40
31.0
 40
31.0
 40
31.0
 40
32.0
 40
32.0
 40
32.0
 40
33.0
 40
33.0
 40
33.0
 40
34.0
 40
34.0
 40
34.0
 40
35.0
 40
35.0
 40
35.0
 40
36.0
 40
36.0
 40
36.0
 40
37.0
 40
37.0
 40
37.0
 40
38.0
 40
38.0
 40
38.0
 40
39.0
 40
39.0
 40
39.0
 40
40.0
 40
40.0
 40
40.0
 40
41.0
 40
41.0
 40
41.0
 40
42.0
 40
42.0
 40
42.0
 40
43.0
 40
43.0
 40
43.0
 40
44.0
 40
44.0
 40
44.0
 40
45.0
 40
45.0
 40
45.0
 40
46.0
 40
46.0
 40
46.0
 40
47.0
 40
47.0
 40
47.0
 40
47.0
 10
22.3621841239376
 20
19.43109475427147
 10
22.37889167906691
 20
19.51164097443879
 10
22.3961530952932
 20
19.58850066692238
 10
22.41403187261485
 20
19.66115877617983
 10
22.43928370530396
 20
19.77391713441423
 10
22.46612360549455
 20
19.87644493735409
 10
22.49130431508791
 20
19.9667736850496
 10
22.51524734225485
 20
20.05748343273541
 10
22.53691848059086
 20
20.13620277274376
 10
22.55752070228748
 20
20.20031609575811
 10
22.59672489573174
 20
20.32895650914289
 10
22.61908395071687
 20
20.4024048406024
 10
22.61908395071687
 20
20.4024048406024
 10
22.61908395071687
 20
20.4024048406024
 10
22.60678611769728
 20
20.32682220364178
 10
22.58518610546478
 20
20.19453054035016
 10
22.57346978521391
 20
20.12862459758711
 10
22.56255131327025
 20
20.04804360609907
 10
22.55104370245272
 20
19.95564707422236
 10
22.53829784166678
 20
19.86349093768457
 10
22.52554845310316
 20
19.7593791625629
 10
22.51576592557495
 20
19.64538305064422
 10
22.49264839838695
 20
19.4310277264954
 10
22.47976495427119
 20
19.182016010626
 10
22.47276937111633
 20
18.91615915629746
 10
22.55762300784042
 20
18.86162324102212
 10
22.65711749433571
 20
18.7802127153213
 10
22.7495835029431
 20
18.66590566268196
 10
22.78310444653236
 20
18.62573485815125
 10
22.8152142790465
 20
18.58136247039439
 10
22.84570133382427
 20
18.53347641606051
 10
22.90327113791109
 20
18.70245696730501
 10
22.95287874775661
 20
18.86275918543758
 10
22.99435835780949
 20
19.0144465704566
 10
23.06470577268144
 20
19.74680666172998
 10
22.8500793059348
 20
20.21661090089795
 10
22.45320431605992
 20
20.73196277663912
 10
22.41775367807545
 20
22.43688834425399
 10
23.00114638313861
 20
23.21255493557616
 10
22.94567855349586
 20
24.48823815303077
 10
23.15496749260089
 20
25.19510249610827
 10
23.24216416085614
 20
25.84707109058628
 10
23.20719624126843
 20
26.44420743646317
 10
23.28532946149731
 20
26.44365777116686
 10
23.34916812653531
 20
26.40805124294118
 10
23.39867343082788
 20
26.33741102252111
 10
23.33872943235718
 20
26.64100804255348
 10
23.21625557437064
 20
26.92738245191413
 10
23.03129066242282
 20
27.19647780616004
 10
22.94392172020734
 20
27.39214246783489
 10
22.90426949899673
 20
27.57685337978919
 10
22.91229519323643
 20
27.7505364586915
 10
22.98505560804682
 20
27.73756482013354
 10
23.03160110685935
 20
27.7145178484993
 10
23.05189288411944
 20
27.68149784934171
 10
22.98467813583423
 20
27.85438717826427
 10
22.89500202701095
 20
28.00616275772548
 10
22.78296686320253
 20
28.13681753216998
 10
22.8968611658524
 20
28.13053103233036
 10
23.02967141246413
 20
28.12205378254664
 10
23.18139407526003
 20
28.11141047726261
 10
22.84773333377243
 20
28.29339794484195
 10
22.61488236749073
 20
28.6509135190543
 10
22.48289762085794
 20
29.18397131101042
 10
22.61398631195803
 20
29.14666153418449
 10
22.67951125473079
 20
29.12804192354841
 10
22.67951125473079
 20
29.12804192354841
 10
22.45055142723872
 20
29.33460741827848
 10
22.50756737022856
 20
29.77094765714651
 10
22.01429585503519
 20
29.99858104022799
 10
22.23857432153559
 20
29.98059995735339
 10
22.68647156010878
 20
29.65398418790828
 10
22.74162483647948
 20
29.60079235593198
 10
23.18873185285061
 20
29.28660141950325
 10
23.53020721633965
 20
29.10189050754892
 10
23.7661267547867
 20
29.04673723117822
 10
23.41886290253503
 20
29.24050394845707
 10
23.13498615977733
 20
29.58630804815899
 10
23.10277402171024
 20
29.72464557499444
 10
23.42254943021876
 20
29.73787474132361
 10
23.74780054961858
 20
29.53948663527383
 10
23.89029041828569
 20
29.48894769211871
 10
24.58172073397916
 20
29.04957709221688
 10
25.00946377862209
 20
28.80051598745984
 10
25.17355482999133
 20
28.74172557229305
 10
24.57834527163321
 20
29.15062322852786
 10
24.19028971617468
 20
29.4132768607159
 10
24.00935291524815
 20
29.52961944108109
 10
24.17089338334913
 20
29.59664443704528
 10
24.56256490113454
 20
29.57975974535746
 10
24.62378595512821
 20
29.5651723846185
 10
24.4812961049908
 20
29.64480491036468
 10
24.12252402347203
 20
29.65667235450636
 10
23.6755898682076
 20
29.72331913058384
 10
22.47342610549273
 20
29.90256551489978
 10
22.34065056893141
 20
30.25579131144379
 10
22.032590910124
 20
30.55799485928949
 10
21.95197413440292
 20
30.21868967350144
 10
21.76890363907344
 20
29.64602904922234
 10
21.62872386487195
 20
29.49053166430052
 10
22.05612118730147
 20
29.2807770585407
 10
22.26261965425547
 20
28.78663138169222
 10
22.23974610555116
 20
28.65020443573905
 10
21.98005171701994
 20
28.25433133472751
 10
21.61411533746687
 20
28.14356969866438
 10
21.06503437925287
 20
28.00981471521978
 10
21.50814442350374
 20
27.36942357952561
 10
21.47823999463045
 20
25.56536393110656
 10
21.43758886974821
 20
24.90907443821717
 10
21.56529794982341
 20
25.63259631828021
 10
21.58941383809705
 20
26.36118118858135
 10
21.51003884012208
 20
27.09485027100405
 10
21.90836021884894
 20
25.63900276256121
 10
22.07317446464418
 20
24.50816656918902
 10
22.00458443894331
 20
23.70229221629665
 10
22.13039854651761
 20
25.02336322271192
 10
22.12419671334249
 20
25.98477083707326
 10
21.98604893908916
 20
26.58652504394346
 10
22.19657612816261
 20
26.07270422371879
 10
22.27936304998569
 20
25.67281651169855
 10
22.23443976608551
 20
25.38687249121581
 10
22.46174506584203
 20
25.77878742566167
 10
22.57905072951598
 20
26.19898455383044
 10
22.58628620155361
 20
26.64752032016512
 10
22.62786811715943
 20
26.06025116848094
 10
22.60030911786252
 20
25.64344776244781
 10
22.50349984255455
 20
25.39703666031741
 10
22.66138906074869
 20
25.5401297373059
 10
22.76143683597403
 20
25.68246145589693
 10
22.80360436267603
 20
25.82403888243289
 10
22.73352916098331
 20
24.58342527163192
 10
22.61970483958992
 20
23.71248749407188
 10
22.46209078805543
 20
23.21126082753053
 10
22.6403740890626
 20
23.60338331449419
 10
22.78689327976903
 20
23.98127533263114
 10
22.90182122128141
 20
24.34493982335328
 10
22.7662945858501
 20
22.46710376014979
 10
22.25266426562057
 20
22.90666486004674
 10
22.37803090131109
 20
20.64934927874677
 10
22.21690318319958
 20
20.29732998217197
 10
22.28084471665203
 20
19.81474057781718
 10
22.3621841239376
 20
19.43109475427147
 97
        0
 97
        1
330
8A
 92
        1
 93
        1
 72
     4
 94
        3
 73
     0
 74
     0
 95
       17
 96
       13
 40
0.0
 40
0.0
 40
0.0
 40
0.0
 40
1.0
 40
1.0
 40
1.0
 40
2.0
 40
2.0
 40
2.0
 40
3.0
 40
3.0
 40
3.0
 40
4.0
 40
4.0
 40
4.0
 40
4.0
 10
23.80433611492301
 20
18.35085042071969
 10
23.87964358522398
 20
18.28739275567196
 10
23.95753691657009
 20
18.21945527322292
 10
24.03673905343837
 20
18.14776331478976
 10
24.03760335897187
 20
18.17628892517312
 10
24.03801610896134
 20
18.20457464667371
 10
24.03794555340758
 20
18.23268443988628
 10
24.03901447004698
 20
18.44604044606897
 10
24.01086693844171
 20
18.64513057987864
 10
23.96346358308555
 20
18.81263299227197
 10
23.90572444566971
 20
18.65918877396443
 10
23.85267019702324
 20
18.50529652789055
 10
23.80433611492301
 20
18.35085042071969
 97
        0
 97
        1
330
8B
 92
        1
 93
        1
 72
     4
 94
        3
 73
     0
 74
     0
 95
      323
 96
      319
 40
0.0
 40
0.0
 40
0.0
 40
0.0
 40
1.0
 40
1.0
 40
1.0
 40
2.0
 40
2.0
 40
2.0
 40
3.0
 40
3.0
 40
3.0
 40
4.0
 40
4.0
 40
4.0
 40
5.0
 40
5.0
 40
5.0
 40
6.0
 40
6.0
 40
6.0
 40
7.0
 40
7.0
 40
7.0
 40
8.0
 40
8.0
 40
8.0
 40
9.0
 40
9.0
 40
9.0
 40
10.0
 40
10.0
 40
10.0
 40
11.0
 40
11.0
 40
11.0
 40
12.0
 40
12.0
 40
12.0
 40
13.0
 40
13.0
 40
13.0
 40
14.0
 40
14.0
 40
14.0
 40
15.0
 40
15.0
 40
15.0
 40
16.0
 40
16.0
 40
16.0
 40
17.0
 40
17.0
 40
17.0
 40
18.0
 40
18.0
 40
18.0
 40
19.0
 40
19.0
 40
19.0
 40
20.0
 40
20.0
 40
20.0
 40
21.0
 40
21.0
 40
21.0
 40
22.0
 40
22.0
 40
22.0
 40
23.0
 40
23.0
 40
23.0
 40
24.0
 40
24.0
 40
24.0
 40
25.0
 40
25.0
 40
25.0
 40
26.0
 40
26.0
 40
26.0
 40
27.0
 40
27.0
 40
27.0
 40
28.0
 40
28.0
 40
28.0
 40
29.0
 40
29.0
 40
29.0
 40
30.0
 40
30.0
 40
30.0
 40
31.0
 40
31.0
 40
31.0
 40
32.0
 40
32.0
 40
32.0
 40
33.0
 40
33.0
 40
33.0
 40
34.0
 40
34.0
 40
34.0
 40
35.0
 40
35.0
 40
35.0
 40
36.0
 40
36.0
 40
36.0
 40
37.0
 40
37.0
 40
37.0
 40
38.0
 40
38.0
 40
38.0
 40
39.0
 40
39.0
 40
39.0
 40
40.0
 40
40.0
 40
40.0
 40
41.0
 40
41.0
 40
41.0
 40
42.0
 40
42.0
 40
42.0
 40
43.0
 40
43.0
 40
43.0
 40
44.0
 40
44.0
 40
44.0
 40
45.0
 40
45.0
 40
45.0
 40
46.0
 40
46.0
 40
46.0
 40
47.0
 40
47.0
 40
47.0
 40
48.0
 40
48.0
 40
48.0
 40
49.0
 40
49.0
 40
49.0
 40
50.0
 40
50.0
 40
50.0
 40
51.0
 40
51.0
 40
51.0
 40
52.0
 40
52.0
 40
52.0
 40
53.0
 40
53.0
 40
53.0
 40
54.0
 40
54.0
 40
54.0
 40
55.0
 40
55.0
 40
55.0
 40
56.0
 40
56.0
 40
56.0
 40
57.0
 40
57.0
 40
57.0
 40
58.0
 40
58.0
 40
58.0
 40
59.0
 40
59.0
 40
59.0
 40
60.0
 40
60.0
 40
60.0
 40
61.0
 40
61.0
 40
61.0
 40
62.0
 40
62.0
 40
62.0
 40
63.0
 40
63.0
 40
63.0
 40
64.0
 40
64.0
 40
64.0
 40
65.0
 40
65.0
 40
65.0
 40
66.0
 40
66.0
 40
66.0
 40
67.0
 40
67.0
 40
67.0
 40
68.0
 40
68.0
 40
68.0
 40
69.0
 40
69.0
 40
69.0
 40
70.0
 40
70.0
 40
70.0
 40
71.0
 40
71.0
 40
71.0
 40
72.0
 40
72.0
 40
72.0
 40
73.0
 40
73.0
 40
73.0
 40
74.0
 40
74.0
 40
74.0
 40
75.0
 40
75.0
 40
75.0
 40
76.0
 40
76.0
 40
76.0
 40
77.0
 40
77.0
 40
77.0
 40
78.0
 40
78.0
 40
78.0
 40
79.0
 40
79.0
 40
79.0
 40
80.0
 40
80.0
 40
80.0
 40
81.0
 40
81.0
 40
81.0
 40
82.0
 40
82.0
 40
82.0
 40
83.0
 40
83.0
 40
83.0
 40
84.0
 40
84.0
 40
84.0
 40
85.0
 40
85.0
 40
85.0
 40
86.0
 40
86.0
 40
86.0
 40
87.0
 40
87.0
 40
87.0
 40
88.0
 40
88.0
 40
88.0
 40
89.0
 40
89.0
 40
89.0
 40
90.0
 40
90.0
 40
90.0
 40
91.0
 40
91.0
 40
91.0
 40
92.0
 40
92.0
 40
92.0
 40
93.0
 40
93.0
 40
93.0
 40
94.0
 40
94.0
 40
94.0
 40
95.0
 40
95.0
 40
95.0
 40
96.0
 40
96.0
 40
96.0
 40
97.0
 40
97.0
 40
97.0
 40
98.0
 40
98.0
 40
98.0
 40
99.0
 40
99.0
 40
99.0
 40
100.0
 40
100.0
 40
100.0
 40
101.0
 40
101.0
 40
101.0
 40
102.0
 40
102.0
 40
102.0
 40
103.0
 40
103.0
 40
103.0
 40
104.0
 40
104.0
 40
104.0
 40
105.0
 40
105.0
 40
105.0
 40
106.0
 40
106.0
 40
106.0
 40
106.0
 10
24.01421066512422
 20
18.94413138415284
 10
24.02781730366598
 20
18.91967282287449
 10
24.04121933110184
 20
18.89407526797198
 10
24.05420860854823
 20
18.86734176865401
 10
24.13757705086577
 20
18.69711943966341
 10
24.20716952131254
 20
18.48369594510829
 10
24.24578810366063
 20
18.24973725663263
 10
24.26442535318516
 20
18.14132159273188
 10
24.27713946397191
 20
18.02880312338024
 10
24.28509813043553
 20
17.91425618185813
 10
24.32323340724039
 20
17.87701388441963
 10
24.36130165626919
 20
17.8390827671093
 10
24.39926759974504
 20
17.80046418476121
 10
24.48429471610114
 20
18.1206523432592
 10
24.57376206751554
 20
18.41792805095109
 10
24.64076867691717
 20
18.66122077391259
 10
24.73816356332131
 20
19.00466051515071
 10
24.80313817277478
 20
19.23369138408047
 10
24.80313817277478
 20
19.23369138408047
 10
24.80313817277478
 20
19.23369138408047
 10
24.77871184006462
 20
18.99739329311389
 10
24.74205470211093
 20
18.64303155215441
 10
24.73895378552337
 20
18.61050943979179
 10
24.73561360492719
 20
18.57698802606155
 10
24.73206403569915
 20
18.54253574916272
 10
24.73678420224539
 20
18.56734308186316
 10
24.74181481322816
 20
18.59007960906089
 10
24.74694772976388
 20
18.61054471756957
 10
24.75580245176019
 20
18.655329385174
 10
24.76882347920578
 20
18.68919605097666
 10
24.77547334014724
 20
18.71255346704743
 10
24.78274056218406
 20
18.7357380220115
 10
24.78656467319761
 20
18.74810641058484
 10
24.78656467319761
 20
18.74810641058484
 10
24.78656467319761
 20
18.74810641058484
 10
24.78525586767544
 20
18.73521943869139
 10
24.78274056218406
 20
18.71110707819544
 10
24.78084614556572
 20
18.68685360659197
 10
24.77485245127419
 20
18.65205560747975
 10
24.77502531238089
 20
18.60692474752002
 10
24.77085610491837
 20
18.51752733313407
 10
24.77653872900895
 20
18.38947253084547
 10
24.80989033926919
 20
18.24174684016982
 10
24.84289332712263
 20
18.09405289949336
 10
24.90132328138098
 20
17.9274853481873
 10
24.98403971597624
 20
17.75740060252652
 10
25.00780925088652
 20
17.70837507599949
 10
25.03333625023528
 20
17.65907791059049
 10
25.06038082706822
 20
17.6095024955976
 10
25.13397027149431
 20
17.72043302013631
 10
25.21127735680673
 20
17.82723296185606
 10
25.28913541037596
 20
17.92913634814517
 10
25.2790777161881
 20
18.00930555105322
 10
25.27111904972449
 20
18.0854415941575
 10
25.26429632767632
 20
18.15630805101646
 10
25.24803680031336
 20
18.33331736561144
 10
25.23914680054016
 20
18.4804891951901
 10
25.23322366180238
 20
18.58342974811943
 10
25.22743457861674
 20
18.68640557882563
 10
25.22416080092249
 20
18.74524538288006
 10
25.22416080092249
 20
18.74524538288006
 10
25.22416080092249
 20
18.74524538288006
 10
25.2376651339113
 20
18.68778141212386
 10
25.26123068886565
 20
18.58732441468673
 10
25.28503613270276
 20
18.48693444502567
 10
25.31938257627095
 20
18.34351264312911
 10
25.36575521397678
 20
18.17367131412879
 10
25.37540015817516
 20
18.13880628724049
 10
25.38549665791758
 20
18.10284059371361
 10
25.39624579653223
 20
18.06597531687635
 10
25.44316523977967
 20
18.12454348204881
 10
25.48991534969808
 20
18.1812847176769
 10
25.53563182075398
 20
18.23599303476105
 10
25.53563182075398
 20
18.23599303476105
 10
25.50066448831274
 20
18.27289006159751
 10
25.50066448831274
 20
18.27289006159751
 10
25.50066448831274
 20
18.27289006159751
 10
25.54241926502526
 20
18.24398345122387
 10
25.54241926502526
 20
18.24398345122387
 10
25.57773231967991
 20
18.28604867237292
 10
25.61238920768462
 20
18.32684082875163
 10
25.6462205957104
 20
18.36628444810371
 10
25.57625065305104
 20
18.53602699932877
 10
25.50331737713394
 20
18.69932430071827
 10
25.42084146257141
 20
18.84990749132101
 10
25.28779132707692
 20
19.09588884615662
 10
25.12697405340193
 20
19.30593625746453
 10
24.950173049318
 20
19.44732253163524
 10
24.90738400344858
 20
19.48435714180152
 10
24.86180511572251
 20
19.51381408549446
 10
24.81898495014827
 20
19.54340508473953
 10
24.77464431239061
 20
19.56972583406803
 10
24.7314431468261
 20
19.59570438896082
 10
24.69044684231644
 20
19.61599263844322
 10
24.60752289998757
 20
19.65523563744205
 10
24.52687499386828
 20
19.67432091473292
 10
24.4603510704089
 20
19.67504410915891
 10
24.39354907211316
 20
19.67635291468108
 10
24.34166666058125
 20
19.6588868873489
 10
24.31090029644393
 20
19.6402143600475
 10
24.27965476946329
 20
19.62171469385279
 10
24.26714879756012
 20
19.60603724980831
 10
24.26642560313413
 20
19.60693330534101
 10
24.26732165866682
 20
19.60610780536207
 10
24.27737935285467
 20
19.62316108270478
 10
24.30669871321779
 20
19.64610574878608
 10
24.33553476803767
 20
19.6691879981972
 10
24.38741779449181
 20
19.69475027532283
 10
24.45886940378003
 20
19.70243024734912
 10
24.53011287418468
 20
19.71063233047321
 10
24.61844489970892
 20
19.70132958071054
 10
24.71339150839774
 20
19.67049680371937
 10
24.76072722941233
 20
19.6542690263556
 10
24.8079253670971
 20
19.6334944395361
 10
24.85884531024246
 20
19.6114458284305
 10
24.90783203121493
 20
19.58633108364439
 10
24.96054471598208
 20
19.56097694540234
 10
25.01115005635684
 20
19.52762886291979
 10
25.21961349548294
 20
19.40133138403858
 10
25.42315215695691
 20
19.19734773245707
 10
25.59829926359964
 20
18.95601598861396
 10
25.67867262266026
 20
18.84670426918051
 10
25.75394834296204
 20
18.72994893882585
 10
25.82619370223002
 20
18.60992335855463
 10
25.82619370223002
 20
18.60992335855463
 10
25.82543523002714
 20
18.61622749728269
 10
25.82543523002714
 20
18.61622749728269
 10
25.8061418138527
 20
18.77656193975029
 10
25.77716817570298
 20
18.90830279538678
 10
25.74953862085232
 20
18.99911484862553
 10
25.73568856565011
 20
19.04445384746884
 10
25.72370117706704
 20
19.08000679100625
 10
25.7141585384216
 20
19.10374167928961
 10
25.70502864976564
 20
19.12771998423343
 10
25.70017089988957
 20
19.14046937279705
 10
25.70017089988957
 20
19.14046937279705
 10
25.70017089988957
 20
19.14046937279705
 10
25.70733581637345
 20
19.12871834531907
 10
25.72080839936306
 20
19.10681084587798
 10
25.73476076011822
 20
19.08496684643526
 10
25.75336273186587
 20
19.05196448616611
 10
25.77592992573457
 20
19.00917607059106
 10
25.8167886469144
 20
18.93117690591433
 10
25.86594888242242
 20
18.81804107546733
 10
25.91249020002841
 20
18.67892669012754
 10
25.97367597624521
 20
18.76181888245723
 10
26.01191708638071
 20
18.83905604715341
 10
26.02032443793939
 20
18.9050642954694
 10
26.03210721571418
 20
18.99887495974276
 10
25.98890539252334
 20
19.04838026403533
 10
25.99252136465331
 20
19.04806981959881
 10
25.99252136465331
 20
19.04806981959881
 10
26.00192641996892
 20
19.0375958476438
 10
26.01598108627702
 20
19.01506745932966
 10
26.03051971571458
 20
18.99281070989747
 10
26.04540275219308
 20
18.95501762752832
 10
26.04864125211046
 20
18.90413296215983
 10
26.05456791862593
 20
18.81597379774229
 10
26.01381150299904
 20
18.69866860643641
 10
25.94525619919248
 20
18.57650472051832
 10
25.97791283724823
 20
18.46977533435232
 10
26.00933475311326
 20
18.35185277318978
 10
26.0441292244478
 20
18.22948075714942
 10
26.0441292244478
 20
18.22948075714942
 10
26.0772021402707
 20
18.17008709199801
 10
26.0772021402707
 20
18.17008709199801
 10
26.0772021402707
 20
18.17008709199801
 10
26.30426755114445
 20
17.76329199126511
 10
26.30426755114445
 20
17.76329199126511
 10
26.32197699513709
 20
17.7597430469112
 10
26.34002863356544
 20
17.75595421367453
 10
26.35828841087737
 20
17.75188668600053
 10
26.36627882734019
 20
17.86616198864068
 10
26.36783104952281
 20
17.96948001378259
 10
26.36290274409298
 20
18.06180901142708
 10
26.36662454955359
 20
18.13742692616457
 10
26.39308288221191
 20
18.2216949517925
 10
26.44227774206796
 20
18.31450725498021
 10
26.46298226931752
 20
18.36428772593243
 10
26.47993324110729
 20
18.41530997463074
 10
26.49309537966038
 20
18.46760575107434
 10
26.49309537966038
 20
18.46760575107434
 10
26.48382790767459
 20
18.50422761125116
 10
26.48382790767459
 20
18.50422761125116
 10
26.4471707697209
 20
18.64502827432569
 10
26.40699996519019
 20
18.78300318747233
 10
26.35938907751596
 20
18.91722454515917
 10
26.34140446686367
 20
18.93365693362883
 10
26.32369855064872
 20
18.94806084992803
 10
26.30671230108208
 20
18.96042571072368
 10
26.26468235770991
 20
18.99157245992906
 10
26.22758138233202
 20
19.01079532054976
 10
26.20212074819487
 20
19.02367876466552
 10
26.17587055442013
 20
19.03518637548305
 10
26.16191819366497
 20
19.0413176531044
 10
26.16191819366497
 20
19.0413176531044
 10
26.16191819366497
 20
19.0413176531044
 10
26.17686891550577
 20
19.03752881986773
 10
26.2049112203459
 20
19.03036390338385
 10
26.23240319186675
 20
19.02161148694048
 10
26.27319554898727
 20
19.00841759838819
 10
26.32190643958333
 20
18.9835079601348
 10
26.32731452277869
 20
18.98082332131441
 10
26.33286371708156
 20
18.97799805081108
 10
26.33844466138363
 20
18.97496416192291
 10
26.32965696716337
 20
18.99835637642266
 10
26.32066818961492
 20
19.02171379249342
 10
26.31140138231101
 20
19.04490187523518
 10
26.24115560831012
 20
19.21839445414235
 10
26.15985091593993
 20
19.38493025544923
 10
26.07024249348243
 20
19.54082275147207
 10
25.97763832683892
 20
19.69475027532283
 10
25.87869408977951
 20
19.8388917438677
 10
25.77255031470969
 20
19.9667736850496
 10
25.66479081745886
 20
20.09286351516612
 10
25.55575138249998
 20
20.20810190111503
 10
25.44216687869402
 20
20.30060375986623
 10
25.21882327328088
 20
20.49101556056397
 10
24.99561372341988
 20
20.60680427983218
 10
24.8331771997862
 20
20.66984971705474
 10
24.75273328517183
 20
20.70474949955561
 10
24.68579723132395
 20
20.72200738800421
 10
24.64063109358735
 20
20.73558227654678
 10
24.59532737252092
 20
20.74901605398183
 10
24.57117973424809
 20
20.75621624824258
 10
24.57117973424809
 20
20.75621624824258
 10
24.57117973424809
 20
20.75621624824258
 10
24.59591360496214
 20
20.75146433169715
 10
24.64235264909898
 20
20.74253905414707
 10
24.68882759235775
 20
20.73344444326798
 10
24.75803906281424
 20
20.72276638370817
 10
24.84258225510181
 20
20.69568663867571
 10
25.01311502852894
 20
20.64828388988506
 10
25.25351543906248
 20
20.55330200341936
 10
25.50583332695687
 20
20.37904742453163
 10
25.63381692936018
 20
20.29453951002094
 10
25.75973742614768
 20
20.18632845722608
 10
25.88655110463945
 20
20.06544209919903
 10
26.01167719749794
 20
19.94269307455284
 10
26.13142761110952
 20
19.80209702258419
 10
26.24608038596226
 20
19.64944655425641
 10
26.2974130790971
 20
19.57840769495765
 10
26.34722882782619
 20
19.50468419683849
 10
26.39521718771302
 20
19.42854769878089
 10
26.21576332677939
 20
20.057860904948
 10
26.03217358586392
 20
20.52119217090521
 10
25.84448522954114
 20
20.81853796887485
 10
25.78788203654076
 20
20.96492310402914
 10
25.70113398319833
 20
21.04322971696142
 10
25.53980165398093
 20
21.07871157334837
 10
25.56233357007276
 20
21.07692299006068
 10
25.59616143032085
 20
21.09187371190147
 10
25.64126054028139
 20
21.12356726664845
 10
25.58940926382645
 20
21.15679540468966
 10
25.53091165420773
 20
21.16964709880623
 10
25.46576771142525
 20
21.1620835434436
 10
25.49739071061848
 20
21.22128670859987
 10
25.49453321069138
 20
21.31828648390298
 10
25.45722343386545
 20
21.45314284157365
 10
25.45722343386545
 20
21.45314284157365
 10
25.43724210104189
 20
21.39325175976823
 10
25.39727943539475
 20
21.2734307906029
 10
25.38425488017148
 20
21.41171614818605
 10
25.34860027144061
 20
21.59294514356252
 10
25.29023960479223
 20
21.81704777232351
 10
25.28972166034423
 20
21.76469852806961
 10
25.27545821628045
 20
21.69764252978035
 10
25.24745118921719
 20
21.61587217075538
 10
25.23511807842072
 20
21.7416691953238
 10
25.21795896774738
 20
21.87439124749334
 10
25.19608321830547
 20
22.01398893837635
 10
25.19608321830547
 20
22.01398893837635
 10
25.17610188548191
 20
21.98830318903165
 10
25.13613921983477
 20
21.93695693896021
 10
25.12979980332984
 20
22.085232408781
 10
25.06920027151046
 20
22.27312890398736
 10
24.9543069744737
 20
22.5005717870737
 10
26.05849499348535
 20
24.13244413433006
 10
25.95996416017666
 20
24.54088027164255
 10
25.98091144828284
 20
24.5921594281573
 10
25.9861466703715
 20
24.60490528894323
 10
24.83941431073819
 20
21.768886000185
 10
22.66083872742939
 20
21.67042572491916
 10
23.24089004596439
 20
21.58607303262673
 10
23.92412180631147
 20
21.9094961632644
 10
24.29161040804717
 20
22.05858357612754
 10
24.32771368490387
 20
21.93592274592354
 10
24.35730821192663
 20
21.86169830337272
 10
24.38042221133694
 20
21.83598080402883
 10
24.3347762958348
 20
21.85167235918406
 10
24.31193393530645
 20
21.85950755342861
 10
24.31193393530645
 20
21.85950755342861
 10
24.34890151769666
 20
21.71087169610951
 10
24.38886418334379
 20
21.6224161983662
 10
24.43175490447178
 20
21.5941340046433
 10
24.36009868407766
 20
21.61597447630832
 10
24.31655179629975
 20
21.6430536978397
 10
24.30111776891572
 20
21.67538578034817
 10
24.28237468606056
 20
21.5461950336441
 10
24.30373537996005
 20
21.44132478631956
 10
24.36533390616632
 20
21.36079620504069
 10
24.31062512978428
 20
21.40010623181558
 10
24.26380860504515
 20
21.44785470281964
 10
24.22470610419848
 20
21.50399277240177
 10
24.22232838203692
 20
21.45419411932457
 10
24.22081143763117
 20
21.40408610576007
 10
24.22022582653501
 20
21.35370184411057
 10
24.35541026753061
 20
21.17298790427652
 10
24.43058368227944
 20
20.95951149305609
 10
24.44580957077989
 20
20.71329024933772
 10
24.4286892656611
 20
20.5325974761698
 10
24.35585829529695
 20
20.31900112050798
 10
24.22735899301969
 20
20.07243415457621
 10
24.2890598247789
 20
19.71703877475421
 10
24.23573040947278
 20
19.38486322767316
 10
24.06740249710052
 20
19.07587223555617
 10
24.04928030311841
 20
19.03198315334254
 10
24.03153971621436
 20
18.98809054335123
 10
24.01421066512422
 20
18.94413138415284
 97
        0
 97
        1
330
8C
 92
        1
 93
        1
 72
     4
 94
        3
 73
     0
 74
     0
 95
       32
 96
       28
 40
0.0
 40
0.0
 40
0.0
 40
0.0
 40
1.0
 40
1.0
 40
1.0
 40
2.0
 40
2.0
 40
2.0
 40
3.0
 40
3.0
 40
3.0
 40
4.0
 40
4.0
 40
4.0
 40
5.0
 40
5.0
 40
5.0
 40
6.0
 40
6.0
 40
6.0
 40
7.0
 40
7.0
 40
7.0
 40
8.0
 40
8.0
 40
8.0
 40
9.0
 40
9.0
 40
9.0
 40
9.0
 10
13.42358921309126
 20
16.93629666243262
 10
13.43074001846438
 20
16.91552115178243
 10
13.43740399051659
 20
16.89471431897992
 10
13.44381396257528
 20
16.87397451395349
 10
13.45669740669104
 20
16.8310837928255
 10
13.46827204528464
 20
16.78849998835634
 10
13.47866135057514
 20
16.74636773943123
 10
13.47866135057514
 20
16.74636773943123
 10
13.49218332245239
 20
16.73279285088866
 10
13.49218332245239
 20
16.73279285088866
 10
13.57791184804305
 20
16.64673666250499
 10
13.66057860769597
 20
16.55606177206412
 10
13.73296120519852
 20
16.45946063563973
 10
13.7528543435799
 20
16.43293174742765
 10
13.77175264865331
 20
16.40606066477985
 10
13.78954675931046
 20
16.37887913769553
 10
13.7565761490405
 20
16.58176163251957
 10
13.73390664961885
 20
16.80892934894626
 10
13.72665706647047
 20
17.04805666240466
 10
13.67640740108577
 20
17.11647395221125
 10
13.62495476350955
 20
17.18551256156105
 10
13.57336454260351
 20
17.25496744867799
 10
13.55908762630108
 20
17.21779525518189
 10
13.54356540447486
 20
17.18144856166472
 10
13.5274787382186
 20
17.14582506257356
 10
13.49385196129871
 20
17.07234145333717
 10
13.45862710108626
 20
17.00333812176426
 10
13.42358921309126
 20
16.93629666243262
 97
        0
 97
        1
330
8D
 92
        1
 93
        1
 72
     4
 94
        3
 73
     0
 74
     0
 95
       29
 96
       25
 40
0.0
 40
0.0
 40
0.0
 40
0.0
 40
1.0
 40
1.0
 40
1.0
 40
2.0
 40
2.0
 40
2.0
 40
3.0
 40
3.0
 40
3.0
 40
4.0
 40
4.0
 40
4.0
 40
5.0
 40
5.0
 40
5.0
 40
6.0
 40
6.0
 40
6.0
 40
7.0
 40
7.0
 40
7.0
 40
8.0
 40
8.0
 40
8.0
 40
8.0
 10
14.10115536247177
 20
18.04358451189203
 10
14.13324402831979
 20
17.92142109834201
 10
14.16235524979932
 20
17.79636490708801
 10
14.18838319357974
 20
17.67058199363034
 10
14.23298135910861
 20
17.44317086054319
 10
14.26557096938829
 20
17.21345256084823
 10
14.28932702433778
 20
16.99393306644864
 10
14.3163356903154
 20
16.96488887274518
 10
14.34293160630355
 20
16.93574590126646
 10
14.36906221862995
 20
16.90642654090335
 10
14.47639449178751
 20
16.78684898839847
 10
14.57478773927729
 20
16.6640646859754
 10
14.66012115376693
 20
16.54245160574467
 10
14.64081009870404
 20
16.67973860224219
 10
14.61030540503783
 20
16.82402118189457
 10
14.5738034893024
 20
16.96850837265284
 10
14.48256104718575
 20
17.31653069710738
 10
14.34672043954022
 20
17.66159321608188
 10
14.23785674787312
 20
17.91759698732846
 10
14.18361363814587
 20
18.04520376185072
 10
14.13725863932848
 20
18.15134753692054
 10
14.10432330683543
 20
18.22582950724257
 10
14.10270405687671
 20
18.16481659213247
 10
14.1014658069083
 20
18.10407884368202
 10
14.10115536247177
 20
18.04358451189203
 97
        0
 97
        1
330
8E
 92
        1
 93
        1
 72
     4
 94
        3
 73
     0
 74
     0
 95
       23
 96
       19
 40
0.0
 40
0.0
 40
0.0
 40
0.0
 40
1.0
 40
1.0
 40
1.0
 40
2.0
 40
2.0
 40
2.0
 40
3.0
 40
3.0
 40
3.0
 40
4.0
 40
4.0
 40
4.0
 40
5.0
 40
5.0
 40
5.0
 40
6.0
 40
6.0
 40
6.0
 40
6.0
 10
16.16414683761826
 20
16.916452485092
 10
16.16971055151314
 20
17.02469528788606
 10
16.17637805151145
 20
17.13466360682745
 10
16.18459383709661
 20
17.2444581989461
 10
16.19205155912857
 20
17.36121352930076
 10
16.20114617000766
 20
17.47758785966514
 10
16.21124266975007
 20
17.59165502342171
 10
16.19701161455758
 20
17.60850368965853
 10
16.18264650381296
 20
17.62486552257444
 10
16.16812617085007
 20
17.64074757772481
 10
16.1681438097385
 20
17.603402523122
 10
16.16795330974337
 20
17.56619857962671
 10
16.16733242087032
 20
17.52919571945962
 10
16.1647677264913
 20
17.37368422342705
 10
16.16200900433946
 20
17.22196156063115
 10
16.16230221818165
 20
17.07692403655359
 10
16.16235472655286
 20
17.02245867683201
 10
16.16297561542591
 20
16.96888584486543
 10
16.16414683761826
 20
16.916452485092
 97
        0
 97
        1
330
8F
 92
        1
 93
        1
 72
     4
 94
        3
 73
     0
 74
     0
 95
       14
 96
       10
 40
0.0
 40
0.0
 40
0.0
 40
0.0
 40
1.0
 40
1.0
 40
1.0
 40
2.0
 40
2.0
 40
2.0
 40
3.0
 40
3.0
 40
3.0
 40
3.0
 10
16.59345621555455
 20
16.72934973986539
 10
16.58632657684755
 20
16.77038132215193
 10
16.57817741038879
 20
16.8115152099914
 10
16.56875471618477
 20
16.852613820054
 10
16.57500946602516
 20
16.81092959889523
 10
16.5813488825301
 20
16.76965812772593
 10
16.58779060458798
 20
16.72890171209905
 10
16.58779060458798
 20
16.72890171209905
 10
16.59345621555455
 20
16.72934973986539
 10
16.59345621555455
 20
16.72934973986539
 97
        0
 97
        1
330
90
 92
        1
 93
        1
 72
     4
 94
        3
 73
     0
 74
     0
 95
       17
 96
       13
 40
0.0
 40
0.0
 40
0.0
 40
0.0
 40
1.0
 40
1.0
 40
1.0
 40
2.0
 40
2.0
 40
2.0
 40
3.0
 40
3.0
 40
3.0
 40
4.0
 40
4.0
 40
4.0
 40
4.0
 10
19.44229192065247
 20
17.1667377287067
 10
19.43574789304165
 20
17.07709689766029
 10
19.42799383768391
 20
16.98828156659283
 10
19.41914264346528
 20
16.90112076326093
 10
19.41914264346528
 20
16.90112076326093
 10
19.42005281010876
 20
16.88010579157484
 10
19.42005281010876
 20
16.88010579157484
 10
19.42005281010876
 20
16.88010579157484
 10
19.48671722507464
 20
16.8819649304163
 10
19.48671722507464
 20
16.8819649304163
 10
19.4732799198619
 20
16.97753242797817
 10
19.45839975357486
 20
17.07296277350955
 10
19.44229192065247
 20
17.1667377287067
 97
        0
 97
        1
330
91
 92
        1
 93
        1
 72
     4
 94
        3
 73
     0
 74
     0
 95
       26
 96
       22
 40
0.0
 40
0.0
 40
0.0
 40
0.0
 40
1.0
 40
1.0
 40
1.0
 40
2.0
 40
2.0
 40
2.0
 40
3.0
 40
3.0
 40
3.0
 40
4.0
 40
4.0
 40
4.0
 40
5.0
 40
5.0
 40
5.0
 40
6.0
 40
6.0
 40
6.0
 40
7.0
 40
7.0
 40
7.0
 40
7.0
 10
25.26987727197838
 20
17.26213236516187
 10
25.26987727197838
 20
17.26213236516187
 10
25.28324402163737
 20
17.24153014346525
 10
25.28324402163737
 20
17.24153014346525
 10
25.38263563021279
 20
17.09005089732981
 10
25.485780794248
 20
16.93774305132112
 10
25.58090026404353
 20
16.78588237731202
 10
25.59326865261687
 20
16.78123276631952
 10
25.60556648563646
 20
16.77644204421952
 10
25.61790312421062
 20
16.77155254434427
 10
25.60257140237954
 20
16.80176443246239
 10
25.58779001386776
 20
16.83245962612373
 10
25.57394348644323
 20
16.86360284755142
 10
25.4756525445064
 20
17.07444444017583
 10
25.40954199063746
 20
17.29007236444906
 10
25.36337749181522
 20
17.49567477587037
 10
25.35631488088429
 20
17.47941524850741
 10
25.34932282550712
 20
17.46308516559069
 10
25.34243307568289
 20
17.4466880548979
 10
25.31635221523716
 20
17.38529413979752
 10
25.29213402141057
 20
17.32362858581519
 10
25.26987727197838
 20
17.26213236516187
 97
        0
 97
        1
330
92
 92
        1
 93
        1
 72
     4
 94
        3
 73
     0
 74
     0
 95
       50
 96
       46
 40
0.0
 40
0.0
 40
0.0
 40
0.0
 40
1.0
 40
1.0
 40
1.0
 40
2.0
 40
2.0
 40
2.0
 40
3.0
 40
3.0
 40
3.0
 40
4.0
 40
4.0
 40
4.0
 40
5.0
 40
5.0
 40
5.0
 40
6.0
 40
6.0
 40
6.0
 40
7.0
 40
7.0
 40
7.0
 40
8.0
 40
8.0
 40
8.0
 40
9.0
 40
9.0
 40
9.0
 40
10.0
 40
10.0
 40
10.0
 40
11.0
 40
11.0
 40
11.0
 40
12.0
 40
12.0
 40
12.0
 40
13.0
 40
13.0
 40
13.0
 40
14.0
 40
14.0
 40
14.0
 40
15.0
 40
15.0
 40
15.0
 40
15.0
 10
25.49125943299712
 20
17.76828777333569
 10
25.51000251585228
 20
17.71502493694095
 10
25.53008615422879
 20
17.66097277336254
 10
25.55172201478793
 20
17.60653916226505
 10
25.63336890159383
 20
17.40627736148442
 10
25.73317326015872
 20
17.1996377834229
 10
25.86267445129931
 20
17.01746334362611
 10
25.9382958938145
 20
16.90763304087256
 10
26.02373514163476
 20
16.80741593231821
 10
26.11499522263985
 20
16.71374285137467
 10
26.11499522263985
 20
16.71374285137467
 10
26.12453786128529
 20
16.72604110692959
 10
26.12453786128529
 20
16.72604110692959
 10
26.14041991643566
 20
16.76066582239979
 10
26.14834330512241
 20
16.79828604366224
 10
26.14830802734553
 20
16.83886959818242
 10
26.08608861226621
 20
17.02218351017236
 10
26.02962653037335
 20
17.21724492186259
 10
25.98566689260596
 20
17.41430305572411
 10
25.97040219855095
 20
17.4816558289629
 10
25.95631225446597
 20
17.54911002450712
 10
25.94360167145691
 20
17.61628949501545
 10
25.94360167145691
 20
17.61628949501545
 10
25.87797089535352
 20
17.7826877129925
 10
25.87797089535352
 20
17.7826877129925
 10
25.78171548114253
 20
17.79967043478146
 10
25.72563087146225
 20
17.80766437902196
 10
25.72563087146225
 20
17.80766437902196
 10
25.72563087146225
 20
17.80766437902196
 10
25.7747911046674
 20
17.80935110665878
 10
25.86267445129931
 20
17.80959407341718
 10
25.84345159067862
 20
17.84221896147373
 10
25.82381598006846
 20
17.87322459957161
 10
25.80383464724489
 20
17.90230054327426
 10
25.78416023108016
 20
17.93199737584996
 10
25.76535012044893
 20
17.96052298623332
 10
25.74740431535121
 20
17.9876022077647
 10
25.72725012142095
 20
18.01319976266721
 10
25.70816484413007
 20
18.03738267871692
 10
25.69018023347779
 20
18.06018976146839
 10
25.68129023370459
 20
18.07159153895529
 10
25.6727142061456
 20
18.08261584422959
 10
25.66430751191563
 20
18.09319212173754
 10
25.60618737450951
 20
17.98932376327633
 10
25.54741459823115
 20
17.8803542382786
 10
25.49125943299712
 20
17.76828777333569
 97
        0
 97
        1
330
93
 92
        1
 93
        1
 72
     4
 94
        3
 73
     0
 74
     0
 95
       17
 96
       13
 40
0.0
 40
0.0
 40
0.0
 40
0.0
 40
1.0
 40
1.0
 40
1.0
 40
2.0
 40
2.0
 40
2.0
 40
3.0
 40
3.0
 40
3.0
 40
4.0
 40
4.0
 40
4.0
 40
4.0
 10
25.68952471579985
 20
18.13804781503762
 10
25.70378687201954
 20
18.1263355931142
 10
25.71870584386115
 20
18.11382962121104
 10
25.73434448235107
 20
18.10070276043482
 10
25.73434448235107
 20
18.10070276043482
 10
25.76152666022627
 20
18.07806853879004
 10
25.76152666022627
 20
18.07806853879004
 10
25.74695693800768
 20
18.11489853785043
 10
25.73252062128648
 20
18.15162270358019
 10
25.7180849549881
 20
18.18820928598012
 10
25.7180849549881
 20
18.18820928598012
 10
25.68952471579985
 20
18.13804781503762
 10
25.68952471579985
 20
18.13804781503762
 97
        0
 97
        1
330
94
 92
        1
 93
        1
 72
     4
 94
        3
 73
     0
 74
     0
 95
       26
 96
       22
 40
0.0
 40
0.0
 40
0.0
 40
0.0
 40
1.0
 40
1.0
 40
1.0
 40
2.0
 40
2.0
 40
2.0
 40
3.0
 40
3.0
 40
3.0
 40
4.0
 40
4.0
 40
4.0
 40
5.0
 40
5.0
 40
5.0
 40
6.0
 40
6.0
 40
6.0
 40
7.0
 40
7.0
 40
7.0
 40
7.0
 10
24.89584527155384
 20
17.34178252979649
 10
24.88550888266749
 20
17.32331814137866
 10
24.8753136048923
 20
17.30488550296003
 10
24.86525175452346
 20
17.28635055898845
 10
24.79659061738627
 20
17.36810327912499
 10
24.72579517474797
 20
17.44830730485659
 10
24.65434356545974
 20
17.52892055279998
 10
24.65434356545974
 20
17.52892055279998
 10
24.63653181591415
 20
17.5487995800706
 10
24.63653181591415
 20
17.5487995800706
 10
24.6553066487685
 20
17.8132806011009
 10
24.68273221605153
 20
18.07472773331972
 10
24.70763832715642
 20
18.3093743384445
 10
24.70694978633986
 20
18.28398139464788
 10
24.70687923078611
 20
18.25776693987999
 10
24.70746484188228
 20
18.23068725711864
 10
24.71067221604452
 20
18.07135165007252
 10
24.73668189669244
 20
17.88455934928243
 10
24.78732314540048
 20
17.69042574312408
 10
24.81674481131654
 20
17.57587880160197
 10
24.85401931036558
 20
17.45884830458767
 10
24.89584527155384
 20
17.34178252979649
 97
        0
 97
        1
330
95
 92
        1
 93
        1
 72
     4
 94
        3
 73
     0
 74
     0
 95
       17
 96
       13
 40
0.0
 40
0.0
 40
0.0
 40
0.0
 40
1.0
 40
1.0
 40
1.0
 40
2.0
 40
2.0
 40
2.0
 40
3.0
 40
3.0
 40
3.0
 40
4.0
 40
4.0
 40
4.0
 40
4.0
 10
24.67356642608043
 20
16.86963181961983
 10
24.66646916050006
 20
16.85078995898942
 10
24.6595787875484
 20
16.83201159835738
 10
24.65289717660775
 20
16.81330732105679
 10
24.65289717660775
 20
16.81330732105679
 10
24.62033931632726
 20
16.81516645989825
 10
24.62033931632726
 20
16.81516645989825
 10
24.6181344552724
 20
16.86687662524568
 10
24.61675862197417
 20
16.9194828461258
 10
24.61620476087718
 20
16.97278051143274
 10
24.63615434370156
 20
16.93812009565033
 10
24.6553066487685
 20
16.90370662430607
 10
24.67356642608043
 20
16.86963181961983
 97
        0
 97
        1
330
96
 92
        1
 93
        1
 72
     4
 94
        3
 73
     0
 74
     0
 95
       20
 96
       16
 40
0.0
 40
0.0
 40
0.0
 40
0.0
 40
1.0
 40
1.0
 40
1.0
 40
2.0
 40
2.0
 40
2.0
 40
3.0
 40
3.0
 40
3.0
 40
4.0
 40
4.0
 40
4.0
 40
5.0
 40
5.0
 40
5.0
 40
5.0
 10
22.77862769664657
 20
18.34265186537329
 10
22.74813711409112
 20
18.44138777316741
 10
22.70969139284972
 20
18.53168430499512
 10
22.66386908846319
 20
18.61047416201402
 10
22.60519861773778
 20
18.71537568919765
 10
22.53612473061111
 20
18.79881821484663
 10
22.47149584337105
 20
18.86151740769149
 10
22.46839492678349
 20
18.57905530378658
 10
22.47807514875875
 20
18.2789543114428
 10
22.50005673153129
 20
17.98074420793966
 10
22.50794484244115
 20
17.88748740476329
 10
22.51707473109712
 20
17.7944352126928
 10
22.52734056416855
 20
17.70224379837813
 10
22.62173683953808
 20
17.92717490375077
 10
22.70552155962277
 20
18.14070070385883
 10
22.77862769664657
 20
18.34265186537329
 97
        0
 97
        1
330
97
 92
        1
 93
        1
 72
     4
 94
        3
 73
     0
 74
     0
 95
       26
 96
       22
 40
0.0
 40
0.0
 40
0.0
 40
0.0
 40
1.0
 40
1.0
 40
1.0
 40
2.0
 40
2.0
 40
2.0
 40
3.0
 40
3.0
 40
3.0
 40
4.0
 40
4.0
 40
4.0
 40
5.0
 40
5.0
 40
5.0
 40
6.0
 40
6.0
 40
6.0
 40
7.0
 40
7.0
 40
7.0
 40
7.0
 10
23.82359425332058
 20
16.85347459780982
 10
23.86782905774762
 20
17.07919945316221
 10
23.92181111192597
 20
17.31163766945444
 10
23.96615174968364
 20
17.54232258023584
 10
23.98651055471979
 20
17.64939768861523
 10
24.00332394317974
 20
17.75698785253705
 10
24.01558649842245
 20
17.86350909981947
 10
23.92787536177126
 20
17.9765779024904
 10
23.83981850290667
 20
18.08423555103449
 10
23.75407233842757
 20
18.18438517496657
 10
23.68937289563374
 20
17.96165893064879
 10
23.63438895259206
 20
17.73789904746849
 10
23.58918753707857
 20
17.51307377542648
 10
23.59197860521311
 20
17.38219322320997
 10
23.59786999410051
 20
17.24825055996047
 10
23.60817110520908
 20
17.11533800779579
 10
23.61547360520727
 20
17.02965887109276
 10
23.62429304964951
 20
16.94449478993214
 10
23.63480170258153
 20
16.86091820873102
 10
23.69801947874648
 20
16.85857576434634
 10
23.7609620882518
 20
16.85602518107808
 10
23.82359425332058
 20
16.85347459780982
 97
        0
 97
        1
330
98
 92
        1
 93
        1
 72
     4
 94
        3
 73
     0
 74
     0
 95
       17
 96
       13
 40
0.0
 40
0.0
 40
0.0
 40
0.0
 40
1.0
 40
1.0
 40
1.0
 40
2.0
 40
2.0
 40
2.0
 40
3.0
 40
3.0
 40
3.0
 40
4.0
 40
4.0
 40
4.0
 40
4.0
 10
24.28981829698177
 20
17.35756227939391
 10
24.28981829698177
 20
17.35756227939391
 10
24.29743124123199
 20
17.39132311186593
 10
24.29743124123199
 20
17.39132311186593
 10
24.30235601888413
 20
17.41275083354149
 10
24.30731960209083
 20
17.43414680521786
 10
24.31234668529592
 20
17.45543694356359
 10
24.31234668529592
 20
17.45543694356359
 10
24.29353657466469
 20
17.48303166229591
 10
24.29353657466469
 20
17.48303166229591
 10
24.29250293580217
 20
17.44100127726521
 10
24.29129996361064
 20
17.39917947277661
 10
24.28981829698177
 20
17.35756227939391
 97
        0
 97
        1
330
99
 92
        1
 93
        1
 72
     4
 94
        3
 73
     0
 74
     0
 95
       14
 96
       10
 40
0.0
 40
0.0
 40
0.0
 40
0.0
 40
1.0
 40
1.0
 40
1.0
 40
2.0
 40
2.0
 40
2.0
 40
3.0
 40
3.0
 40
3.0
 40
3.0
 10
27.76609043051691
 20
17.0873980085086
 10
27.76609043051691
 20
17.0873980085086
 10
27.77970059683635
 20
17.07782009208629
 10
27.77970059683635
 20
17.07782009208629
 10
27.77970059683635
 20
17.07782009208629
 10
27.76505749305871
 20
17.09707823048386
 10
27.76505749305871
 20
17.09707823048386
 10
27.76505749305871
 20
17.09707823048386
 10
27.76609043051691
 20
17.0873980085086
 10
27.76609043051691
 20
17.0873980085086
 97
        0
 97
        1
330
9A
 92
        1
 93
        1
 72
     4
 94
        3
 73
     0
 74
     0
 95
       35
 96
       31
 40
0.0
 40
0.0
 40
0.0
 40
0.0
 40
1.0
 40
1.0
 40
1.0
 40
2.0
 40
2.0
 40
2.0
 40
3.0
 40
3.0
 40
3.0
 40
4.0
 40
4.0
 40
4.0
 40
5.0
 40
5.0
 40
5.0
 40
6.0
 40
6.0
 40
6.0
 40
7.0
 40
7.0
 40
7.0
 40
8.0
 40
8.0
 40
8.0
 40
9.0
 40
9.0
 40
9.0
 40
10.0
 40
10.0
 40
10.0
 40
10.0
 10
27.71406982073295
 20
17.54159938580984
 10
27.71406982073295
 20
17.54159938580984
 10
27.83323462324836
 20
17.43872938843428
 10
27.83323462324836
 20
17.43872938843428
 10
27.83323462324836
 20
17.43872938843428
 10
27.91233445456369
 20
17.36896405688081
 10
27.91233445456369
 20
17.36896405688081
 10
27.9329366762603
 20
17.43400922188803
 10
27.95288273130699
 20
17.49936130355409
 10
27.97166109193903
 20
17.56485449632767
 10
27.95925742558881
 20
17.60164568983349
 10
27.94664914813269
 20
17.63830282778718
 10
27.9336598706863
 20
17.67495996574087
 10
27.88511764970249
 20
17.8106277122797
 10
27.83075459553385
 20
17.94770656989363
 10
27.77401381920365
 20
18.08085901094107
 10
27.71727304287345
 20
18.21370100755199
 10
27.65888126658537
 20
18.34292749541428
 10
27.59655601817542
 20
18.46495332871707
 10
27.59655601817542
 20
18.46495332871707
 10
27.58157001855775
 20
18.49396177817972
 10
27.58157001855775
 20
18.49396177817972
 10
27.596764157059
 20
18.42715977988398
 10
27.60906199007859
 20
18.35839633719384
 10
27.61902090649118
 20
18.28901200563065
 10
27.65281701674008
 20
18.04751138437703
 10
27.68296187708214
 20
17.79691524040731
 10
27.71403454295607
 20
17.54180444005898
 10
27.71403454295607
 20
17.54180444005898
 10
27.71406982073295
 20
17.54159938580984
 10
27.71406982073295
 20
17.54159938580984
 97
        0
 97
        1
330
9B
 92
        1
 93
        1
 72
     4
 94
        3
 73
     0
 74
     0
 95
       20
 96
       16
 40
0.0
 40
0.0
 40
0.0
 40
0.0
 40
1.0
 40
1.0
 40
1.0
 40
2.0
 40
2.0
 40
2.0
 40
3.0
 40
3.0
 40
3.0
 40
4.0
 40
4.0
 40
4.0
 40
5.0
 40
5.0
 40
5.0
 40
5.0
 10
27.61375110420769
 20
19.50530508571154
 10
27.61375110420769
 20
19.50530508571154
 10
27.76867629156205
 20
19.25815250868359
 10
27.76867629156205
 20
19.25815250868359
 10
27.85411201160462
 20
19.12090078996295
 10
27.95061084247607
 20
18.96400993285446
 10
28.05206972877652
 20
18.79454607606674
 10
28.02567842389426
 20
18.897588934549
 10
27.99047120257025
 20
18.99339632099364
 10
27.94923148140014
 20
19.07842281882443
 10
27.86303728915469
 20
19.25773975869412
 10
27.74962276427036
 20
19.38699753317426
 10
27.6604299609903
 20
19.46637253114923
 10
27.64378943363706
 20
19.48063582846318
 10
27.62811551737027
 20
19.49369164156338
 10
27.61375110420769
 20
19.50530508571154
 97
        0
 97
        1
330
9C
 92
        1
 93
        1
 72
     4
 94
        3
 73
     0
 74
     0
 95
       11
 96
        7
 40
0.0
 40
0.0
 40
0.0
 40
0.0
 40
1.0
 40
1.0
 40
1.0
 40
2.0
 40
2.0
 40
2.0
 40
2.0
 10
23.05189288411944
 20
27.68149784934171
 10
23.0571281062081
 20
27.67297121067035
 10
23.06064177278512
 20
27.6637884053491
 10
23.06236332829676
 20
27.65391768337867
 10
23.05895196727268
 20
27.66316751647602
 10
23.05547416090277
 20
27.67236796068574
 10
23.05189288411944
 20
27.68149784934171
 97
        0
 97
        1
330
9D
 92
        1
 93
        1
 72
     4
 94
        3
 73
     0
 74
     0
 95
       41
 96
       37
 40
0.0
 40
0.0
 40
0.0
 40
0.0
 40
1.0
 40
1.0
 40
1.0
 40
2.0
 40
2.0
 40
2.0
 40
3.0
 40
3.0
 40
3.0
 40
4.0
 40
4.0
 40
4.0
 40
5.0
 40
5.0
 40
5.0
 40
6.0
 40
6.0
 40
6.0
 40
7.0
 40
7.0
 40
7.0
 40
8.0
 40
8.0
 40
8.0
 40
9.0
 40
9.0
 40
9.0
 40
10.0
 40
10.0
 40
10.0
 40
11.0
 40
11.0
 40
11.0
 40
12.0
 40
12.0
 40
12.0
 40
12.0
 10
19.02760518123201
 20
21.06341512929418
 10
18.82937582517815
 20
21.11867423899551
 10
18.71441260588889
 20
21.22590456959317
 10
18.64408282990537
 20
21.42317138353309
 10
18.64149696886023
 20
21.24221701362145
 10
18.55504172106589
 20
21.36229551055799
 10
18.57312863727112
 20
20.65334625086701
 10
18.02863379005123
 20
21.98170624475551
 10
17.27999703137277
 20
22.14223071288241
 10
17.3352561410741
 20
22.68693369898588
 10
17.35115583511291
 20
22.2049475446157
 10
18.10115078820117
 20
21.82478363764782
 10
18.46383455672614
 20
21.10131404499396
 10
18.45384389031433
 20
21.28431805023447
 10
18.54413736023297
 20
21.68203564128963
 10
18.58157060927797
 20
21.95390382879814
 10
18.63984244112467
 20
21.91492188534821
 10
18.60267024762856
 20
21.37512956578612
 10
18.94263160006653
 20
21.27351545726741
 10
18.96976373826323
 20
21.71529905710768
 10
19.50368583575285
 20
22.3676945126859
 10
19.51491475213304
 20
22.80644422371469
 10
19.51491475213304
 20
22.80644422371469
 10
19.60527877760544
 20
22.64933111661187
 10
19.62221211050677
 20
22.39201853984312
 10
20.20972166161423
 20
23.19851438037881
 10
19.86266190992794
 20
24.17340868884052
 10
20.42154303455859
 20
25.26553810542242
 10
19.93669938026131
 20
24.02116804955026
 10
20.36936720255637
 20
23.42909345782958
 10
19.56014791764572
 20
21.97536682825057
 10
19.56014791764572
 20
21.97536682825057
 10
19.54559230690595
 20
22.11897560236459
 10
19.51643169653879
 20
22.40624606725793
 10
19.44127592067839
 20
22.15027404601054
 10
19.0086751261594
 20
21.63421661473182
 10
19.02760518123201
 20
21.06341512929418
 97
        0
 97
        1
330
9E
 92
        1
 93
        1
 72
     4
 94
        3
 73
     0
 74
     0
 95
       68
 96
       64
 40
0.0
 40
0.0
 40
0.0
 40
0.0
 40
1.0
 40
1.0
 40
1.0
 40
2.0
 40
2.0
 40
2.0
 40
3.0
 40
3.0
 40
3.0
 40
4.0
 40
4.0
 40
4.0
 40
5.0
 40
5.0
 40
5.0
 40
6.0
 40
6.0
 40
6.0
 40
7.0
 40
7.0
 40
7.0
 40
8.0
 40
8.0
 40
8.0
 40
9.0
 40
9.0
 40
9.0
 40
10.0
 40
10.0
 40
10.0
 40
11.0
 40
11.0
 40
11.0
 40
12.0
 40
12.0
 40
12.0
 40
13.0
 40
13.0
 40
13.0
 40
14.0
 40
14.0
 40
14.0
 40
15.0
 40
15.0
 40
15.0
 40
16.0
 40
16.0
 40
16.0
 40
17.0
 40
17.0
 40
17.0
 40
18.0
 40
18.0
 40
18.0
 40
19.0
 40
19.0
 40
19.0
 40
20.0
 40
20.0
 40
20.0
 40
21.0
 40
21.0
 40
21.0
 40
21.0
 10
19.8412871049177
 20
27.91174884346752
 10
19.77670760656526
 20
28.00893559098808
 10
19.78463099525201
 20
28.06016597856997
 10
19.86502249503374
 20
28.0652636173288
 10
19.89206593695556
 20
28.1390047543364
 10
19.93736965802199
 20
28.20652994705814
 10
20.00110248972936
 20
28.26783638182192
 10
19.97476762929011
 20
28.20582439152058
 10
19.97948779583635
 20
28.15256200399053
 10
20.01535118381029
 20
28.10798147735012
 10
20.02866501680396
 20
28.11196081058191
 10
20.04976465515456
 20
28.1293950879149
 10
20.07865362663975
 20
28.16026314268294
 10
20.12535081989286
 20
28.21035405807169
 10
20.16860490212269
 20
28.29682341697678
 10
20.20837706777468
 20
28.41971002495279
 10
20.21328773431607
 20
28.4660297459933
 10
20.29710773217764
 20
28.52879949439191
 10
20.45992172802391
 20
28.60798752014943
 10
20.49747492151029
 20
28.60409285358212
 10
20.49645943932034
 20
28.57370810435734
 10
20.45680317254792
 20
28.51684738358572
 10
20.43664897861765
 20
28.51023280042114
 10
20.42374789561344
 20
28.49257627309382
 10
20.41801172909312
 20
28.46384252382688
 10
20.43578820086183
 20
28.44215727438011
 10
20.44157728404747
 20
28.41077063629196
 10
20.43535832822451
 20
28.36972494289468
 10
20.36590645264466
 20
28.37914410932105
 10
20.31474662061652
 20
28.36036999290991
 10
20.28191359367639
 20
28.31351686099534
 10
20.27669601047616
 20
28.30983033331161
 10
20.23793631702056
 20
28.27158922317611
 10
20.16562443940303
 20
28.19882880836575
 10
20.19959290133212
 20
28.2186901967479
 10
20.24234603913028
 20
28.25033436260726
 10
20.29374928781888
 20
28.29374013927766
 10
20.33114373130931
 20
28.33768213815661
 10
20.37708598013722
 20
28.35454915957804
 10
20.43137847875211
 20
28.34445194353945
 10
20.45701131143149
 20
28.28569680614953
 10
20.4551345337016
 20
28.23765552959739
 10
20.42585045111536
 20
28.2004480583244
 10
20.32516767590621
 20
28.23582814075512
 10
20.23289159492704
 20
28.20294572492736
 10
20.14895165262408
 20
28.10161031084597
 10
20.21120332828054
 20
28.05132889546209
 10
20.26372437191821
 20
28.04714142334669
 10
20.30639284305187
 20
28.08891383894766
 10
20.29831423214686
 20
28.0814561169157
 10
20.28170898257049
 20
28.07590692261283
 10
20.25660884432197
 20
28.07232693742637
 10
20.28870103794767
 20
28.09251217218919
 10
20.31743125943692
 20
28.1281011040791
 10
20.3428065643451
 20
28.17908736442492
 10
20.35288189742139
 20
28.16637749295842
 10
20.35131556412801
 20
28.13683517105842
 10
20.33803348113353
 20
28.09053308890635
 10
20.39984014622338
 20
27.86884048345109
 10
20.24582795570812
 20
27.84088284527546
 10
19.87606443947543
 20
28.0066778132679
 10
19.89087707587478
 20
27.960961342212
 10
19.87928479839274
 20
27.92932070413033
 10
19.8412871049177
 20
27.91174884346752
 97
        0
 97
        1
330
9F
 92
        1
 93
        1
 72
     4
 94
        3
 73
     0
 74
     0
 95
       53
 96
       49
 40
0.0
 40
0.0
 40
0.0
 40
0.0
 40
1.0
 40
1.0
 40
1.0
 40
2.0
 40
2.0
 40
2.0
 40
3.0
 40
3.0
 40
3.0
 40
4.0
 40
4.0
 40
4.0
 40
5.0
 40
5.0
 40
5.0
 40
6.0
 40
6.0
 40
6.0
 40
7.0
 40
7.0
 40
7.0
 40
8.0
 40
8.0
 40
8.0
 40
9.0
 40
9.0
 40
9.0
 40
10.0
 40
10.0
 40
10.0
 40
11.0
 40
11.0
 40
11.0
 40
12.0
 40
12.0
 40
12.0
 40
13.0
 40
13.0
 40
13.0
 40
14.0
 40
14.0
 40
14.0
 40
15.0
 40
15.0
 40
15.0
 40
16.0
 40
16.0
 40
16.0
 40
16.0
 10
20.48784408842266
 20
30.03213726159412
 10
20.59548716900979
 20
30.68694571711082
 10
20.3417376477057
 20
31.05274804111176
 10
19.72658141339964
 20
31.12951953915312
 10
19.7580527181523
 20
31.19802545407209
 10
19.89313485359495
 20
31.33644839498504
 10
19.96913376832273
 20
31.3650621998106
 10
19.45910530911241
 20
31.37221026993473
 10
18.89893301784805
 20
31.5069988073006
 10
18.63954963557658
 20
31.12959009470691
 10
18.72516221754094
 20
31.643496380978
 10
18.90832043427522
 20
31.83025260460927
 10
18.9412557667683
 20
32.01323843327424
 10
18.65314216300758
 20
31.98726340615914
 10
18.43637832872422
 20
31.8350927155969
 10
18.43637832872422
 20
31.8350927155969
 10
18.63974013557172
 20
32.27599789879291
 10
19.04614012520359
 20
32.6072950292297
 10
19.50349582845744
 20
32.49489650431946
 10
20.04530554415721
 20
32.36172642438357
 10
20.5934380504072
 20
32.04019771036423
 10
21.14782073825192
 20
31.53039150114825
 10
21.41385045368716
 20
31.32413292307701
 10
21.55772082794387
 20
31.17203278806852
 10
21.57945844946215
 20
31.07412284612197
 10
21.40840709271492
 20
30.53675763760907
 10
21.09450896183424
 20
30.1673569803666
 10
20.78157443924904
 20
30.02719484505355
 10
21.19460666136803
 20
30.1125819369163
 10
21.51668870106353
 20
30.45881138959765
 10
21.74778636183441
 20
31.0661465407699
 10
21.56323067209838
 20
30.20487489607611
 10
21.0694123513634
 20
30.04478081682715
 10
20.85162852358619
 20
30.01696076198131
 10
20.74967222063176
 20
30.00392209564728
 10
20.6723115837165
 20
29.98073754068322
 10
20.58157008603151
 20
29.96921304806324
 10
20.37789384122772
 20
30.00330120677423
 10
20.37036556364201
 20
29.7149124363539
 10
20.55894997549749
 20
29.10399306305083
 10
20.85288794022073
 20
29.08616367461681
 10
21.08379510099646
 20
29.15913222831078
 10
21.25175965226688
 20
29.32284227968974
 10
21.11664277249863
 20
29.13524211780916
 10
20.84331055034472
 20
29.03388553706165
 10
20.43177711763083
 20
29.01877959300262
 10
20.2838432880716
 20
29.70747235321035
 10
20.30255109314988
 20
30.04526412237034
 10
20.48784408842266
 20
30.03213726159412
 97
        0
 97
        1
330
A0
 92
        1
 93
        1
 72
     4
 94
        3
 73
     0
 74
     0
 95
       17
 96
       13
 40
0.0
 40
0.0
 40
0.0
 40
0.0
 40
1.0
 40
1.0
 40
1.0
 40
2.0
 40
2.0
 40
2.0
 40
3.0
 40
3.0
 40
3.0
 40
4.0
 40
4.0
 40
4.0
 40
4.0
 10
16.64265460318828
 20
30.01327499249669
 10
16.70574890713417
 20
29.86949259907687
 10
16.73723785077526
 20
29.54141632966901
 10
16.5830880769302
 20
29.02906306496245
 10
16.12978275516162
 20
29.0754004248914
 10
15.83548495711423
 20
29.20209350499252
 10
15.70017704389955
 20
29.4090929163782
 10
15.87350028947771
 20
29.22471082602717
 10
16.12307997755488
 20
29.13100172902845
 10
16.44895138590784
 20
29.12797136799465
 10
16.63052610349771
 20
29.4561358318447
 10
16.6322300201209
 20
29.80355490631463
 10
16.64265460318828
 20
30.01327499249669
 97
        0
 97
        1
330
A1
 92
        1
 93
        1
 72
     4
 94
        3
 73
     0
 74
     0
 95
       65
 96
       61
 40
0.0
 40
0.0
 40
0.0
 40
0.0
 40
1.0
 40
1.0
 40
1.0
 40
2.0
 40
2.0
 40
2.0
 40
3.0
 40
3.0
 40
3.0
 40
4.0
 40
4.0
 40
4.0
 40
5.0
 40
5.0
 40
5.0
 40
6.0
 40
6.0
 40
6.0
 40
7.0
 40
7.0
 40
7.0
 40
8.0
 40
8.0
 40
8.0
 40
9.0
 40
9.0
 40
9.0
 40
10.0
 40
10.0
 40
10.0
 40
11.0
 40
11.0
 40
11.0
 40
12.0
 40
12.0
 40
12.0
 40
13.0
 40
13.0
 40
13.0
 40
14.0
 40
14.0
 40
14.0
 40
15.0
 40
15.0
 40
15.0
 40
16.0
 40
16.0
 40
16.0
 40
17.0
 40
17.0
 40
17.0
 40
18.0
 40
18.0
 40
18.0
 40
19.0
 40
19.0
 40
19.0
 40
20.0
 40
20.0
 40
20.0
 40
20.0
 10
17.70138302062231
 20
25.63819554914602
 10
17.67006693808792
 20
25.62558309623694
 10
17.60638349526818
 20
25.66243138247329
 10
17.51042088660527
 20
25.74871312087338
 10
17.62340194003858
 20
25.68704403911335
 10
17.7164889646814
 20
25.68277190033346
 10
17.7896444905928
 20
25.73591499356602
 10
17.81662140657126
 20
25.83258250762258
 10
17.88178651601984
 20
25.8883072839787
 10
17.98512218005019
 20
25.9030851447128
 10
18.01621248481257
 20
25.92711636632193
 10
18.09884362159339
 20
25.8798512008611
 10
18.1130887878966
 20
25.9068069501734
 10
18.1927742303081
 20
26.0359306691014
 10
18.27090745053698
 20
25.99305471572395
 10
18.41598025239142
 20
25.88095186749969
 10
18.46140391789923
 20
25.85037661827973
 10
18.56270805091487
 20
25.88634231180661
 10
18.7798352431087
 20
25.95471064339572
 10
18.850461352418
 20
26.00823055869698
 10
18.9312121836912
 20
26.02493811382629
 10
19.01360343158923
 20
25.96196375432179
 10
19.24518087012564
 20
25.93628153275477
 10
19.37359903351608
 20
25.89156342278452
 10
19.3989355328697
 20
25.65660637322322
 10
19.37893656115772
 20
25.34462029784931
 10
19.24385442571503
 20
25.10756069278609
 10
18.99375968209549
 20
24.94543461358894
 10
18.86795912974937
 20
24.86490666045045
 10
18.83774724163125
 20
24.87057517105432
 10
18.90309932329731
 20
24.96245614093246
 10
18.97599732143753
 20
25.06584119385045
 10
18.9750518770172
 20
25.1140235815101
 10
18.90025946225865
 20
25.10694333169074
 10
18.74256074405966
 20
25.08582252667401
 10
18.70387160615781
 20
25.16514813576136
 10
18.78410738188861
 20
25.34494838117427
 10
18.80898221751996
 20
25.27978327172566
 10
18.8798124627803
 20
25.23727002281026
 10
18.9965819042457
 20
25.21742627331652
 10
19.1482199003771
 20
25.30164138227916
 10
19.24454234236415
 20
25.45372387839918
 10
19.28555628576224
 20
25.67362437278905
 10
19.25327711991909
 20
25.80669214717199
 10
19.21544875977305
 20
25.82559110465473
 10
19.17216292754404
 20
25.73028048245474
 10
19.18642573273572
 20
25.70128920541659
 10
19.09099581850371
 20
25.77189832689037
 10
19.03139754224637
 20
25.75363789852554
 10
18.92189532281778
 20
25.7999047029007
 10
18.85893555084081
 20
25.68589110468965
 10
18.6969465785567
 20
25.59995443804444
 10
18.63718955230346
 20
25.63013040167645
 10
18.59987977547753
 20
25.71281445512256
 10
18.448107723794
 20
25.71093832690561
 10
18.35486503172838
 20
25.7232884270776
 10
18.23706195140045
 20
25.69245277135467
 10
18.12903832880108
 20
25.65273287332204
 10
18.00567193994302
 20
25.73451734345777
 10
17.82891923959082
 20
25.69543309445492
 10
17.70138302062231
 20
25.63819554914602
 97
        0
 97
        1
330
A2
 92
        1
 93
        1
 72
     4
 94
        3
 73
     0
 74
     0
 95
       26
 96
       22
 40
0.0
 40
0.0
 40
0.0
 40
0.0
 40
1.0
 40
1.0
 40
1.0
 40
2.0
 40
2.0
 40
2.0
 40
3.0
 40
3.0
 40
3.0
 40
4.0
 40
4.0
 40
4.0
 40
5.0
 40
5.0
 40
5.0
 40
6.0
 40
6.0
 40
6.0
 40
7.0
 40
7.0
 40
7.0
 40
7.0
 10
18.44423069611513
 20
24.69608070328386
 10
18.22205831289434
 20
24.65117209331843
 10
18.08130749547968
 20
24.67857939817476
 10
18.02206859577428
 20
24.77826443824989
 10
18.18071628617128
 20
24.75888572945931
 10
18.30348294970591
 20
24.75602470175453
 10
18.39038269748891
 20
24.76975481251535
 10
18.67960049566591
 20
24.77369886797029
 10
18.8996385733856
 20
24.76799860491911
 10
19.05053220842487
 20
24.75273328517183
 10
18.9838541619207
 20
24.62654114950237
 10
18.89507362905762
 20
24.53682976290221
 10
18.78420968744155
 20
24.48357090314984
 10
18.82949576961954
 20
24.55624312351805
 10
18.86065662993567
 20
24.61196789987416
 10
18.87770990727838
 20
24.65074170444052
 10
18.75871796586967
 20
24.64664304939391
 10
18.66144302390692
 20
24.64380256572866
 10
18.58587802583474
 20
24.64223332717279
 10
18.4914288337999
 20
24.67811373152001
 10
18.44423069611513
 20
24.69608070328386
 10
18.44423069611513
 20
24.69608070328386
 97
        0
 97
        1
330
A3
 92
        1
 93
        1
 72
     4
 94
        3
 73
     0
 74
     0
 95
       17
 96
       13
 40
0.0
 40
0.0
 40
0.0
 40
0.0
 40
1.0
 40
1.0
 40
1.0
 40
2.0
 40
2.0
 40
2.0
 40
3.0
 40
3.0
 40
3.0
 40
4.0
 40
4.0
 40
4.0
 40
4.0
 10
18.10418467701266
 20
25.27408238298221
 10
18.12619800978438
 20
25.15250458052837
 10
18.0799316621467
 20
25.08449608226341
 10
17.96538073610939
 20
25.0700956937419
 10
17.96353570837869
 20
25.01182386189521
 10
17.97962590241264
 20
24.94381536363025
 10
18.01352431821448
 20
24.86609489339084
 10
17.95807823629569
 20
24.9070911979005
 10
17.89572123788656
 20
25.01382058406649
 10
17.82655915631769
 20
25.18623013522351
 10
17.90323187658383
 20
25.12632141452969
 10
17.99576548533422
 20
25.15557021933905
 10
18.10418467701266
 20
25.27408238298221
 97
        0
 97
        1
330
A4
 92
        1
 93
        1
 72
     4
 94
        3
 73
     0
 74
     0
 95
       11
 96
        7
 40
0.0
 40
0.0
 40
0.0
 40
0.0
 40
1.0
 40
1.0
 40
1.0
 40
2.0
 40
2.0
 40
2.0
 40
2.0
 10
18.4357569741091
 20
25.44961048961523
 10
18.5210409997111
 20
25.28376260495747
 10
18.52291777744103
 20
25.14396030296857
 10
18.44140494618723
 20
25.03027061142459
 10
18.45112044593937
 20
25.18717910742152
 10
18.44924366820947
 20
25.32694613163355
 10
18.4357569741091
 20
25.44961048961523
 97
        0
 97
        1
330
A5
 92
        1
 93
        1
 72
     4
 94
        3
 73
     0
 74
     0
 95
       11
 96
        7
 40
0.0
 40
0.0
 40
0.0
 40
0.0
 40
1.0
 40
1.0
 40
1.0
 40
2.0
 40
2.0
 40
2.0
 40
2.0
 10
20.48722319954961
 20
25.39340304920721
 10
20.97000310389954
 20
26.00097744777091
 10
20.3687815914602
 20
26.73509387348648
 10
20.61810375176612
 20
27.71561851513788
 10
20.48615832821179
 20
26.73946831781936
 10
21.18158509850163
 20
25.81704617468561
 10
20.48722319954961
 20
25.39340304920721
 97
        0
 97
        1
330
A6
 92
        1
 93
        2
 72
     4
 94
        3
 73
     0
 74
     0
 95
       17
 96
       13
 40
0.0
 40
0.0
 40
0.0
 40
0.0
 40
1.0
 40
1.0
 40
1.0
 40
2.0
 40
2.0
 40
2.0
 40
3.0
 40
3.0
 40
3.0
 40
4.0
 40
4.0
 40
4.0
 40
4.0
 10
15.63980305164559
 20
30.44944161205891
 10
15.53607188141956
 20
30.43252591804602
 10
15.35337885830267
 20
30.51929161027689
 10
15.24433916285556
 20
30.7258747438954
 10
15.26838763824875
 20
30.4213640294419
 10
15.3471064695738
 20
30.13883136998324
 10
15.48060463283465
 20
29.87832968218475
 10
15.2259766948863
 20
30.19021345200571
 10
15.11065364227288
 20
30.67876480065284
 10
15.13473425276965
 20
31.34399431145919
 10
15.21095894526944
 20
31.06087604090437
 10
15.40119435708279
 20
30.63456174622499
 10
15.63980305164559
 20
30.44944161205891
 97
        0
 72
     1
 10
15.63980305164559
 20
30.44944161205891
 11
15.63980305164559
 21
30.44944161205891
 97
        0
 75
     0
 76
     1
 98
        1
 10
0.0
 20
0.0
450
        0
451
        0
460
0.0
461
0.0
452
        0
462
0.0
453
        0
470

  0
MTEXT
  5
A9
330
70
100
AcDbEntity
  8
Layer 1
100
AcDbMText
 10
12.27125678709332
 20
12.48798707372847
 30
0.0
 40
0.2
 41
0.0
 46
0.0
 71
     7
 72
     1
  1
\C18;\c0;\FBodoni MT|b0|i0|c1;\H1.498600;\W1.000000;Black Hills Candle Co.
 73
     1
 44
1.0
  0
MTEXT
  5
AA
330
70
100
AcDbEntity
  8
Layer 1
100
AcDbMText
 10
16.40735176100097
 20
10.80209521435363
 30
0.0
 40
0.2
 41
0.0
 46
0.0
 71
     7
 72
     1
  1
\C18;\c0;\FBodoni MT|b0|i0|c1;\H0.749300;\W1.000000;Custer, South Dakota
 73
     1
 44
1.0
  0
MTEXT
  5
AB
330
70
100
AcDbEntity
  8
Layer 1
100
AcDbMText
 10
-5.237647568135032
 20
9.559931518904797
 30
0.0
 40
0.2
 41
0.0
 46
0.0
 71
     7
 72
     1
  1
\C18;\c0;\FBodoni MT|b0|i0|c1;\H0.599440;\W1.000000;Lorem ipsum
 73
     1
 44
1.0
  0
ENDSEC
  0
SECTION
  2
OBJECTS
  0
DICTIONARY
  5
C
330
0
100
AcDbDictionary
281
     1
  3
ACAD_COLOR
350
63
  3
ACAD_DETAILVIEWSTYLE
350
6A
  3
ACAD_GROUP
350
D
  3
ACAD_LAYOUT
350
62
  3
ACAD_MATERIAL
350
10
  3
ACAD_MLEADERSTYLE
350
66
  3
ACAD_MLINESTYLE
350
5F
  3
ACAD_PLOTSETTINGS
350
61
  3
ACAD_PLOTSTYLENAME
350
E
  3
ACAD_SCALELIST
350
42
  3
ACAD_SECTIONVIEWSTYLE
350
68
  3
ACAD_TABLESTYLE
350
64
  3
ACAD_VISUALSTYLE
350
29
  3
ACDB_RECOMPOSE_DATA
350
B4
  3
AcDbVariableDictionary
350
AC
  0
DICTIONARY
  5
63
102
{ACAD_REACTORS
330
C
102
}
330
C
100
AcDbDictionary
281
     1
  0
DICTIONARY
  5
6A
102
{ACAD_REACTORS
330
C
102
}
330
C
100
AcDbDictionary
281
     1
  3
Imperial24
350
6B
  0
DICTIONARY
  5
D
102
{ACAD_REACTORS
330
C
102
}
330
C
100
AcDbDictionary
281
     1
  0
DICTIONARY
  5
62
102
{ACAD_REACTORS
330
C
102
}
330
C
100
AcDbDictionary
281
     1
  3
Layout1
350
6F
  3
Layout2
350
77
  3
Model
350
73
  0
DICTIONARY
  5
10
102
{ACAD_REACTORS
330
C
102
}
330
C
100
AcDbDictionary
281
     1
  3
ByBlock
350
19
  3
ByLayer
350
11
  3
Global
350
21
  0
DICTIONARY
  5
66
102
{ACAD_REACTORS
330
C
102
}
330
C
100
AcDbDictionary
281
     1
  3
Standard
350
67
  0
DICTIONARY
  5
5F
102
{ACAD_REACTORS
330
C
102
}
330
C
100
AcDbDictionary
281
     1
  3
Standard
350
60
  0
DICTIONARY
  5
61
102
{ACAD_REACTORS
330
C
102
}
330
C
100
AcDbDictionary
281
     1
  0
ACDBDICTIONARYWDFLT
  5
E
102
{ACAD_REACTORS
330
C
102
}
330
C
100
AcDbDictionary
281
     1
  3
Normal
350
F
100
AcDbDictionaryWithDefault
340
F
  0
DICTIONARY
  5
42
102
{ACAD_REACTORS
330
C
102
}
330
C
100
AcDbDictionary
281
     1
  3
A0
350
43
  3
A1
350
44
  3
A2
350
45
  3
A3
350
46
  3
A4
350
47
  3
A5
350
48
  3
A6
350
49
  3
A7
350
4A
  3
A8
350
4B
  3
A9
350
4C
  3
B0
350
4D
  3
B1
350
4E
  3
B2
350
4F
  3
B3
350
50
  3
B4
350
51
  3
B5
350
52
  3
B6
350
53
  0
DICTIONARY
  5
68
102
{ACAD_REACTORS
330
C
102
}
330
C
100
AcDbDictionary
281
     1
  3
Imperial24
350
69
  0
DICTIONARY
  5
64
102
{ACAD_REACTORS
330
C
102
}
330
C
100
AcDbDictionary
281
     1
  3
Standard
350
65
  0
DICTIONARY
  5
29
102
{ACAD_REACTORS
330
C
102
}
330
C
100
AcDbDictionary
281
     1
  3
2dWireframe
350
2F
  3
Basic
350
2E
  3
Brighten
350
35
  3
ColorChange
350
39
  3
Conceptual
350
32
  3
Dim
350
34
  3
EdgeColorOff
350
41
  3
Facepattern
350
38
  3
Flat
350
2A
  3
FlatWithEdges
350
2B
  3
Gouraud
350
2C
  3
GouraudWithEdges
350
2D
  3
Hidden
350
31
  3
JitterOff
350
3F
  3
Linepattern
350
37
  3
OverhangOff
350
40
  3
Realistic
350
33
  3
Shaded
350
3E
  3
Shaded with edges
350
3D
  3
Shades of Gray
350
3A
  3
Sketchy
350
3B
  3
Thicken
350
36
  3
Wireframe
350
30
  3
X-Ray
350
3C
  0
XRECORD
  5
B4
102
{ACAD_REACTORS
330
C
102
}
330
C
100
AcDbXrecord
280
     1
 90
        1
330
65
  0
DICTIONARY
  5
AC
102
{ACAD_REACTORS
330
C
102
}
330
C
100
AcDbDictionary
281
     1
  3
CANNOSCALE
350
B1
  3
CMLEADERSTYLE
350
AE
  3
CTABLESTYLE
350
AD
  3
CVIEWDETAILSTYLE
350
AF
  3
CVIEWSECTIONSTYLE
350
B0
  0
ACDBDETAILVIEWSTYLE
  5
6B
102
{ACAD_REACTORS
330
6A
102
}
330
6A
100
AcDbModelDocViewStyle
 70
     0
  3
Imperial24
290
     1
300
Imperial24
 90
        0
100
AcDbDetailViewStyle
 70
     0
 71
     0
 90
        3
 71
     1
340
55
 62
   256
 40
0.24
340
0
 62
   256
 40
0.24
300

 40
0.36
280
     3
 71
     2
340
5D
 90
       25
 62
   256
 71
     3
340
55
 62
   256
 40
0.24
 90
        1
 40
0.75
 90
        1
300
%<\AcVar ViewType \f "%tc1">% %<\AcVar ViewDetailId>%\PSCALE %<\AcVar ViewScale \f "%sn">%
 71
     4
340
5D
 90
       25
 62
   256
340
5D
 90
       25
 62
   256
280
     0
  0
LAYOUT
  5
6F
102
{ACAD_REACTORS
330
62
102
}
330
62
100
AcDbPlotSettings
  1

  2

  4

  6

 40
0.0
 41
0.0
 42
0.0
 43
0.0
 44
0.0
 45
0.0
 46
0.0
 47
0.0
 48
0.0
 49
0.0
140
0.0
141
0.0
142
1.0
143
1.0
 70
   688
 72
     0
 73
     0
 74
     5
  7

 75
    16
147
1.0
 76
     0
 77
     2
 78
   300
148
0.0
149
0.0
100
AcDbLayout
  1
Layout1
 70
     1
 71
     1
 10
0.0
 20
0.0
 11
12.0
 21
9.0
 12
0.0
 22
0.0
 32
0.0
 14
0.0
 24
0.0
 34
0.0
 15
0.0
 25
0.0
 35
0.0
146
0.0
 13
0.0
 23
0.0
 33
0.0
 16
1.0
 26
0.0
 36
0.0
 17
0.0
 27
1.0
 37
0.0
 76
     0
330
6C
  0
LAYOUT
  5
77
102
{ACAD_REACTORS
330
62
102
}
330
62
100
AcDbPlotSettings
  1

  2

  4

  6

 40
0.0
 41
0.0
 42
0.0
 43
0.0
 44
0.0
 45
0.0
 46
0.0
 47
0.0
 48
0.0
 49
0.0
140
0.0
141
0.0
142
1.0
143
1.0
 70
   688
 72
     0
 73
     0
 74
     5
  7

 75
    16
147
1.0
 76
     0
 77
     2
 78
   300
148
0.0
149
0.0
100
AcDbLayout
  1
Layout2
 70
     1
 71
     2
 10
0.0
 20
0.0
 11
12.0
 21
9.0
 12
0.0
 22
0.0
 32
0.0
 14
0.0
 24
0.0
 34
0.0
 15
0.0
 25
0.0
 35
0.0
146
0.0
 13
0.0
 23
0.0
 33
0.0
 16
1.0
 26
0.0
 36
0.0
 17
0.0
 27
1.0
 37
0.0
 76
     0
330
74
  0
LAYOUT
  5
73
102
{ACAD_REACTORS
330
62
102
}
330
62
100
AcDbPlotSettings
  1

  2

  4

  6

 40
0.0
 41
0.0
 42
0.0
 43
0.0
 44
0.0
 45
0.0
 46
0.0
 47
0.0
 48
0.0
 49
0.0
140
0.0
141
0.0
142
1.0
143
1.0
 70
  1712
 72
     0
 73
     0
 74
     0
  7

 75
     0
147
1.0
 76
     0
 77
     2
 78
   300
148
0.0
149
0.0
100
AcDbLayout
  1
Model
 70
     1
 71
     0
 10
0.0
 20
0.0
 11
12.0
 21
9.0
 12
0.0
 22
0.0
 32
0.0
 14
0.0
 24
0.0
 34
0.0
 15
0.0
 25
0.0
 35
0.0
146
0.0
 13
0.0
 23
0.0
 33
0.0
 16
1.0
 26
0.0
 36
0.0
 17
0.0
 27
1.0
 37
0.0
 76
     0
330
70
  0
MATERIAL
  5
19
102
{ACAD_XDICTIONARY
360
1A
102
}
102
{ACAD_REACTORS
330
10
102
}
330
10
100
AcDbMaterial
  1
ByBlock
 72
     0
 43
0.0208333333333333
 43
0.0
 43
0.0
 43
0.0
 43
0.0
 43
0.0208333333333333
 43
0.0
 43
0.0
 43
0.0
 43
0.0
 43
1.0
 43
0.0
 43
0.0
 43
0.0
 43
0.0
 43
1.0
 77
     0
 47
0.0208333333333333
 47
0.0
 47
0.0
 47
0.0
 47
0.0
 47
0.0208333333333333
 47
0.0
 47
0.0
 47
0.0
 47
0.0
 47
1.0
 47
0.0
 47
0.0
 47
0.0
 47
0.0
 47
1.0
171
     0
 49
0.0208333333333333
 49
0.0
 49
0.0
 49
0.0
 49
0.0
 49
0.0208333333333333
 49
0.0
 49
0.0
 49
0.0
 49
0.0
 49
1.0
 49
0.0
 49
0.0
 49
0.0
 49
0.0
 49
1.0
175
     0
142
0.0208333333333333
142
0.0
142
0.0
142
0.0
142
0.0
142
0.0208333333333333
142
0.0
142
0.0
142
0.0
142
0.0
142
1.0
142
0.0
142
0.0
142
0.0
142
0.0
142
1.0
179
     0
144
0.0208333333333333
144
0.0
144
0.0
144
0.0
144
0.0
144
0.0208333333333333
144
0.0
144
0.0
144
0.0
144
0.0
144
1.0
144
0.0
144
0.0
144
0.0
144
0.0
144
1.0
147
0.0208333333333333
147
0.0
147
0.0
147
0.0
147
0.0
147
0.0208333333333333
147
0.0
147
0.0
147
0.0
147
0.0
147
1.0
147
0.0
147
0.0
147
0.0
147
0.0
147
1.0
  0
MATERIAL
  5
11
102
{ACAD_XDICTIONARY
360
12
102
}
102
{ACAD_REACTORS
330
10
102
}
330
10
100
AcDbMaterial
  1
ByLayer
 72
     0
 43
0.0208333333333333
 43
0.0
 43
0.0
 43
0.0
 43
0.0
 43
0.0208333333333333
 43
0.0
 43
0.0
 43
0.0
 43
0.0
 43
1.0
 43
0.0
 43
0.0
 43
0.0
 43
0.0
 43
1.0
 77
     0
 47
0.0208333333333333
 47
0.0
 47
0.0
 47
0.0
 47
0.0
 47
0.0208333333333333
 47
0.0
 47
0.0
 47
0.0
 47
0.0
 47
1.0
 47
0.0
 47
0.0
 47
0.0
 47
0.0
 47
1.0
171
     0
 49
0.0208333333333333
 49
0.0
 49
0.0
 49
0.0
 49
0.0
 49
0.0208333333333333
 49
0.0
 49
0.0
 49
0.0
 49
0.0
 49
1.0
 49
0.0
 49
0.0
 49
0.0
 49
0.0
 49
1.0
175
     0
142
0.0208333333333333
142
0.0
142
0.0
142
0.0
142
0.0
142
0.0208333333333333
142
0.0
142
0.0
142
0.0
142
0.0
142
1.0
142
0.0
142
0.0
142
0.0
142
0.0
142
1.0
179
     0
144
0.0208333333333333
144
0.0
144
0.0
144
0.0
144
0.0
144
0.0208333333333333
144
0.0
144
0.0
144
0.0
144
0.0
144
1.0
144
0.0
144
0.0
144
0.0
144
0.0
144
1.0
147
0.0208333333333333
147
0.0
147
0.0
147
0.0
147
0.0
147
0.0208333333333333
147
0.0
147
0.0
147
0.0
147
0.0
147
1.0
147
0.0
147
0.0
147
0.0
147
0.0
147
1.0
  0
MATERIAL
  5
21
102
{ACAD_XDICTIONARY
360
22
102
}
102
{ACAD_REACTORS
330
10
102
}
330
10
100
AcDbMaterial
  1
Global
 72
     0
 43
0.0208333333333333
 43
0.0
 43
0.0
 43
0.0
 43
0.0
 43
0.0208333333333333
 43
0.0
 43
0.0
 43
0.0
 43
0.0
 43
1.0
 43
0.0
 43
0.0
 43
0.0
 43
0.0
 43
1.0
 77
     0
 47
0.0208333333333333
 47
0.0
 47
0.0
 47
0.0
 47
0.0
 47
0.0208333333333333
 47
0.0
 47
0.0
 47
0.0
 47
0.0
 47
1.0
 47
0.0
 47
0.0
 47
0.0
 47
0.0
 47
1.0
171
     0
 49
0.0208333333333333
 49
0.0
 49
0.0
 49
0.0
 49
0.0
 49
0.0208333333333333
 49
0.0
 49
0.0
 49
0.0
 49
0.0
 49
1.0
 49
0.0
 49
0.0
 49
0.0
 49
0.0
 49
1.0
175
     0
142
0.0208333333333333
142
0.0
142
0.0
142
0.0
142
0.0
142
0.0208333333333333
142
0.0
142
0.0
142
0.0
142
0.0
142
1.0
142
0.0
142
0.0
142
0.0
142
0.0
142
1.0
179
     0
144
0.0208333333333333
144
0.0
144
0.0
144
0.0
144
0.0
144
0.0208333333333333
144
0.0
144
0.0
144
0.0
144
0.0
144
1.0
144
0.0
144
0.0
144
0.0
144
0.0
144
1.0
147
0.0208333333333333
147
0.0
147
0.0
147
0.0
147
0.0
147
0.0208333333333333
147
0.0
147
0.0
147
0.0
147
0.0
147
1.0
147
0.0
147
0.0
147
0.0
147
0.0
147
1.0
  0
MLEADERSTYLE
  5
67
102
{ACAD_REACTORS
330
66
102
}
330
66
100
AcDbMLeaderStyle
179
     2
170
     2
171
     1
172
     0
 90
        2
 40
0.0
 41
0.0
173
     1
 91
-1056964608
340
5B
 92
       -2
290
     1
 42
0.09
291
     1
 43
0.36
  3
Standard
 44
0.18
300

342
55
174
     1
178
     6
175
     1
176
     0
 93
-1056964608
 45
0.18
292
     0
297
     0
 46
0.18
 94
-1056964608
 47
1.0
 49
1.0
140
1.0
293
     1
141
0.0
294
     1
177
     0
142
1.0
295
     1
296
     0
143
0.125
271
     0
272
     9
273
     9
298
     1
  0
MLINESTYLE
  5
60
102
{ACAD_REACTORS
330
5F
102
}
330
5F
100
AcDbMlineStyle
  2
STANDARD
 70
     0
  3

 62
   256
 51
90.0
 52
90.0
 71
     2
 49
0.5
 62
   256
  6
BYLAYER
 49
-0.5
 62
   256
  6
BYLAYER
  0
ACDBPLACEHOLDER
  5
F
102
{ACAD_REACTORS
330
E
102
}
330
E
  0
SCALE
  5
43
102
{ACAD_REACTORS
330
42
102
}
330
42
100
AcDbScale
 70
     0
300
1:1
140
1.0
141
1.0
290
     1
  0
SCALE
  5
44
102
{ACAD_REACTORS
330
42
102
}
330
42
100
AcDbScale
 70
     0
300
1/128" = 1'-0"
140
0.0078125
141
12.0
290
     0
  0
SCALE
  5
45
102
{ACAD_REACTORS
330
42
102
}
330
42
100
AcDbScale
 70
     0
300
1/64" = 1'-0"
140
0.015625
141
12.0
290
     0
  0
SCALE
  5
46
102
{ACAD_REACTORS
330
42
102
}
330
42
100
AcDbScale
 70
     0
300
1/32" = 1'-0"
140
0.03125
141
12.0
290
     0
  0
SCALE
  5
47
102
{ACAD_REACTORS
330
42
102
}
330
42
100
AcDbScale
 70
     0
300
1/16" = 1'-0"
140
0.0625
141
12.0
290
     0
  0
SCALE
  5
48
102
{ACAD_REACTORS
330
42
102
}
330
42
100
AcDbScale
 70
     0
300
3/32" = 1'-0"
140
0.09375
141
12.0
290
     0
  0
SCALE
  5
49
102
{ACAD_REACTORS
330
42
102
}
330
42
100
AcDbScale
 70
     0
300
1/8" = 1'-0"
140
0.125
141
12.0
290
     0
  0
SCALE
  5
4A
102
{ACAD_REACTORS
330
42
102
}
330
42
100
AcDbScale
 70
     0
300
3/16" = 1'-0"
140
0.1875
141
12.0
290
     0
  0
SCALE
  5
4B
102
{ACAD_REACTORS
330
42
102
}
330
42
100
AcDbScale
 70
     0
300
1/4" = 1'-0"
140
0.25
141
12.0
290
     0
  0
SCALE
  5
4C
102
{ACAD_REACTORS
330
42
102
}
330
42
100
AcDbScale
 70
     0
300
3/8" = 1'-0"
140
0.375
141
12.0
290
     0
  0
SCALE
  5
4D
102
{ACAD_REACTORS
330
42
102
}
330
42
100
AcDbScale
 70
     0
300
1/2" = 1'-0"
140
0.5
141
12.0
290
     0
  0
SCALE
  5
4E
102
{ACAD_REACTORS
330
42
102
}
330
42
100
AcDbScale
 70
     0
300
3/4" = 1'-0"
140
0.75
141
12.0
290
     0
  0
SCALE
  5
4F
102
{ACAD_REACTORS
330
42
102
}
330
42
100
AcDbScale
 70
     0
300
1" = 1'-0"
140
1.0
141
12.0
290
     0
  0
SCALE
  5
50
102
{ACAD_REACTORS
330
42
102
}
330
42
100
AcDbScale
 70
     0
300
1-1/2" = 1'-0"
140
1.5
141
12.0
290
     0
  0
SCALE
  5
51
102
{ACAD_REACTORS
330
42
102
}
330
42
100
AcDbScale
 70
     0
300
3" = 1'-0"
140
3.0
141
12.0
290
     0
  0
SCALE
  5
52
102
{ACAD_REACTORS
330
42
102
}
330
42
100
AcDbScale
 70
     0
300
6" = 1'-0"
140
6.0
141
12.0
290
     0
  0
SCALE
  5
53
102
{ACAD_REACTORS
330
42
102
}
330
42
100
AcDbScale
 70
     0
300
1'-0" = 1'-0"
140
12.0
141
12.0
290
     0
  0
ACDBSECTIONVIEWSTYLE
  5
69
102
{ACAD_REACTORS
330
68
102
}
330
68
100
AcDbModelDocViewStyle
 70
     0
  3
Imperial24
290
     1
300
Imperial24
 90
        0
100
AcDbSectionViewStyle
 70
     0
 71
     0
 90
       78
 71
     1
340
55
 62
   256
 40
0.24
340
0
340
0
 62
   256
 40
0.24
300
I, O, Q, S, X, Z
 40
0.48
 90
        3
 40
0.18
 90
        1
 71
     2
340
5D
 90
       25
 62
   256
340
5D
 90
       50
 62
   256
 40
0.24
 40
0.0
 40
0.24
 71
     3
340
55
 62
   256
 40
0.24
 90
        1
 40
0.75
 90
        1
300
%<\AcVar ViewType \f "%tc1">% %<\AcVar ViewSectionStartId>%-%<\AcVar ViewSectionEndId>%\PSCALE %<\AcVar ViewScale \f "%sn">%
 71
     4
 62
   256
 62
   257
300
ANSI31
 40
1.0
 90
        0
290
     0
290
     0
 90
        6
 40
0.0
 40
1.570796326794896
 40
0.2617993877991494
 40
1.308996938995747
 40
-0.2617993877991494
 40
1.832595714594046
  0
TABLESTYLE
  5
65
102
{ACAD_XDICTIONARY
360
B2
102
}
102
{ACAD_REACTORS
330
64
102
}
330
64
100
AcDbTableStyle
280
     0
  3
Standard
 70
     0
 71
     0
 40
0.06
 41
0.06
280
     0
281
     0
  7
Standard
140
0.18
170
     2
 62
     0
 63
     7
283
     0
 90
      512
 91
        0
  1

274
    -2
284
     1
 64
     0
275
    -2
285
     1
 65
     0
276
    -2
286
     1
 66
     0
277
    -2
287
     1
 67
     0
278
    -2
288
     1
 68
     0
279
    -2
289
     1
 69
     0
  7
Standard
140
0.25
170
     5
 62
     0
 63
     7
283
     0
 90
      512
 91
        0
  1

274
    -2
284
     1
 64
     0
275
    -2
285
     1
 65
     0
276
    -2
286
     1
 66
     0
277
    -2
287
     1
 67
     0
278
    -2
288
     1
 68
     0
279
    -2
289
     1
 69
     0
  7
Standard
140
0.18
170
     5
 62
     0
 63
     7
283
     0
 90
      512
 91
        0
  1

274
    -2
284
     1
 64
     0
275
    -2
285
     1
 65
     0
276
    -2
286
     1
 66
     0
277
    -2
287
     1
 67
     0
278
    -2
288
     1
 68
     0
279
    -2
289
     1
 69
     0
  0
VISUALSTYLE
  5
2F
102
{ACAD_REACTORS
330
29
102
}
330
29
100
AcDbVisualStyle
  2
2dWireframe
 70
     4
177
     3
291
     0
 70
    58
 90
        0
176
     1
 90
        2
176
     1
 90
        0
176
     1
 90
        0
176
     1
 40
0.6
176
     1
 40
30.0
176
     1
 62
     7
420
 16777215
176
     1
 90
        1
176
     1
 90
        4
176
     1
 62
     7
176
     1
 62
   257
176
     1
 90
        1
176
     1
 90
        1
176
     1
 40
1.0
176
     1
 90
        0
176
     1
 62
   257
176
     1
 40
1.0
176
     1
 90
        1
176
     1
 90
        6
176
     1
 90
        2
176
     1
 62
     7
176
     1
 90
        5
176
     1
 90
        0
176
     1
 90
        0
176
     1
290
     0
176
     1
 90
        1
176
     1
 40
0.0
176
     1
 90
        0
176
     1
290
     1
176
     1
290
     1
176
     1
290
     0
176
     1
290
     0
176
     1
290
     0
176
     1
290
     0
176
     1
290
     0
176
     1
290
     0
176
     1
290
     0
176
     1
 90
       50
176
     1
 40
0.0
176
     1
 40
1.0
176
     1
 90
        0
176
     1
 62
    18
420
        0
176
     1
 90
       50
176
     1
 90
        3
176
     1
 62
     5
420
      255
176
     1
290
     0
176
     1
 90
       50
176
     1
 90
       50
176
     1
 90
       50
176
     1
290
     0
176
     1
 90
       50
176
     1
 62
   256
176
     0
 40
1.0
176
     0
 90
        2
176
     1
  1
strokes_ogs.tif
176
     1
290
     0
176
     1
 40
1.0
176
     1
 40
1.0
176
     1
  0
VISUALSTYLE
  5
2E
102
{ACAD_REACTORS
330
29
102
}
330
29
100
AcDbVisualStyle
  2
Basic
 70
     7
177
     3
291
     1
 70
    58
 90
        1
176
     1
 90
        0
176
     1
 90
        1
176
     1
 90
        0
176
     1
 40
0.6
176
     1
 40
30.0
176
     1
 62
     7
420
 16777215
176
     1
 90
        0
176
     1
 90
        4
176
     1
 62
     7
176
     1
 62
   257
176
     1
 90
        1
176
     1
 90
        1
176
     1
 40
1.0
176
     1
 90
        8
176
     1
 62
     7
176
     1
 40
1.0
176
     1
 90
        1
176
     1
 90
        6
176
     1
 90
        2
176
     1
 62
     7
176
     1
 90
        5
176
     1
 90
        0
176
     1
 90
        0
176
     1
290
     0
176
     1
 90
        1
176
     1
 40
0.0
176
     1
 90
        0
176
     1
290
     0
176
     1
290
     1
176
     1
290
     1
176
     1
290
     0
176
     1
290
     0
176
     1
290
     0
176
     1
290
     0
176
     1
290
     0
176
     1
290
     0
176
     1
 90
       50
176
     1
 40
0.0
176
     1
 40
1.0
176
     1
 90
        0
176
     1
 62
    18
420
        0
176
     1
 90
       50
176
     1
 90
        3
176
     1
 62
     5
420
      255
176
     1
290
     0
176
     1
 90
       50
176
     1
 90
       50
176
     1
 90
       50
176
     1
290
     0
176
     1
 90
       50
176
     1
 62
   256
176
     0
 40
1.0
176
     0
 90
        2
176
     1
  1
strokes_ogs.tif
176
     1
290
     0
176
     1
 40
1.0
176
     1
 40
1.0
176
     1
  0
VISUALSTYLE
  5
35
102
{ACAD_REACTORS
330
29
102
}
330
29
100
AcDbVisualStyle
  2
Brighten
 70
    12
177
     3
291
     1
 70
    58
 90
        2
176
     1
 90
        2
176
     1
 90
        0
176
     1
 90
        0
176
     1
 40
0.6
176
     1
 40
30.0
176
     1
 62
     7
420
 16777215
176
     1
 90
        1
176
     1
 90
        4
176
     1
 62
     7
176
     1
 62
   257
176
     1
 90
        1
176
     1
 90
        1
176
     1
 40
1.0
176
     1
 90
        8
176
     1
 62
     7
176
     1
 40
1.0
176
     1
 90
        1
176
     1
 90
        6
176
     1
 90
        2
176
     1
 62
     7
176
     1
 90
        5
176
     1
 90
        0
176
     1
 90
        0
176
     1
290
     0
176
     1
 90
        1
176
     1
 40
50.0
176
     1
 90
        0
176
     1
290
     0
176
     1
290
     1
176
     1
290
     1
176
     1
290
     0
176
     1
290
     0
176
     1
290
     0
176
     1
290
     0
176
     1
290
     0
176
     1
290
     0
176
     1
 90
       50
176
     1
 40
0.0
176
     1
 40
1.0
176
     1
 90
        0
176
     1
 62
    18
420
        0
176
     1
 90
       50
176
     1
 90
        3
176
     1
 62
     5
420
      255
176
     1
290
     0
176
     1
 90
       50
176
     1
 90
       50
176
     1
 90
       50
176
     1
290
     0
176
     1
 90
       50
176
     1
 62
   256
176
     0
 40
1.0
176
     0
 90
        2
176
     1
  1
strokes_ogs.tif
176
     1
290
     0
176
     1
 40
1.0
176
     1
 40
1.0
176
     1
  0
VISUALSTYLE
  5
39
102
{ACAD_REACTORS
330
29
102
}
330
29
100
AcDbVisualStyle
  2
ColorChange
 70
    16
177
     3
291
     1
 70
    58
 90
        2
176
     1
 90
        2
176
     1
 90
        3
176
     1
 90
        0
176
     1
 40
0.6
176
     1
 40
30.0
176
     1
 62
     8
420
  8421504
176
     1
 90
        1
176
     1
 90
        4
176
     1
 62
     7
176
     1
 62
   257
176
     1
 90
        1
176
     1
 90
        1
176
     1
 40
1.0
176
     1
 90
        8
176
     1
 62
     8
420
  8421504
176
     1
 40
1.0
176
     1
 90
        1
176
     1
 90
        6
176
     1
 90
        2
176
     1
 62
     7
176
     1
 90
        5
176
     1
 90
        0
176
     1
 90
        0
176
     1
290
     0
176
     1
 90
        1
176
     1
 40
0.0
176
     1
 90
        0
176
     1
290
     0
176
     1
290
     1
176
     1
290
     1
176
     1
290
     0
176
     1
290
     0
176
     1
290
     0
176
     1
290
     0
176
     1
290
     0
176
     1
290
     0
176
     1
 90
       50
176
     1
 40
0.0
176
     1
 40
1.0
176
     1
 90
        0
176
     1
 62
    18
420
        0
176
     1
 90
       50
176
     1
 90
        3
176
     1
 62
     5
420
      255
176
     1
290
     0
176
     1
 90
       50
176
     1
 90
       50
176
     1
 90
       50
176
     1
290
     0
176
     1
 90
       50
176
     1
 62
   256
176
     0
 40
1.0
176
     0
 90
        2
176
     1
  1
strokes_ogs.tif
176
     1
290
     0
176
     1
 40
1.0
176
     1
 40
1.0
176
     1
  0
VISUALSTYLE
  5
32
102
{ACAD_REACTORS
330
29
102
}
330
29
100
AcDbVisualStyle
  2
Conceptual
 70
     9
177
     3
291
     0
 70
    58
 90
        3
176
     1
 90
        2
176
     1
 90
        0
176
     1
 90
        0
176
     1
 40
0.6
176
     1
 40
30.0
176
     1
 62
     7
420
 16777215
176
     1
 90
        2
176
     1
 90
        2
176
     1
 62
     7
176
     1
 62
   257
176
     1
 90
        1
176
     1
 90
        1
176
     1
 40
179.0
176
     1
 90
        8
176
     1
 62
     7
176
     1
 40
1.0
176
     1
 90
        1
176
     1
 90
        6
176
     1
 90
        2
176
     1
 62
     7
176
     1
 90
        3
176
     1
 90
        0
176
     1
 90
        0
176
     1
290
     0
176
     1
 90
        1
176
     1
 40
0.0
176
     1
 90
        0
176
     1
290
     0
176
     1
290
     1
176
     1
290
     1
176
     1
290
     0
176
     1
290
     0
176
     1
290
     0
176
     1
290
     0
176
     1
290
     0
176
     1
290
     0
176
     1
 90
       50
176
     1
 40
0.0
176
     1
 40
1.0
176
     1
 90
        0
176
     1
 62
    18
420
        0
176
     1
 90
       50
176
     1
 90
        3
176
     1
 62
     5
420
      255
176
     1
290
     0
176
     1
 90
       50
176
     1
 90
       50
176
     1
 90
       50
176
     1
290
     0
176
     1
 90
       50
176
     1
 62
   256
176
     0
 40
1.0
176
     0
 90
        2
176
     1
  1
strokes_ogs.tif
176
     1
290
     0
176
     1
 40
1.0
176
     1
 40
1.0
176
     1
  0
VISUALSTYLE
  5
34
102
{ACAD_REACTORS
330
29
102
}
330
29
100
AcDbVisualStyle
  2
Dim
 70
    11
177
     3
291
     1
 70
    58
 90
        2
176
     1
 90
        2
176
     1
 90
        0
176
     1
 90
        0
176
     1
 40
0.6
176
     1
 40
30.0
176
     1
 62
     7
420
 16777215
176
     1
 90
        1
176
     1
 90
        4
176
     1
 62
     7
176
     1
 62
   257
176
     1
 90
        1
176
     1
 90
        1
176
     1
 40
1.0
176
     1
 90
        8
176
     1
 62
     7
176
     1
 40
1.0
176
     1
 90
        1
176
     1
 90
        6
176
     1
 90
        2
176
     1
 62
     7
176
     1
 90
        5
176
     1
 90
        0
176
     1
 90
        0
176
     1
290
     0
176
     1
 90
        1
176
     1
 40
-50.0
176
     1
 90
        0
176
     1
290
     0
176
     1
290
     1
176
     1
290
     1
176
     1
290
     0
176
     1
290
     0
176
     1
290
     0
176
     1
290
     0
176
     1
290
     0
176
     1
290
     0
176
     1
 90
       50
176
     1
 40
0.0
176
     1
 40
1.0
176
     1
 90
        0
176
     1
 62
    18
420
        0
176
     1
 90
       50
176
     1
 90
        3
176
     1
 62
     5
420
      255
176
     1
290
     0
176
     1
 90
       50
176
     1
 90
       50
176
     1
 90
       50
176
     1
290
     0
176
     1
 90
       50
176
     1
 62
   256
176
     0
 40
1.0
176
     0
 90
        2
176
     1
  1
strokes_ogs.tif
176
     1
290
     0
176
     1
 40
1.0
176
     1
 40
1.0
176
     1
  0
VISUALSTYLE
  5
41
102
{ACAD_REACTORS
330
29
102
}
330
29
100
AcDbVisualStyle
  2
EdgeColorOff
 70
    22
177
     3
291
     1
 70
    58
 90
        2
176
     0
 90
        2
176
     0
 90
        0
176
     0
 90
        0
176
     0
 40
0.6
176
     0
 40
30.0
176
     0
 62
     7
420
 16777215
176
     0
 90
        1
176
     0
 90
        4
176
     0
 62
     7
176
     0
 62
   257
176
     0
 90
        1
176
     0
 90
        1
176
     0
 40
1.0
176
     0
 90
        8
176
     2
 62
     7
176
     0
 40
1.0
176
     0
 90
        1
176
     0
 90
        6
176
     0
 90
        2
176
     0
 62
     7
176
     0
 90
        5
176
     0
 90
        0
176
     0
 90
        0
176
     0
290
     0
176
     0
 90
        1
176
     0
 40
0.0
176
     0
 90
        0
176
     0
290
     0
176
     0
290
     1
176
     0
290
     1
176
     0
290
     0
176
     0
290
     0
176
     0
290
     0
176
     0
290
     0
176
     0
290
     0
176
     0
290
     0
176
     0
 90
       50
176
     0
 40
0.0
176
     0
 40
1.0
176
     0
 90
        0
176
     0
 62
    18
420
        0
176
     0
 90
       50
176
     0
 90
        3
176
     0
 62
     5
420
      255
176
     0
290
     0
176
     0
 90
       50
176
     0
 90
       50
176
     0
 90
       50
176
     0
290
     0
176
     0
 90
       50
176
     0
 62
   256
176
     0
 40
1.0
176
     0
 90
        2
176
     0
  1
strokes_ogs.tif
176
     0
290
     0
176
     0
 40
1.0
176
     0
 40
1.0
176
     0
  0
VISUALSTYLE
  5
38
102
{ACAD_REACTORS
330
29
102
}
330
29
100
AcDbVisualStyle
  2
Facepattern
 70
    15
177
     3
291
     1
 70
    58
 90
        2
176
     1
 90
        2
176
     1
 90
        0
176
     1
 90
        0
176
     1
 40
0.6
176
     1
 40
30.0
176
     1
 62
     7
420
 16777215
176
     1
 90
        1
176
     1
 90
        4
176
     1
 62
     7
176
     1
 62
   257
176
     1
 90
        1
176
     1
 90
        1
176
     1
 40
1.0
176
     1
 90
        8
176
     1
 62
     7
176
     1
 40
1.0
176
     1
 90
        1
176
     1
 90
        6
176
     1
 90
        2
176
     1
 62
     7
176
     1
 90
        5
176
     1
 90
        0
176
     1
 90
        0
176
     1
290
     0
176
     1
 90
        1
176
     1
 40
0.0
176
     1
 90
        0
176
     1
290
     0
176
     1
290
     1
176
     1
290
     1
176
     1
290
     0
176
     1
290
     0
176
     1
290
     0
176
     1
290
     0
176
     1
290
     0
176
     1
290
     0
176
     1
 90
       50
176
     1
 40
0.0
176
     1
 40
1.0
176
     1
 90
        0
176
     1
 62
    18
420
        0
176
     1
 90
       50
176
     1
 90
        3
176
     1
 62
     5
420
      255
176
     1
290
     0
176
     1
 90
       50
176
     1
 90
       50
176
     1
 90
       50
176
     1
290
     0
176
     1
 90
       50
176
     1
 62
   256
176
     0
 40
1.0
176
     0
 90
        2
176
     1
  1
strokes_ogs.tif
176
     1
290
     0
176
     1
 40
1.0
176
     1
 40
1.0
176
     1
  0
VISUALSTYLE
  5
2A
102
{ACAD_REACTORS
330
29
102
}
330
29
100
AcDbVisualStyle
  2
Flat
 70
     0
177
     3
291
     1
 70
    58
 90
        2
176
     1
 90
        1
176
     1
 90
        1
176
     1
 90
        2
176
     1
 40
0.6
176
     1
 40
30.0
176
     1
 62
     7
420
 16777215
176
     1
 90
        0
176
     1
 90
        0
176
     1
 62
     7
176
     1
 62
   257
176
     1
 90
        1
176
     1
 90
        1
176
     1
 40
1.0
176
     1
 90
        8
176
     1
 62
     7
176
     1
 40
1.0
176
     1
 90
        1
176
     1
 90
        6
176
     1
 90
        2
176
     1
 62
     7
176
     1
 90
        5
176
     1
 90
        0
176
     1
 90
        0
176
     1
290
     0
176
     1
 90
       13
176
     1
 40
0.0
176
     1
 90
        0
176
     1
290
     0
176
     1
290
     1
176
     1
290
     1
176
     1
290
     0
176
     1
290
     0
176
     1
290
     0
176
     1
290
     0
176
     1
290
     0
176
     1
290
     0
176
     1
 90
       50
176
     1
 40
0.0
176
     1
 40
1.0
176
     1
 90
        0
176
     1
 62
    18
420
        0
176
     1
 90
       50
176
     1
 90
        3
176
     1
 62
     5
420
      255
176
     1
290
     0
176
     1
 90
       50
176
     1
 90
       50
176
     1
 90
       50
176
     1
290
     0
176
     1
 90
       50
176
     1
 62
   256
176
     0
 40
1.0
176
     0
 90
        2
176
     1
  1
strokes_ogs.tif
176
     1
290
     0
176
     1
 40
1.0
176
     1
 40
1.0
176
     1
  0
VISUALSTYLE
  5
2B
102
{ACAD_REACTORS
330
29
102
}
330
29
100
AcDbVisualStyle
  2
FlatWithEdges
 70
     1
177
     3
291
     1
 70
    58
 90
        2
176
     1
 90
        1
176
     1
 90
        1
176
     1
 90
        2
176
     1
 40
0.6
176
     1
 40
30.0
176
     1
 62
     7
420
 16777215
176
     1
 90
        1
176
     1
 90
        0
176
     1
 62
     7
176
     1
 62
   257
176
     1
 90
        1
176
     1
 90
        1
176
     1
 40
1.0
176
     1
 90
        0
176
     1
 62
   257
176
     1
 40
1.0
176
     1
 90
        1
176
     1
 90
        6
176
     1
 90
        2
176
     1
 62
     7
176
     1
 90
        5
176
     1
 90
        0
176
     1
 90
        0
176
     1
290
     0
176
     1
 90
       13
176
     1
 40
0.0
176
     1
 90
        0
176
     1
290
     0
176
     1
290
     1
176
     1
290
     1
176
     1
290
     0
176
     1
290
     0
176
     1
290
     0
176
     1
290
     0
176
     1
290
     0
176
     1
290
     0
176
     1
 90
       50
176
     1
 40
0.0
176
     1
 40
1.0
176
     1
 90
        0
176
     1
 62
    18
420
        0
176
     1
 90
       50
176
     1
 90
        3
176
     1
 62
     5
420
      255
176
     1
290
     0
176
     1
 90
       50
176
     1
 90
       50
176
     1
 90
       50
176
     1
290
     0
176
     1
 90
       50
176
     1
 62
   256
176
     0
 40
1.0
176
     0
 90
        2
176
     1
  1
strokes_ogs.tif
176
     1
290
     0
176
     1
 40
1.0
176
     1
 40
1.0
176
     1
  0
VISUALSTYLE
  5
2C
102
{ACAD_REACTORS
330
29
102
}
330
29
100
AcDbVisualStyle
  2
Gouraud
 70
     2
177
     3
291
     1
 70
    58
 90
        2
176
     1
 90
        2
176
     1
 90
        1
176
     1
 90
        2
176
     1
 40
0.6
176
     1
 40
30.0
176
     1
 62
     7
420
 16777215
176
     1
 90
        0
176
     1
 90
        0
176
     1
 62
     7
176
     1
 62
   257
176
     1
 90
        1
176
     1
 90
        1
176
     1
 40
1.0
176
     1
 90
        0
176
     1
 62
     7
176
     1
 40
1.0
176
     1
 90
        1
176
     1
 90
        6
176
     1
 90
        2
176
     1
 62
     7
176
     1
 90
        5
176
     1
 90
        0
176
     1
 90
        0
176
     1
290
     0
176
     1
 90
       13
176
     1
 40
0.0
176
     1
 90
        0
176
     1
290
     0
176
     1
290
     1
176
     1
290
     1
176
     1
290
     0
176
     1
290
     0
176
     1
290
     0
176
     1
290
     0
176
     1
290
     0
176
     1
290
     0
176
     1
 90
       50
176
     1
 40
0.0
176
     1
 40
1.0
176
     1
 90
        0
176
     1
 62
    18
420
        0
176
     1
 90
       50
176
     1
 90
        3
176
     1
 62
     5
420
      255
176
     1
290
     0
176
     1
 90
       50
176
     1
 90
       50
176
     1
 90
       50
176
     1
290
     0
176
     1
 90
       50
176
     1
 62
   256
176
     0
 40
1.0
176
     0
 90
        2
176
     1
  1
strokes_ogs.tif
176
     1
290
     0
176
     1
 40
1.0
176
     1
 40
1.0
176
     1
  0
VISUALSTYLE
  5
2D
102
{ACAD_REACTORS
330
29
102
}
330
29
100
AcDbVisualStyle
  2
GouraudWithEdges
 70
     3
177
     3
291
     1
 70
    58
 90
        2
176
     1
 90
        2
176
     1
 90
        1
176
     1
 90
        2
176
     1
 40
0.6
176
     1
 40
30.0
176
     1
 62
     7
420
 16777215
176
     1
 90
        1
176
     1
 90
        0
176
     1
 62
     7
176
     1
 62
   257
176
     1
 90
        1
176
     1
 90
        1
176
     1
 40
1.0
176
     1
 90
        0
176
     1
 62
   257
176
     1
 40
1.0
176
     1
 90
        1
176
     1
 90
        6
176
     1
 90
        2
176
     1
 62
     7
176
     1
 90
        5
176
     1
 90
        0
176
     1
 90
        0
176
     1
290
     0
176
     1
 90
       13
176
     1
 40
0.0
176
     1
 90
        0
176
     1
290
     0
176
     1
290
     1
176
     1
290
     1
176
     1
290
     0
176
     1
290
     0
176
     1
290
     0
176
     1
290
     0
176
     1
290
     0
176
     1
290
     0
176
     1
 90
       50
176
     1
 40
0.0
176
     1
 40
1.0
176
     1
 90
        0
176
     1
 62
    18
420
        0
176
     1
 90
       50
176
     1
 90
        3
176
     1
 62
     5
420
      255
176
     1
290
     0
176
     1
 90
       50
176
     1
 90
       50
176
     1
 90
       50
176
     1
290
     0
176
     1
 90
       50
176
     1
 62
   256
176
     0
 40
1.0
176
     0
 90
        2
176
     1
  1
strokes_ogs.tif
176
     1
290
     0
176
     1
 40
1.0
176
     1
 40
1.0
176
     1
  0
VISUALSTYLE
  5
31
102
{ACAD_REACTORS
330
29
102
}
330
29
100
AcDbVisualStyle
  2
Hidden
 70
     6
177
     3
291
     0
 70
    58
 90
        1
176
     1
 90
        2
176
     1
 90
        2
176
     1
 90
        0
176
     1
 40
0.6
176
     1
 40
30.0
176
     1
 62
     7
420
 16777215
176
     1
 90
        2
176
     1
 90
        2
176
     1
 62
     7
176
     1
 62
   257
176
     1
 90
        2
176
     1
 90
        1
176
     1
 40
40.0
176
     1
 90
        0
176
     1
 62
   257
176
     1
 40
1.0
176
     1
 90
        1
176
     1
 90
        6
176
     1
 90
        2
176
     1
 62
     7
176
     1
 90
        3
176
     1
 90
        0
176
     1
 90
        0
176
     1
290
     0
176
     1
 90
        1
176
     1
 40
0.0
176
     1
 90
        0
176
     1
290
     0
176
     1
290
     1
176
     1
290
     1
176
     1
290
     0
176
     1
290
     0
176
     1
290
     0
176
     1
290
     0
176
     1
290
     0
176
     1
290
     0
176
     1
 90
       50
176
     1
 40
0.0
176
     1
 40
1.0
176
     1
 90
        0
176
     1
 62
    18
420
        0
176
     1
 90
       50
176
     1
 90
        3
176
     1
 62
     5
420
      255
176
     1
290
     0
176
     1
 90
       50
176
     1
 90
       50
176
     1
 90
       50
176
     1
290
     0
176
     1
 90
       50
176
     1
 62
   256
176
     0
 40
1.0
176
     0
 90
        2
176
     1
  1
strokes_ogs.tif
176
     1
290
     0
176
     1
 40
1.0
176
     1
 40
1.0
176
     1
  0
VISUALSTYLE
  5
3F
102
{ACAD_REACTORS
330
29
102
}
330
29
100
AcDbVisualStyle
  2
JitterOff
 70
    20
177
     3
291
     1
 70
    58
 90
        2
176
     0
 90
        2
176
     0
 90
        0
176
     0
 90
        0
176
     0
 40
0.6
176
     0
 40
30.0
176
     0
 62
     7
420
 16777215
176
     0
 90
        1
176
     0
 90
        4
176
     0
 62
     7
176
     0
 62
   257
176
     0
 90
        1
176
     0
 90
        1
176
     0
 40
1.0
176
     0
 90
       10
176
     2
 62
     7
176
     0
 40
1.0
176
     0
 90
        1
176
     0
 90
        6
176
     0
 90
        2
176
     0
 62
     7
176
     0
 90
        5
176
     0
 90
        0
176
     0
 90
        0
176
     0
290
     0
176
     0
 90
        1
176
     0
 40
0.0
176
     0
 90
        0
176
     0
290
     0
176
     0
290
     1
176
     0
290
     1
176
     0
290
     0
176
     0
290
     0
176
     0
290
     0
176
     0
290
     0
176
     0
290
     0
176
     0
290
     0
176
     0
 90
       50
176
     0
 40
0.0
176
     0
 40
1.0
176
     0
 90
        0
176
     0
 62
    18
420
        0
176
     0
 90
       50
176
     0
 90
        3
176
     0
 62
     5
420
      255
176
     0
290
     0
176
     0
 90
       50
176
     0
 90
       50
176
     0
 90
       50
176
     0
290
     0
176
     0
 90
       50
176
     0
 62
   256
176
     0
 40
1.0
176
     0
 90
        2
176
     0
  1
strokes_ogs.tif
176
     0
290
     0
176
     0
 40
1.0
176
     0
 40
1.0
176
     0
  0
VISUALSTYLE
  5
37
102
{ACAD_REACTORS
330
29
102
}
330
29
100
AcDbVisualStyle
  2
Linepattern
 70
    14
177
     3
291
     1
 70
    58
 90
        2
176
     1
 90
        2
176
     1
 90
        0
176
     1
 90
        0
176
     1
 40
0.6
176
     1
 40
30.0
176
     1
 62
     7
420
 16777215
176
     1
 90
        1
176
     1
 90
        4
176
     1
 62
     7
176
     1
 62
   257
176
     1
 90
        7
176
     1
 90
        7
176
     1
 40
1.0
176
     1
 90
        8
176
     1
 62
     7
176
     1
 40
1.0
176
     1
 90
        1
176
     1
 90
        6
176
     1
 90
        2
176
     1
 62
     7
176
     1
 90
        5
176
     1
 90
        0
176
     1
 90
        0
176
     1
290
     0
176
     1
 90
        1
176
     1
 40
0.0
176
     1
 90
        0
176
     1
290
     0
176
     1
290
     1
176
     1
290
     1
176
     1
290
     0
176
     1
290
     0
176
     1
290
     0
176
     1
290
     0
176
     1
290
     0
176
     1
290
     0
176
     1
 90
       50
176
     1
 40
0.0
176
     1
 40
1.0
176
     1
 90
        0
176
     1
 62
    18
420
        0
176
     1
 90
       50
176
     1
 90
        3
176
     1
 62
     5
420
      255
176
     1
290
     0
176
     1
 90
       50
176
     1
 90
       50
176
     1
 90
       50
176
     1
290
     0
176
     1
 90
       50
176
     1
 62
   256
176
     0
 40
1.0
176
     0
 90
        2
176
     1
  1
strokes_ogs.tif
176
     1
290
     0
176
     1
 40
1.0
176
     1
 40
1.0
176
     1
  0
VISUALSTYLE
  5
40
102
{ACAD_REACTORS
330
29
102
}
330
29
100
AcDbVisualStyle
  2
OverhangOff
 70
    21
177
     3
291
     1
 70
    58
 90
        2
176
     0
 90
        2
176
     0
 90
        0
176
     0
 90
        0
176
     0
 40
0.6
176
     0
 40
30.0
176
     0
 62
     7
420
 16777215
176
     0
 90
        1
176
     0
 90
        4
176
     0
 62
     7
176
     0
 62
   257
176
     0
 90
        1
176
     0
 90
        1
176
     0
 40
1.0
176
     0
 90
        9
176
     2
 62
     7
176
     0
 40
1.0
176
     0
 90
        1
176
     0
 90
        6
176
     0
 90
        2
176
     0
 62
     7
176
     0
 90
        5
176
     0
 90
        0
176
     0
 90
        0
176
     0
290
     0
176
     0
 90
        1
176
     0
 40
0.0
176
     0
 90
        0
176
     0
290
     0
176
     0
290
     1
176
     0
290
     1
176
     0
290
     0
176
     0
290
     0
176
     0
290
     0
176
     0
290
     0
176
     0
290
     0
176
     0
290
     0
176
     0
 90
       50
176
     0
 40
0.0
176
     0
 40
1.0
176
     0
 90
        0
176
     0
 62
    18
420
        0
176
     0
 90
       50
176
     0
 90
        3
176
     0
 62
     5
420
      255
176
     0
290
     0
176
     0
 90
       50
176
     0
 90
       50
176
     0
 90
       50
176
     0
290
     0
176
     0
 90
       50
176
     0
 62
   256
176
     0
 40
1.0
176
     0
 90
        2
176
     0
  1
strokes_ogs.tif
176
     0
290
     0
176
     0
 40
1.0
176
     0
 40
1.0
176
     0
  0
VISUALSTYLE
  5
33
102
{ACAD_REACTORS
330
29
102
}
330
29
100
AcDbVisualStyle
  2
Realistic
 70
     8
177
     3
291
     0
 70
    58
 90
        2
176
     1
 90
        3
176
     1
 90
        0
176
     1
 90
        2
176
     1
 40
0.6
176
     1
 40
30.0
176
     1
 62
     7
420
 16777215
176
     1
 90
        0
176
     1
 90
        0
176
     1
 62
     7
176
     1
 62
   257
176
     1
 90
        1
176
     1
 90
        1
176
     1
 40
1.0
176
     1
 90
        8
176
     1
 62
   257
176
     1
 40
1.0
176
     1
 90
        1
176
     1
 90
        6
176
     1
 90
        2
176
     1
 62
     7
176
     1
 90
        3
176
     1
 90
        0
176
     1
 90
        0
176
     1
290
     0
176
     1
 90
       13
176
     1
 40
0.0
176
     1
 90
        0
176
     1
290
     0
176
     1
290
     1
176
     1
290
     1
176
     1
290
     0
176
     1
290
     0
176
     1
290
     0
176
     1
290
     0
176
     1
290
     0
176
     1
290
     0
176
     1
 90
       50
176
     1
 40
0.0
176
     1
 40
1.0
176
     1
 90
        0
176
     1
 62
    18
420
        0
176
     1
 90
       50
176
     1
 90
        3
176
     1
 62
     5
420
      255
176
     1
290
     0
176
     1
 90
       50
176
     1
 90
       50
176
     1
 90
       50
176
     1
290
     0
176
     1
 90
       50
176
     1
 62
   256
176
     0
 40
1.0
176
     0
 90
        2
176
     1
  1
strokes_ogs.tif
176
     1
290
     0
176
     1
 40
1.0
176
     1
 40
1.0
176
     1
  0
VISUALSTYLE
  5
3E
102
{ACAD_REACTORS
330
29
102
}
330
29
100
AcDbVisualStyle
  2
Shaded
 70
    27
177
     3
291
     0
 70
    58
 90
        2
176
     1
 90
        2
176
     1
 90
        1
176
     1
 90
        2
176
     1
 40
0.6
176
     1
 40
30.0
176
     1
 62
     7
420
 16777215
176
     1
 90
        0
176
     1
 90
        4
176
     1
 62
     7
176
     1
 62
   257
176
     1
 90
        1
176
     1
 90
        1
176
     1
 40
1.0
176
     1
 90
        8
176
     1
 62
   257
176
     1
 40
1.0
176
     1
 90
        1
176
     1
 90
        6
176
     1
 90
        2
176
     1
 62
     8
420
  7895160
176
     1
 90
        3
176
     1
 90
        0
176
     1
 90
        0
176
     1
290
     0
176
     1
 90
        5
176
     1
 40
0.0
176
     1
 90
        0
176
     1
290
     0
176
     1
290
     1
176
     1
290
     1
176
     1
290
     0
176
     1
290
     0
176
     1
290
     0
176
     1
290
     0
176
     1
290
     0
176
     1
290
     0
176
     1
 90
       50
176
     1
 40
0.0
176
     1
 40
1.0
176
     1
 90
        0
176
     1
 62
    18
420
        0
176
     1
 90
       50
176
     1
 90
        3
176
     1
 62
     5
420
      255
176
     1
290
     0
176
     1
 90
       50
176
     1
 90
       50
176
     1
 90
       50
176
     1
290
     0
176
     1
 90
       50
176
     1
 62
   256
176
     0
 40
1.0
176
     0
 90
        2
176
     1
  1
strokes_ogs.tif
176
     1
290
     0
176
     1
 40
1.0
176
     1
 40
1.0
176
     1
  0
VISUALSTYLE
  5
3D
102
{ACAD_REACTORS
330
29
102
}
330
29
100
AcDbVisualStyle
  2
Shaded with edges
 70
    26
177
     3
291
     0
 70
    58
 90
        2
176
     1
 90
        2
176
     1
 90
        1
176
     1
 90
        2
176
     1
 40
0.6
176
     1
 40
30.0
176
     1
 62
     7
420
 16777215
176
     1
 90
        1
176
     1
 90
        2
176
     1
 62
     7
176
     1
 62
   257
176
     1
 90
        2
176
     1
 90
        1
176
     1
 40
1.0
176
     1
 90
        8
176
     1
 62
   257
176
     1
 40
1.0
176
     1
 90
        1
176
     1
 90
        6
176
     1
 90
        2
176
     1
 62
     7
176
     1
 90
        3
176
     1
 90
        0
176
     1
 90
        0
176
     1
290
     0
176
     1
 90
        5
176
     1
 40
0.0
176
     1
 90
        0
176
     1
290
     0
176
     1
290
     1
176
     1
290
     1
176
     1
290
     0
176
     1
290
     0
176
     1
290
     0
176
     1
290
     0
176
     1
290
     0
176
     1
290
     0
176
     1
 90
       50
176
     1
 40
0.0
176
     1
 40
1.0
176
     1
 90
        0
176
     1
 62
    18
420
        0
176
     1
 90
       50
176
     1
 90
        3
176
     1
 62
     5
420
      255
176
     1
290
     0
176
     1
 90
       50
176
     1
 90
       50
176
     1
 90
       50
176
     1
290
     0
176
     1
 90
       50
176
     1
 62
   256
176
     0
 40
1.0
176
     0
 90
        2
176
     1
  1
strokes_ogs.tif
176
     1
290
     0
176
     1
 40
1.0
176
     1
 40
1.0
176
     1
  0
VISUALSTYLE
  5
3A
102
{ACAD_REACTORS
330
29
102
}
330
29
100
AcDbVisualStyle
  2
Shades of Gray
 70
    23
177
     3
291
     0
 70
    58
 90
        2
176
     1
 90
        2
176
     1
 90
        3
176
     1
 90
        0
176
     1
 40
0.6
176
     1
 40
30.0
176
     1
 62
     7
420
 16777215
176
     1
 90
        2
176
     1
 90
        2
176
     1
 62
     7
176
     1
 62
     7
176
     1
 90
        1
176
     1
 90
        1
176
     1
 40
40.0
176
     1
 90
        8
176
     1
 62
     7
176
     1
 40
1.0
176
     1
 90
        1
176
     1
 90
        6
176
     1
 90
        2
176
     1
 62
     7
176
     1
 90
        3
176
     1
 90
        0
176
     1
 90
        0
176
     1
290
     0
176
     1
 90
        1
176
     1
 40
0.0
176
     1
 90
        0
176
     1
290
     0
176
     1
290
     1
176
     1
290
     1
176
     1
290
     0
176
     1
290
     0
176
     1
290
     0
176
     1
290
     0
176
     1
290
     0
176
     1
290
     0
176
     1
 90
       50
176
     1
 40
0.0
176
     1
 40
1.0
176
     1
 90
        0
176
     1
 62
    18
420
        0
176
     1
 90
       50
176
     1
 90
        3
176
     1
 62
     5
420
      255
176
     1
290
     0
176
     1
 90
       50
176
     1
 90
       50
176
     1
 90
       50
176
     1
290
     0
176
     1
 90
       50
176
     1
 62
   256
176
     0
 40
1.0
176
     0
 90
        2
176
     1
  1
strokes_ogs.tif
176
     1
290
     0
176
     1
 40
1.0
176
     1
 40
1.0
176
     1
  0
VISUALSTYLE
  5
3B
102
{ACAD_REACTORS
330
29
102
}
330
29
100
AcDbVisualStyle
  2
Sketchy
 70
    24
177
     3
291
     0
 70
    58
 90
        1
176
     1
 90
        2
176
     1
 90
        2
176
     1
 90
        0
176
     1
 40
0.6
176
     1
 40
30.0
176
     1
 62
     7
420
 16777215
176
     1
 90
        2
176
     1
 90
        2
176
     1
 62
     7
176
     1
 62
     7
176
     1
 90
        1
176
     1
 90
        1
176
     1
 40
40.0
176
     1
 90
       11
176
     1
 62
     7
176
     1
 40
1.0
176
     1
 90
        1
176
     1
 90
        6
176
     1
 90
        2
176
     1
 62
     7
176
     1
 90
        6
176
     1
 90
        0
176
     1
 90
        0
176
     1
290
     0
176
     1
 90
        1
176
     1
 40
0.0
176
     1
 90
        0
176
     1
290
     0
176
     1
290
     1
176
     1
290
     1
176
     1
290
     0
176
     1
290
     0
176
     1
290
     0
176
     1
290
     0
176
     1
290
     0
176
     1
290
     0
176
     1
 90
       50
176
     1
 40
0.0
176
     1
 40
1.0
176
     1
 90
        0
176
     1
 62
    18
420
        0
176
     1
 90
       50
176
     1
 90
        3
176
     1
 62
     5
420
      255
176
     1
290
     0
176
     1
 90
       50
176
     1
 90
       50
176
     1
 90
       50
176
     1
290
     0
176
     1
 90
       50
176
     1
 62
   256
176
     0
 40
1.0
176
     0
 90
        2
176
     1
  1
strokes_ogs.tif
176
     1
290
     0
176
     1
 40
1.0
176
     1
 40
1.0
176
     1
  0
VISUALSTYLE
  5
36
102
{ACAD_REACTORS
330
29
102
}
330
29
100
AcDbVisualStyle
  2
Thicken
 70
    13
177
     3
291
     1
 70
    58
 90
        2
176
     1
 90
        2
176
     1
 90
        0
176
     1
 90
        0
176
     1
 40
0.6
176
     1
 40
30.0
176
     1
 62
     7
420
 16777215
176
     1
 90
        1
176
     1
 90
        4
176
     1
 62
     7
176
     1
 62
   257
176
     1
 90
        1
176
     1
 90
        1
176
     1
 40
1.0
176
     1
 90
       12
176
     1
 62
     7
176
     1
 40
1.0
176
     1
 90
        1
176
     1
 90
        6
176
     1
 90
        2
176
     1
 62
     7
176
     1
 90
        5
176
     1
 90
        0
176
     1
 90
        0
176
     1
290
     0
176
     1
 90
        1
176
     1
 40
0.0
176
     1
 90
        0
176
     1
290
     0
176
     1
290
     1
176
     1
290
     1
176
     1
290
     0
176
     1
290
     0
176
     1
290
     0
176
     1
290
     0
176
     1
290
     0
176
     1
290
     0
176
     1
 90
       50
176
     1
 40
0.0
176
     1
 40
1.0
176
     1
 90
        0
176
     1
 62
    18
420
        0
176
     1
 90
       50
176
     1
 90
        3
176
     1
 62
     5
420
      255
176
     1
290
     0
176
     1
 90
       50
176
     1
 90
       50
176
     1
 90
       50
176
     1
290
     0
176
     1
 90
       50
176
     1
 62
   256
176
     0
 40
1.0
176
     0
 90
        2
176
     1
  1
strokes_ogs.tif
176
     1
290
     0
176
     1
 40
1.0
176
     1
 40
1.0
176
     1
  0
VISUALSTYLE
  5
30
102
{ACAD_REACTORS
330
29
102
}
330
29
100
AcDbVisualStyle
  2
Wireframe
 70
     5
177
     3
291
     0
 70
    58
 90
        0
176
     1
 90
        2
176
     1
 90
        0
176
     1
 90
        0
176
     1
 40
0.6
176
     1
 40
30.0
176
     1
 62
     7
420
 16777215
176
     1
 90
        1
176
     1
 90
        4
176
     1
 62
     7
176
     1
 62
   257
176
     1
 90
        1
176
     1
 90
        1
176
     1
 40
1.0
176
     1
 90
        0
176
     1
 62
   257
176
     1
 40
1.0
176
     1
 90
        1
176
     1
 90
        6
176
     1
 90
        2
176
     1
 62
     7
176
     1
 90
        3
176
     1
 90
        0
176
     1
 90
        0
176
     1
290
     0
176
     1
 90
        1
176
     1
 40
0.0
176
     1
 90
        0
176
     1
290
     0
176
     1
290
     1
176
     1
290
     1
176
     1
290
     0
176
     1
290
     0
176
     1
290
     0
176
     1
290
     0
176
     1
290
     0
176
     1
290
     0
176
     1
 90
       50
176
     1
 40
0.0
176
     1
 40
1.0
176
     1
 90
        0
176
     1
 62
    18
420
        0
176
     1
 90
       50
176
     1
 90
        3
176
     1
 62
     5
420
      255
176
     1
290
     0
176
     1
 90
       50
176
     1
 90
       50
176
     1
 90
       50
176
     1
290
     0
176
     1
 90
       50
176
     1
 62
   256
176
     0
 40
1.0
176
     0
 90
        2
176
     1
  1
strokes_ogs.tif
176
     1
290
     0
176
     1
 40
1.0
176
     1
 40
1.0
176
     1
  0
VISUALSTYLE
  5
3C
102
{ACAD_REACTORS
330
29
102
}
330
29
100
AcDbVisualStyle
  2
X-Ray
 70
    25
177
     3
291
     0
 70
    58
 90
        2
176
     1
 90
        2
176
     1
 90
        1
176
     1
 90
        1
176
     1
 40
0.5
176
     1
 40
30.0
176
     1
 62
     7
420
 16777215
176
     1
 90
        1
176
     1
 90
        0
176
     1
 62
     7
176
     1
 62
   257
176
     1
 90
        1
176
     1
 90
        1
176
     1
 40
1.0
176
     1
 90
        8
176
     1
 62
     7
176
     1
 40
1.0
176
     1
 90
        1
176
     1
 90
        6
176
     1
 90
        2
176
     1
 62
     7
176
     1
 90
        3
176
     1
 90
        0
176
     1
 90
        0
176
     1
290
     0
176
     1
 90
       13
176
     1
 40
0.0
176
     1
 90
        0
176
     1
290
     0
176
     1
290
     1
176
     1
290
     1
176
     1
290
     0
176
     1
290
     0
176
     1
290
     0
176
     1
290
     0
176
     1
290
     0
176
     1
290
     0
176
     1
 90
       50
176
     1
 40
0.0
176
     1
 40
1.0
176
     1
 90
        0
176
     1
 62
    18
420
        0
176
     1
 90
       50
176
     1
 90
        3
176
     1
 62
     5
420
      255
176
     1
290
     0
176
     1
 90
       50
176
     1
 90
       50
176
     1
 90
       50
176
     1
290
     0
176
     1
 90
       50
176
     1
 62
   256
176
     0
 40
1.0
176
     0
 90
        2
176
     1
  1
strokes_ogs.tif
176
     1
290
     0
176
     1
 40
1.0
176
     1
 40
1.0
176
     1
  0
DICTIONARYVAR
  5
B1
102
{ACAD_REACTORS
330
AC
102
}
330
AC
100
DictionaryVariables
280
     0
  1
1:1
  0
DICTIONARYVAR
  5
AE
102
{ACAD_REACTORS
330
AC
102
}
330
AC
100
DictionaryVariables
280
     0
  1
STANDARD
  0
DICTIONARYVAR
  5
AD
102
{ACAD_REACTORS
330
AC
102
}
330
AC
100
DictionaryVariables
280
     0
  1
STANDARD
  0
DICTIONARYVAR
  5
AF
102
{ACAD_REACTORS
330
AC
102
}
330
AC
100
DictionaryVariables
280
     0
  1
Imperial24
  0
DICTIONARYVAR
  5
B0
102
{ACAD_REACTORS
330
AC
102
}
330
AC
100
DictionaryVariables
280
     0
  1
Imperial24
  0
DICTIONARY
  5
1A
330
19
100
AcDbDictionary
280
     1
281
     1
  3
BUMPTILE
360
1C
  3
DIFFUSETILE
360
1B
  3
OPACITYTILE
360
1F
  3
REFLECTIONTILE
360
1E
  3
REFRACTIONTILE
360
20
  3
SPECULARTILE
360
1D
  0
DICTIONARY
  5
12
330
11
100
AcDbDictionary
280
     1
281
     1
  3
BUMPTILE
360
14
  3
DIFFUSETILE
360
13
  3
OPACITYTILE
360
17
  3
REFLECTIONTILE
360
16
  3
REFRACTIONTILE
360
18
  3
SPECULARTILE
360
15
  0
DICTIONARY
  5
22
330
21
100
AcDbDictionary
280
     1
281
     1
  3
BUMPTILE
360
24
  3
DIFFUSETILE
360
23
  3
OPACITYTILE
360
27
  3
REFLECTIONTILE
360
26
  3
REFRACTIONTILE
360
28
  3
SPECULARTILE
360
25
  0
DICTIONARY
  5
B2
330
65
100
AcDbDictionary
280
     1
281
     1
  3
ACAD_ROUNDTRIP_2008_TABLESTYLE_CELLSTYLEMAP
360
B3
  0
XRECORD
  5
1C
102
{ACAD_REACTORS
330
1A
102
}
330
1A
100
AcDbXrecord
280
     1
270
     1
271
     1
  0
XRECORD
  5
1B
102
{ACAD_REACTORS
330
1A
102
}
330
1A
100
AcDbXrecord
280
     1
270
     1
271
     1
  0
XRECORD
  5
1F
102
{ACAD_REACTORS
330
1A
102
}
330
1A
100
AcDbXrecord
280
     1
270
     1
271
     1
  0
XRECORD
  5
1E
102
{ACAD_REACTORS
330
1A
102
}
330
1A
100
AcDbXrecord
280
     1
270
     1
271
     1
  0
XRECORD
  5
20
102
{ACAD_REACTORS
330
1A
102
}
330
1A
100
AcDbXrecord
280
     1
270
     1
271
     1
  0
XRECORD
  5
1D
102
{ACAD_REACTORS
330
1A
102
}
330
1A
100
AcDbXrecord
280
     1
270
     1
271
     1
  0
XRECORD
  5
14
102
{ACAD_REACTORS
330
12
102
}
330
12
100
AcDbXrecord
280
     1
270
     1
271
     1
  0
XRECORD
  5
13
102
{ACAD_REACTORS
330
12
102
}
330
12
100
AcDbXrecord
280
     1
270
     1
271
     1
  0
XRECORD
  5
17
102
{ACAD_REACTORS
330
12
102
}
330
12
100
AcDbXrecord
280
     1
270
     1
271
     1
  0
XRECORD
  5
16
102
{ACAD_REACTORS
330
12
102
}
330
12
100
AcDbXrecord
280
     1
270
     1
271
     1
  0
XRECORD
  5
18
102
{ACAD_REACTORS
330
12
102
}
330
12
100
AcDbXrecord
280
     1
270
     1
271
     1
  0
XRECORD
  5
15
102
{ACAD_REACTORS
330
12
102
}
330
12
100
AcDbXrecord
280
     1
270
     1
271
     1
  0
XRECORD
  5
24
102
{ACAD_REACTORS
330
22
102
}
330
22
100
AcDbXrecord
280
     1
270
     1
271
     1
  0
XRECORD
  5
23
102
{ACAD_REACTORS
330
22
102
}
330
22
100
AcDbXrecord
280
     1
270
     1
271
     1
  0
XRECORD
  5
27
102
{ACAD_REACTORS
330
22
102
}
330
22
100
AcDbXrecord
280
     1
270
     1
271
     1
  0
XRECORD
  5
26
102
{ACAD_REACTORS
330
22
102
}
330
22
100
AcDbXrecord
280
     1
270
     1
271
     1
  0
XRECORD
  5
28
102
{ACAD_REACTORS
330
22
102
}
330
22
100
AcDbXrecord
280
     1
270
     1
271
     1
  0
XRECORD
  5
25
102
{ACAD_REACTORS
330
22
102
}
330
22
100
AcDbXrecord
280
     1
270
     1
271
     1
  0
CELLSTYLEMAP
  5
B3
102
{ACAD_REACTORS
330
B2
102
}
330
B2
100
AcDbCellStyleMap
 90
        3
300
CELLSTYLE
  1
TABLEFORMAT_BEGIN
 90
        5
170
     1
 91
        0
 92
    32768
 62
   257
 93
        1
300
CONTENTFORMAT
  1
CONTENTFORMAT_BEGIN
 90
        0
 91
        0
 92
      512
 93
        0
300

 40
0.0
140
1.0
 94
        5
 62
     0
340
55
144
0.25
309
CONTENTFORMAT_END
171
     0
 94
        0
309
TABLEFORMAT_END
  1
CELLSTYLE_BEGIN
 90
        1
 91
        1
300
_TITLE
309
CELLSTYLE_END
300
CELLSTYLE
  1
TABLEFORMAT_BEGIN
 90
        5
170
     1
 91
        0
 92
        0
 62
   257
 93
        1
300
CONTENTFORMAT
  1
CONTENTFORMAT_BEGIN
 90
        0
 91
        0
 92
      512
 93
        0
300

 40
0.0
140
1.0
 94
        5
 62
     0
340
55
144
0.18
309
CONTENTFORMAT_END
171
     0
 94
        0
309
TABLEFORMAT_END
  1
CELLSTYLE_BEGIN
 90
        2
 91
        1
300
_HEADER
309
CELLSTYLE_END
300
CELLSTYLE
  1
TABLEFORMAT_BEGIN
 90
        5
170
     1
 91
        0
 92
        0
 62
   257
 93
        1
300
CONTENTFORMAT
  1
CONTENTFORMAT_BEGIN
 90
        0
 91
        0
 92
      512
 93
        0
300

 40
0.0
140
1.0
 94
        2
 62
     0
340
55
144
0.18
309
CONTENTFORMAT_END
171
     0
 94
        0
309
TABLEFORMAT_END
  1
CELLSTYLE_BEGIN
 90
        3
 91
        2
300
_DATA
309
CELLSTYLE_END
  0
ENDSEC
  0
EOF
