  0
SECTION
  2
HEADER
  9
$ACADVER
  1
AC1024
  9
$ACADMAINTVER
 70
     6
  9
$DWGCODEPAGE
  3
ANSI_1252
  9
$INSBASE
 10
0.0
 20
0.0
 30
0.0
  9
$EXTMIN
 10
1.000000000000000E+20
 20
1.000000000000000E+20
 30
1.000000000000000E+20
  9
$EXTMAX
 10
-1.000000000000000E+20
 20
-1.000000000000000E+20
 30
-1.000000000000000E+20
  9
$LIMMIN
 10
0.0
 20
0.0
  9
$LIMMAX
 10
12.0
 20
9.0
  9
$ORTHOMODE
 70
     0
  9
$REGENMODE
 70
     1
  9
$FILLMODE
 70
     1
  9
$QTEXTMODE
 70
     0
  9
$MIRRTEXT
 70
     1
  9
$LTSCALE
 40
1.0
  9
$ATTMODE
 70
     1
  9
$TEXTSIZE
 40
0.2
  9
$TRACEWID
 40
0.05
  9
$TEXTSTYLE
  7
Standard
  9
$CLAYER
  8
0
  9
$CELTYPE
  6
ByLayer
  9
$CECOLOR
 62
   256
  9
$CELTSCALE
 40
1.0
  9
$DISPSILH
 70
     0
  9
$DIMSCALE
 40
1.0
  9
$DIMASZ
 40
0.18
  9
$DIMEXO
 40
0.0625
  9
$DIMDLI
 40
0.38
  9
$DIMRND
 40
0.0
  9
$DIMDLE
 40
0.0
  9
$DIMEXE
 40
0.18
  9
$DIMTP
 40
0.0
  9
$DIMTM
 40
0.0
  9
$DIMTXT
 40
0.18
  9
$DIMCEN
 40
0.09
  9
$DIMTSZ
 40
0.0
  9
$DIMTOL
 70
     0
  9
$DIMLIM
 70
     0
  9
$DIMTIH
 70
     1
  9
$DIMTOH
 70
     1
  9
$DIMSE1
 70
     0
  9
$DIMSE2
 70
     0
  9
$DIMTAD
 70
     0
  9
$DIMZIN
 70
     0
  9
$DIMBLK
  1

  9
$DIMASO
 70
     1
  9
$DIMSHO
 70
     1
  9
$DIMPOST
  1

  9
$DIMAPOST
  1

  9
$DIMALT
 70
     0
  9
$DIMALTD
 70
     2
  9
$DIMALTF
 40
25.4
  9
$DIMLFAC
 40
1.0
  9
$DIMTOFL
 70
     0
  9
$DIMTVP
 40
0.0
  9
$DIMTIX
 70
     0
  9
$DIMSOXD
 70
     0
  9
$DIMSAH
 70
     0
  9
$DIMBLK1
  1

  9
$DIMBLK2
  1

  9
$DIMSTYLE
  2
Standard
  9
$DIMCLRD
 70
     0
  9
$DIMCLRE
 70
     0
  9
$DIMCLRT
 70
     0
  9
$DIMTFAC
 40
1.0
  9
$DIMGAP
 40
0.09
  9
$DIMJUST
 70
     0
  9
$DIMSD1
 70
     0
  9
$DIMSD2
 70
     0
  9
$DIMTOLJ
 70
     1
  9
$DIMTZIN
 70
     0
  9
$DIMALTZ
 70
     0
  9
$DIMALTTZ
 70
     0
  9
$DIMUPT
 70
     0
  9
$DIMDEC
 70
     4
  9
$DIMTDEC
 70
     4
  9
$DIMALTU
 70
     2
  9
$DIMALTTD
 70
     2
  9
$DIMTXSTY
  7
Standard
  9
$DIMAUNIT
 70
     0
  9
$DIMADEC
 70
     0
  9
$DIMALTRND
 40
0.0
  9
$DIMAZIN
 70
     0
  9
$DIMDSEP
 70
    46
  9
$DIMATFIT
 70
     3
  9
$DIMFRAC
 70
     0
  9
$DIMLDRBLK
  1

  9
$DIMLUNIT
 70
     2
  9
$DIMLWD
 70
    -2
  9
$DIMLWE
 70
    -2
  9
$DIMTMOVE
 70
     0
  9
$DIMFXL
 40
1.0
  9
$DIMFXLON
 70
     0
  9
$DIMJOGANG
 40
0.7853981633974483
  9
$DIMTFILL
 70
     0
  9
$DIMTFILLCLR
 70
     0
  9
$DIMARCSYM
 70
     0
  9
$DIMLTYPE
  6

  9
$DIMLTEX1
  6

  9
$DIMLTEX2
  6

  9
$DIMTXTDIRECTION
 70
     0
  9
$LUNITS
 70
     2
  9
$LUPREC
 70
     4
  9
$SKETCHINC
 40
0.1
  9
$FILLETRAD
 40
0.5
  9
$AUNITS
 70
     0
  9
$AUPREC
 70
     0
  9
$MENU
  1
.
  9
$ELEVATION
 40
0.0
  9
$PELEVATION
 40
0.0
  9
$THICKNESS
 40
0.0
  9
$LIMCHECK
 70
     0
  9
$CHAMFERA
 40
0.5
  9
$CHAMFERB
 40
0.5
  9
$CHAMFERC
 40
1.0
  9
$CHAMFERD
 40
0.0
  9
$SKPOLY
 70
     0
  9
$TDCREATE
 40
2459493.004554201
  9
$TDUCREATE
 40
2459492.671220868
  9
$TDUPDATE
 40
2459493.004554282
  9
$TDUUPDATE
 40
2459492.671220949
  9
$TDINDWG
 40
0.0000000116
  9
$TDUSRTIMER
 40
0.0000000116
  9
$USRTIMER
 70
     1
  9
$ANGBASE
 50
0.0
  9
$ANGDIR
 70
     0
  9
$PDMODE
 70
     0
  9
$PDSIZE
 40
0.0
  9
$PLINEWID
 40
0.0
  9
$SPLFRAME
 70
     0
  9
$SPLINETYPE
 70
     6
  9
$SPLINESEGS
 70
     8
  9
$HANDSEED
  5
11B
  9
$SURFTAB1
 70
     6
  9
$SURFTAB2
 70
     6
  9
$SURFTYPE
 70
     6
  9
$SURFU
 70
     6
  9
$SURFV
 70
     6
  9
$UCSBASE
  2

  9
$UCSNAME
  2

  9
$UCSORG
 10
0.0
 20
0.0
 30
0.0
  9
$UCSXDIR
 10
1.0
 20
0.0
 30
0.0
  9
$UCSYDIR
 10
0.0
 20
1.0
 30
0.0
  9
$UCSORTHOREF
  2

  9
$UCSORTHOVIEW
 70
     0
  9
$UCSORGTOP
 10
0.0
 20
0.0
 30
0.0
  9
$UCSORGBOTTOM
 10
0.0
 20
0.0
 30
0.0
  9
$UCSORGLEFT
 10
0.0
 20
0.0
 30
0.0
  9
$UCSORGRIGHT
 10
0.0
 20
0.0
 30
0.0
  9
$UCSORGFRONT
 10
0.0
 20
0.0
 30
0.0
  9
$UCSORGBACK
 10
0.0
 20
0.0
 30
0.0
  9
$PUCSBASE
  2

  9
$PUCSNAME
  2

  9
$PUCSORG
 10
0.0
 20
0.0
 30
0.0
  9
$PUCSXDIR
 10
1.0
 20
0.0
 30
0.0
  9
$PUCSYDIR
 10
0.0
 20
1.0
 30
0.0
  9
$PUCSORTHOREF
  2

  9
$PUCSORTHOVIEW
 70
     0
  9
$PUCSORGTOP
 10
0.0
 20
0.0
 30
0.0
  9
$PUCSORGBOTTOM
 10
0.0
 20
0.0
 30
0.0
  9
$PUCSORGLEFT
 10
0.0
 20
0.0
 30
0.0
  9
$PUCSORGRIGHT
 10
0.0
 20
0.0
 30
0.0
  9
$PUCSORGFRONT
 10
0.0
 20
0.0
 30
0.0
  9
$PUCSORGBACK
 10
0.0
 20
0.0
 30
0.0
  9
$USERI1
 70
     0
  9
$USERI2
 70
     0
  9
$USERI3
 70
     0
  9
$USERI4
 70
     0
  9
$USERI5
 70
     0
  9
$USERR1
 40
0.0
  9
$USERR2
 40
0.0
  9
$USERR3
 40
0.0
  9
$USERR4
 40
0.0
  9
$USERR5
 40
0.0
  9
$WORLDVIEW
 70
     1
  9
$SHADEDGE
 70
     3
  9
$SHADEDIF
 70
    70
  9
$TILEMODE
 70
     1
  9
$MAXACTVP
 70
    64
  9
$PINSBASE
 10
0.0
 20
0.0
 30
0.0
  9
$PLIMCHECK
 70
     0
  9
$PEXTMIN
 10
1.000000000000000E+20
 20
1.000000000000000E+20
 30
1.000000000000000E+20
  9
$PEXTMAX
 10
-1.000000000000000E+20
 20
-1.000000000000000E+20
 30
-1.000000000000000E+20
  9
$PLIMMIN
 10
0.0
 20
0.0
  9
$PLIMMAX
 10
12.0
 20
9.0
  9
$UNITMODE
 70
     0
  9
$VISRETAIN
 70
     1
  9
$PLINEGEN
 70
     0
  9
$PSLTSCALE
 70
     1
  9
$TREEDEPTH
 70
  3020
  9
$CMLSTYLE
  2
Standard
  9
$CMLJUST
 70
     0
  9
$CMLSCALE
 40
1.0
  9
$PROXYGRAPHICS
 70
     1
  9
$MEASUREMENT
 70
     0
  9
$CELWEIGHT
370
    -1
  9
$ENDCAPS
280
     0
  9
$JOINSTYLE
280
     0
  9
$LWDISPLAY
290
     1
  9
$INSUNITS
 70
     1
  9
$HYPERLINKBASE
  1

  9
$STYLESHEET
  1

  9
$XEDIT
290
     1
  9
$CEPSNTYPE
380
     0
  9
$PSTYLEMODE
290
     1
  9
$FINGERPRINTGUID
  2
{3BDAEA2B-35F5-4506-A364-FEA7D700268E}
  9
$VERSIONGUID
  2
{FAEB1C32-E019-11D5-929B-00C0DF256EC4}
  9
$EXTNAMES
290
     1
  9
$PSVPSCALE
 40
0.0
  9
$OLESTARTUP
290
     0
  9
$SORTENTS
280
   127
  9
$INDEXCTL
280
     0
  9
$HIDETEXT
280
     1
  9
$XCLIPFRAME
280
     2
  9
$HALOGAP
280
     0
  9
$OBSCOLOR
 70
   257
  9
$OBSLTYPE
280
     0
  9
$INTERSECTIONDISPLAY
280
     0
  9
$INTERSECTIONCOLOR
 70
   257
  9
$DIMASSOC
280
     2
  9
$PROJECTNAME
  1

  9
$CAMERADISPLAY
290
     0
  9
$LENSLENGTH
 40
50.0
  9
$CAMERAHEIGHT
 40
0.0
  9
$STEPSPERSEC
 40
2.0
  9
$STEPSIZE
 40
6.0
  9
$3DDWFPREC
 40
2.0
  9
$PSOLWIDTH
 40
0.25
  9
$PSOLHEIGHT
 40
4.0
  9
$LOFTANG1
 40
1.570796326794897
  9
$LOFTANG2
 40
1.570796326794897
  9
$LOFTMAG1
 40
0.0
  9
$LOFTMAG2
 40
0.0
  9
$LOFTPARAM
 70
     7
  9
$LOFTNORMALS
280
     1
  9
$LATITUDE
 40
37.795
  9
$LONGITUDE
 40
-122.394
  9
$NORTHDIRECTION
 40
0.0
  9
$TIMEZONE
 70
 -8000
  9
$LIGHTGLYPHDISPLAY
280
     1
  9
$TILEMODELIGHTSYNCH
280
     1
  9
$CMATERIAL
347
3C
  9
$SOLIDHIST
280
     1
  9
$SHOWHIST
280
     1
  9
$DWFFRAME
280
     2
  9
$DGNFRAME
280
     2
  9
$REALWORLDSCALE
290
     1
  9
$INTERFERECOLOR
 62
   256
  9
$CSHADOW
280
     0
  9
$SHADOWPLANELOCATION
 40
0.0
  0
ENDSEC
  0
SECTION
  2
CLASSES
  0
CLASS
  1
ACDBDICTIONARYWDFLT
  2
AcDbDictionaryWithDefault
  3
ObjectDBX Classes
 90
        0
 91
        4
280
     0
281
     0
  0
CLASS
  1
VISUALSTYLE
  2
AcDbVisualStyle
  3
ObjectDBX Classes
 90
     4095
 91
        4
280
     0
281
     0
  0
CLASS
  1
MATERIAL
  2
AcDbMaterial
  3
ObjectDBX Classes
 90
     1153
 91
        4
280
     0
281
     0
  0
CLASS
  1
SUN
  2
AcDbSun
  3
SCENEOE
 90
     1024
 91
        4
280
     0
281
     0
  0
ENDSEC
  0
SECTION
  2
TABLES
  0
TABLE
  2
VPORT
  5
8
330
0
100
AcDbSymbolTable
 70
     1
  0
VPORT
  5
29
330
8
100
AcDbSymbolTableRecord
100
AcDbViewportTableRecord
  2
*Active
 70
     0
 10
0.0
 20
0.0
 11
1.0
 21
1.0
 12
0.0
 22
0.0
 13
0.0
 23
0.0
 14
0.5
 24
0.5
 15
0.5
 25
0.5
 16
0.0
 26
0.0
 36
1.0
 17
2.5
 27
-2.5
 37
0.0
 40
5.0
 41
1.0
 42
50.0
 43
0.0
 44
0.0
 50
0.0
 51
0.0
 71
     0
 72
   100
 73
     1
 74
     3
 75
     0
 76
     0
 77
     0
 78
     0
281
     0
 65
     1
110
0.0
120
0.0
130
0.0
111
1.0
121
0.0
131
0.0
112
0.0
122
1.0
132
0.0
 79
     0
146
0.0
 60
     3
 61
     5
292
     1
282
     1
141
0.0
142
0.0
 63
   250
361
3F
  0
ENDTAB
  0
TABLE
  2
LTYPE
  5
5
330
0
100
AcDbSymbolTable
 70
     1
  0
LTYPE
  5
14
330
5
100
AcDbSymbolTableRecord
100
AcDbLinetypeTableRecord
  2
ByBlock
 70
     0
  3

 72
    65
 73
     0
 40
0.0
  0
LTYPE
  5
15
330
5
100
AcDbSymbolTableRecord
100
AcDbLinetypeTableRecord
  2
ByLayer
 70
     0
  3

 72
    65
 73
     0
 40
0.0
  0
LTYPE
  5
16
330
5
100
AcDbSymbolTableRecord
100
AcDbLinetypeTableRecord
  2
Continuous
 70
     0
  3
Solid line
 72
    65
 73
     0
 40
0.0
  0
ENDTAB
  0
TABLE
  2
LAYER
  5
2
330
0
100
AcDbSymbolTable
 70
     2
  0
LAYER
  5
10
330
2
100
AcDbSymbolTableRecord
100
AcDbLayerTableRecord
  2
0
 70
     0
 62
     7
  6
Continuous
370
    -3
390
F
347
3E
  0
LAYER
  5
40
330
2
100
AcDbSymbolTableRecord
100
AcDbLayerTableRecord
  2
Layer 1
 70
     0
 62
     7
  6
Continuous
370
    -3
390
F
347
3E
  0
ENDTAB
  0
TABLE
  2
STYLE
  5
3
330
0
100
AcDbSymbolTable
 70
     1
  0
STYLE
  5
11
330
3
100
AcDbSymbolTableRecord
100
AcDbTextStyleTableRecord
  2
Standard
 70
     0
 40
0.0
 41
1.0
 50
0.0
 71
     0
 42
0.2
  3
txt
  4

  0
ENDTAB
  0
TABLE
  2
VIEW
  5
6
330
0
100
AcDbSymbolTable
 70
     0
  0
ENDTAB
  0
TABLE
  2
UCS
  5
7
330
0
100
AcDbSymbolTable
 70
     0
  0
ENDTAB
  0
TABLE
  2
APPID
  5
9
330
0
100
AcDbSymbolTable
 70
     1
  0
APPID
  5
12
330
9
100
AcDbSymbolTableRecord
100
AcDbRegAppTableRecord
  2
ACAD
 70
     0
  0
ENDTAB
  0
TABLE
  2
DIMSTYLE
  5
A
330
0
100
AcDbSymbolTable
 70
     1
100
AcDbDimStyleTable
  0
DIMSTYLE
105
27
330
A
100
AcDbSymbolTableRecord
100
AcDbDimStyleTableRecord
  2
Standard
 70
     0
178
     0
340
11
  0
ENDTAB
  0
TABLE
  2
BLOCK_RECORD
  5
1
330
0
100
AcDbSymbolTable
 70
     5
  0
BLOCK_RECORD
  5
1F
330
1
100
AcDbSymbolTableRecord
100
AcDbBlockTableRecord
  2
*Model_Space
340
22
 70
     0
280
     1
281
     0
  0
BLOCK_RECORD
  5
1B
330
1
100
AcDbSymbolTableRecord
100
AcDbBlockTableRecord
  2
*Paper_Space
340
1E
 70
     0
280
     1
281
     0
  0
BLOCK_RECORD
  5
23
330
1
100
AcDbSymbolTableRecord
100
AcDbBlockTableRecord
  2
*Paper_Space0
340
26
 70
     0
280
     1
281
     0
  0
BLOCK_RECORD
  5
41
330
1
100
AcDbSymbolTableRecord
100
AcDbBlockTableRecord
  2
block 2
340
0
102
{BLKREFS
331
42
102
}
 70
     0
280
     1
281
     0
  0
BLOCK_RECORD
  5
97
330
1
100
AcDbSymbolTableRecord
100
AcDbBlockTableRecord
  2
block 3
340
0
102
{BLKREFS
331
98
102
}
 70
     0
280
     1
281
     0
  0
BLOCK_RECORD
  5
F6
330
1
100
AcDbSymbolTableRecord
100
AcDbBlockTableRecord
  2
block 4
340
0
102
{BLKREFS
331
F7
102
}
 70
     0
280
     1
281
     0
  0
BLOCK_RECORD
  5
FA
330
1
100
AcDbSymbolTableRecord
100
AcDbBlockTableRecord
  2
block 5
340
0
102
{BLKREFS
331
FB
102
}
 70
     0
280
     1
281
     0
  0
ENDTAB
  0
ENDSEC
  0
SECTION
  2
BLOCKS
  0
BLOCK
  5
20
330
1F
100
AcDbEntity
  8
0
100
AcDbBlockBegin
  2
*Model_Space
 70
     0
 10
0.0
 20
0.0
 30
0.0
  3
*Model_Space
  1

  0
ENDBLK
  5
21
330
1F
100
AcDbEntity
  8
0
100
AcDbBlockEnd
  0
BLOCK
  5
1C
330
1B
100
AcDbEntity
 67
     1
  8
0
100
AcDbBlockBegin
  2
*Paper_Space
 70
     0
 10
0.0
 20
0.0
 30
0.0
  3
*Paper_Space
  1

  0
ENDBLK
  5
1D
330
1B
100
AcDbEntity
 67
     1
  8
0
100
AcDbBlockEnd
  0
BLOCK
  5
24
330
23
100
AcDbEntity
  8
0
100
AcDbBlockBegin
  2
*Paper_Space0
 70
     0
 10
0.0
 20
0.0
 30
0.0
  3
*Paper_Space0
  1

  0
ENDBLK
  5
25
330
23
100
AcDbEntity
  8
0
100
AcDbBlockEnd
  0
BLOCK
  5
43
330
41
100
AcDbEntity
  8
0
100
AcDbBlockBegin
  2
block 2
 70
     0
 10
0.0
 20
0.0
 30
0.0
  3
block 2
  1

  0
SPLINE
  5
45
330
41
100
AcDbEntity
  8
Layer 1
370
     0
100
AcDbSpline
210
0.0
220
0.0
230
1.0
 70
    11
 71
     3
 72
    47
 73
    43
 74
     0
 42
0.0000000001
 43
0.0000000001
 12
1.0
 22
0.0
 32
0.0
 13
1.0
 23
0.0
 33
0.0
 40
0.0
 40
0.0
 40
0.0
 40
0.0
 40
1.0
 40
1.0
 40
1.0
 40
2.0
 40
2.0
 40
2.0
 40
3.0
 40
3.0
 40
3.0
 40
4.0
 40
4.0
 40
4.0
 40
5.0
 40
5.0
 40
5.0
 40
6.0
 40
6.0
 40
6.0
 40
7.0
 40
7.0
 40
7.0
 40
8.0
 40
8.0
 40
8.0
 40
9.0
 40
9.0
 40
9.0
 40
10.0
 40
10.0
 40
10.0
 40
11.0
 40
11.0
 40
11.0
 40
12.0
 40
12.0
 40
12.0
 40
13.0
 40
13.0
 40
13.0
 40
14.0
 40
14.0
 40
14.0
 40
14.0
 10
2.129351863051284
 20
-2.418580350690313
 30
0.0
 10
2.129351863051284
 20
-2.46317820397332
 30
0.0
 10
2.098214266779804
 20
-2.501238882348503
 30
0.0
 10
2.031317486855313
 20
-2.501238882348503
 30
0.0
 10
1.978648128849689
 20
-2.501238882348503
 30
0.0
 10
1.930976966452881
 20
-2.47317459519085
 30
0.0
 10
1.9232867194418
 20
-2.434342102424012
 30
0.0
 10
1.9232867194418
 20
-2.434342102424012
 30
0.0
 10
1.970190716931269
 20
-2.416274206483864
 30
0.0
 10
1.970190716931269
 20
-2.416274206483864
 30
0.0
 10
1.975188912540034
 20
-2.436648246630461
 30
0.0
 10
1.998636261800445
 20
-2.449341338734548
 30
0.0
 10
2.026705198442401
 20
-2.449341338734548
 30
0.0
 10
2.057842794713881
 20
-2.449341338734548
 30
0.0
 10
2.074762268035101
 20
-2.437038803310606
 30
0.0
 10
2.074762268035101
 20
-2.420505237185226
 30
0.0
 10
2.074762268035101
 20
-2.404362227740017
 30
0.0
 10
2.06168791821944
 20
-2.397434496152048
 30
0.0
 10
2.017861879328115
 20
-2.384369445304969
 30
0.0
 10
1.955963295012376
 20
-2.365910992684727
 30
0.0
 10
1.930591059257027
 20
-2.342458993940012
 30
0.0
 10
1.930591059257027
 20
-2.302863985750062
 30
0.0
 10
1.930591059257027
 20
-2.267490709292891
 30
0.0
 10
1.956349202208179
 20
-2.225208299184954
 30
0.0
 10
2.025552126339158
 20
-2.225208299184954
 30
0.0
 10
2.066686113828167
 20
-2.225208299184954
 30
0.0
 10
2.108591915708858
 20
-2.247116669146306
 30
0.0
 10
2.116282162719926
 20
-2.285558605233025
 30
0.0
 10
2.116282162719926
 20
-2.285558605233025
 30
0.0
 10
2.070917144529529
 20
-2.302473429069929
 30
0.0
 10
2.070917144529529
 20
-2.302473429069929
 30
0.0
 10
2.067457928219874
 20
-2.285558605233025
 30
0.0
 10
2.045540259289914
 20
-2.276334028407177
 30
0.0
 10
2.025933384050732
 20
-2.27595277069564
 30
0.0
 10
2.004406271800892
 20
-2.275562214015495
 30
0.0
 10
1.98479939656171
 20
-2.283252461026538
 30
0.0
 10
1.98479939656171
 20
-2.300939099255149
 30
0.0
 10
1.98479939656171
 20
-2.31362289239069
 30
0.0
 10
1.994795787779228
 20
-2.321703696081853
 30
0.0
 10
2.037082847371456
 20
-2.334768746928956
 30
0.0
 10
2.09013811257292
 20
-2.350921055342736
 30
0.0
 10
2.129351863051284
 20
-2.368607693571322
 30
0.0
 10
2.129351863051284
 20
-2.418580350690313
 30
0.0
  0
HATCH
  5
46
330
41
100
AcDbEntity
  8
Layer 1
 62
   158
420
   795456
100
AcDbHatch
 10
0.0
 20
0.0
 30
0.0
210
0.0
220
0.0
230
1.0
  2
SOLID
 70
     1
 71
     0
 91
        1
 92
        1
 93
        1
 72
     4
 94
        3
 73
     0
 74
     1
 95
       47
 96
       43
 40
0.0
 40
0.0
 40
0.0
 40
0.0
 40
1.0
 40
1.0
 40
1.0
 40
2.0
 40
2.0
 40
2.0
 40
3.0
 40
3.0
 40
3.0
 40
4.0
 40
4.0
 40
4.0
 40
5.0
 40
5.0
 40
5.0
 40
6.0
 40
6.0
 40
6.0
 40
7.0
 40
7.0
 40
7.0
 40
8.0
 40
8.0
 40
8.0
 40
9.0
 40
9.0
 40
9.0
 40
10.0
 40
10.0
 40
10.0
 40
11.0
 40
11.0
 40
11.0
 40
12.0
 40
12.0
 40
12.0
 40
13.0
 40
13.0
 40
13.0
 40
14.0
 40
14.0
 40
14.0
 40
14.0
 10
2.129351863051284
 20
-2.418580350690313
 10
2.129351863051284
 20
-2.46317820397332
 10
2.098214266779804
 20
-2.501238882348503
 10
2.031317486855313
 20
-2.501238882348503
 10
1.978648128849689
 20
-2.501238882348503
 10
1.930976966452881
 20
-2.47317459519085
 10
1.9232867194418
 20
-2.434342102424012
 10
1.9232867194418
 20
-2.434342102424012
 10
1.970190716931269
 20
-2.416274206483864
 10
1.970190716931269
 20
-2.416274206483864
 10
1.975188912540034
 20
-2.436648246630461
 10
1.998636261800445
 20
-2.449341338734548
 10
2.026705198442401
 20
-2.449341338734548
 10
2.057842794713881
 20
-2.449341338734548
 10
2.074762268035101
 20
-2.437038803310606
 10
2.074762268035101
 20
-2.420505237185226
 10
2.074762268035101
 20
-2.404362227740017
 10
2.06168791821944
 20
-2.397434496152048
 10
2.017861879328115
 20
-2.384369445304969
 10
1.955963295012376
 20
-2.365910992684727
 10
1.930591059257027
 20
-2.342458993940012
 10
1.930591059257027
 20
-2.302863985750062
 10
1.930591059257027
 20
-2.267490709292891
 10
1.956349202208179
 20
-2.225208299184954
 10
2.025552126339158
 20
-2.225208299184954
 10
2.066686113828167
 20
-2.225208299184954
 10
2.108591915708858
 20
-2.247116669146306
 10
2.116282162719926
 20
-2.285558605233025
 10
2.116282162719926
 20
-2.285558605233025
 10
2.070917144529529
 20
-2.302473429069929
 10
2.070917144529529
 20
-2.302473429069929
 10
2.067457928219874
 20
-2.285558605233025
 10
2.045540259289914
 20
-2.276334028407177
 10
2.025933384050732
 20
-2.27595277069564
 10
2.004406271800892
 20
-2.275562214015495
 10
1.98479939656171
 20
-2.283252461026538
 10
1.98479939656171
 20
-2.300939099255149
 10
1.98479939656171
 20
-2.31362289239069
 10
1.994795787779228
 20
-2.321703696081853
 10
2.037082847371456
 20
-2.334768746928956
 10
2.09013811257292
 20
-2.350921055342736
 10
2.129351863051284
 20
-2.368607693571322
 10
2.129351863051284
 20
-2.418580350690313
 97
        0
 97
        0
 75
     2
 76
     1
 98
        0
  0
SPLINE
  5
47
330
41
100
AcDbEntity
  8
Layer 1
370
     0
100
AcDbSpline
210
0.0
220
0.0
230
1.0
 70
    11
 71
     3
 72
    17
 73
    13
 74
     0
 42
0.0000000001
 43
0.0000000001
 12
1.0
 22
0.0
 32
0.0
 13
1.0
 23
0.0
 33
0.0
 40
0.0
 40
0.0
 40
0.0
 40
0.0
 40
1.0
 40
1.0
 40
1.0
 40
2.0
 40
2.0
 40
2.0
 40
3.0
 40
3.0
 40
3.0
 40
4.0
 40
4.0
 40
4.0
 40
4.0
 10
2.425021867844041
 20
-2.362451776375034
 30
0.0
 10
2.425021867844041
 20
-2.439726205228592
 30
0.0
 10
2.371971252126905
 20
-2.499704552533709
 30
0.0
 10
2.294692173789068
 20
-2.499704552533709
 30
0.0
 10
2.217417744935498
 20
-2.499704552533709
 30
0.0
 10
2.163981222022509
 20
-2.439726205228592
 30
0.0
 10
2.163981222022509
 20
-2.362451776375034
 30
0.0
 10
2.163981222022509
 20
-2.285177347521476
 30
0.0
 10
2.217417744935498
 20
-2.225208299184954
 30
0.0
 10
2.294692173789068
 20
-2.225208299184954
 30
0.0
 10
2.371971252126905
 20
-2.225208299184954
 30
0.0
 10
2.425021867844041
 20
-2.285177347521476
 30
0.0
 10
2.425021867844041
 20
-2.362451776375034
 30
0.0
  0
SPLINE
  5
48
330
41
100
AcDbEntity
  8
Layer 1
370
     0
100
AcDbSpline
210
0.0
220
0.0
230
1.0
 70
    11
 71
     3
 72
    17
 73
    13
 74
     0
 42
0.0000000001
 43
0.0000000001
 12
1.0
 22
0.0
 32
0.0
 13
1.0
 23
0.0
 33
0.0
 40
0.0
 40
0.0
 40
0.0
 40
0.0
 40
1.0
 40
1.0
 40
1.0
 40
2.0
 40
2.0
 40
2.0
 40
3.0
 40
3.0
 40
3.0
 40
4.0
 40
4.0
 40
4.0
 40
4.0
 10
2.372738417034296
 20
-2.362451776375034
 30
0.0
 10
2.372738417034296
 20
-2.313241634679116
 30
0.0
 10
2.343521057773412
 20
-2.276334028407177
 30
0.0
 10
2.294692173789068
 20
-2.276334028407177
 30
0.0
 10
2.24548203209315
 20
-2.276334028407177
 30
0.0
 10
2.216264672832279
 20
-2.313241634679116
 30
0.0
 10
2.216264672832279
 20
-2.362451776375034
 30
0.0
 10
2.216264672832279
 20
-2.411280660359403
 30
0.0
 10
2.24548203209315
 20
-2.448188266631317
 30
0.0
 10
2.294692173789068
 20
-2.448188266631317
 30
0.0
 10
2.343521057773412
 20
-2.448188266631317
 30
0.0
 10
2.372738417034296
 20
-2.411280660359403
 30
0.0
 10
2.372738417034296
 20
-2.362451776375034
 30
0.0
  0
HATCH
  5
49
330
41
100
AcDbEntity
  8
Layer 1
 62
   158
420
   795456
100
AcDbHatch
 10
0.0
 20
0.0
 30
0.0
210
0.0
220
0.0
230
1.0
  2
SOLID
 70
     1
 71
     0
 91
        2
 92
        1
 93
        1
 72
     4
 94
        3
 73
     0
 74
     1
 95
       17
 96
       13
 40
0.0
 40
0.0
 40
0.0
 40
0.0
 40
1.0
 40
1.0
 40
1.0
 40
2.0
 40
2.0
 40
2.0
 40
3.0
 40
3.0
 40
3.0
 40
4.0
 40
4.0
 40
4.0
 40
4.0
 10
2.425021867844041
 20
-2.362451776375034
 10
2.425021867844041
 20
-2.439726205228592
 10
2.371971252126905
 20
-2.499704552533709
 10
2.294692173789068
 20
-2.499704552533709
 10
2.217417744935498
 20
-2.499704552533709
 10
2.163981222022509
 20
-2.439726205228592
 10
2.163981222022509
 20
-2.362451776375034
 10
2.163981222022509
 20
-2.285177347521476
 10
2.217417744935498
 20
-2.225208299184954
 10
2.294692173789068
 20
-2.225208299184954
 10
2.371971252126905
 20
-2.225208299184954
 10
2.425021867844041
 20
-2.285177347521476
 10
2.425021867844041
 20
-2.362451776375034
 97
        0
 97
        0
 92
        1
 93
        1
 72
     4
 94
        3
 73
     0
 74
     1
 95
       17
 96
       13
 40
0.0
 40
0.0
 40
0.0
 40
0.0
 40
1.0
 40
1.0
 40
1.0
 40
2.0
 40
2.0
 40
2.0
 40
3.0
 40
3.0
 40
3.0
 40
4.0
 40
4.0
 40
4.0
 40
4.0
 10
2.372738417034296
 20
-2.362451776375034
 10
2.372738417034296
 20
-2.313241634679116
 10
2.343521057773412
 20
-2.276334028407177
 10
2.294692173789068
 20
-2.276334028407177
 10
2.24548203209315
 20
-2.276334028407177
 10
2.216264672832279
 20
-2.313241634679116
 10
2.216264672832279
 20
-2.362451776375034
 10
2.216264672832279
 20
-2.411280660359403
 10
2.24548203209315
 20
-2.448188266631317
 10
2.294692173789068
 20
-2.448188266631317
 10
2.343521057773412
 20
-2.448188266631317
 10
2.372738417034296
 20
-2.411280660359403
 10
2.372738417034296
 20
-2.362451776375034
 97
        0
 97
        0
 75
     2
 76
     1
 98
        0
  0
POLYLINE
  5
4A
330
41
100
AcDbEntity
  8
Layer 1
370
     0
100
AcDb2dPolyline
 66
     1
 10
0.0
 20
0.0
 30
0.0
  0
VERTEX
  5
4B
330
4A
100
AcDbEntity
  8
Layer 1
370
     0
100
AcDbVertex
100
AcDb2dVertex
 10
2.634578774153296
 20
-2.447797709951184
 30
0.0
  0
VERTEX
  5
4C
330
4A
100
AcDbEntity
  8
Layer 1
370
     0
100
AcDbVertex
100
AcDb2dVertex
 10
2.634578774153296
 20
-2.496626593935566
 30
0.0
  0
VERTEX
  5
4D
330
4A
100
AcDbEntity
  8
Layer 1
370
     0
100
AcDbVertex
100
AcDb2dVertex
 10
2.473106834342464
 20
-2.496626593935566
 30
0.0
  0
VERTEX
  5
4E
330
4A
100
AcDbEntity
  8
Layer 1
370
     0
100
AcDbVertex
100
AcDb2dVertex
 10
2.473106834342464
 20
-2.227514443391404
 30
0.0
  0
VERTEX
  5
4F
330
4A
100
AcDbEntity
  8
Layer 1
370
     0
100
AcDbVertex
100
AcDb2dVertex
 10
2.524237213049016
 20
-2.227514443391404
 30
0.0
  0
VERTEX
  5
50
330
4A
100
AcDbEntity
  8
Layer 1
370
     0
100
AcDbVertex
100
AcDb2dVertex
 10
2.524237213049016
 20
-2.447797709951184
 30
0.0
  0
VERTEX
  5
51
330
4A
100
AcDbEntity
  8
Layer 1
370
     0
100
AcDbVertex
100
AcDb2dVertex
 10
2.634578774153296
 20
-2.447797709951184
 30
0.0
  0
SEQEND
  5
52
330
4A
100
AcDbEntity
  8
Layer 1
370
     0
  0
HATCH
  5
53
330
41
100
AcDbEntity
  8
Layer 1
 62
   158
420
   795456
100
AcDbHatch
 10
0.0
 20
0.0
 30
0.0
210
0.0
220
0.0
230
1.0
  2
SOLID
 70
     1
 71
     0
 91
        1
 92
        1
 93
        6
 72
     1
 10
2.634578774153296
 20
-2.447797709951184
 11
2.634578774153296
 21
-2.496626593935566
 72
     1
 10
2.634578774153296
 20
-2.496626593935566
 11
2.473106834342464
 21
-2.496626593935566
 72
     1
 10
2.473106834342464
 20
-2.496626593935566
 11
2.473106834342464
 21
-2.227514443391404
 72
     1
 10
2.473106834342464
 20
-2.227514443391404
 11
2.524237213049016
 21
-2.227514443391404
 72
     1
 10
2.524237213049016
 20
-2.227514443391404
 11
2.524237213049016
 21
-2.447797709951184
 72
     1
 10
2.524237213049016
 20
-2.447797709951184
 11
2.634578774153296
 21
-2.447797709951184
 97
        0
 75
     2
 76
     1
 98
        0
  0
POLYLINE
  5
54
330
41
100
AcDbEntity
  8
Layer 1
370
     0
100
AcDb2dPolyline
 66
     1
 10
0.0
 20
0.0
 30
0.0
  0
VERTEX
  5
55
330
54
100
AcDbEntity
  8
Layer 1
370
     0
100
AcDbVertex
100
AcDb2dVertex
 10
2.839123536400848
 20
-2.43588573120735
 30
0.0
  0
VERTEX
  5
56
330
54
100
AcDbEntity
  8
Layer 1
370
     0
100
AcDbVertex
100
AcDb2dVertex
 10
2.748007592824226
 20
-2.43588573120735
 30
0.0
  0
VERTEX
  5
57
330
54
100
AcDbEntity
  8
Layer 1
370
     0
100
AcDbVertex
100
AcDb2dVertex
 10
2.727247645481788
 20
-2.496626593935566
 30
0.0
  0
VERTEX
  5
58
330
54
100
AcDbEntity
  8
Layer 1
370
     0
100
AcDbVertex
100
AcDb2dVertex
 10
2.669194184671596
 20
-2.496626593935566
 30
0.0
  0
VERTEX
  5
59
330
54
100
AcDbEntity
  8
Layer 1
370
     0
100
AcDbVertex
100
AcDb2dVertex
 10
2.767614468063407
 20
-2.227514443391404
 30
0.0
  0
VERTEX
  5
5A
330
54
100
AcDbEntity
  8
Layer 1
370
     0
100
AcDbVertex
100
AcDb2dVertex
 10
2.819897918873191
 20
-2.227514443391404
 30
0.0
  0
VERTEX
  5
5B
330
54
100
AcDbEntity
  8
Layer 1
370
     0
100
AcDbVertex
100
AcDb2dVertex
 10
2.918318202265052
 20
-2.496626593935566
 30
0.0
  0
VERTEX
  5
5C
330
54
100
AcDbEntity
  8
Layer 1
370
     0
100
AcDbVertex
100
AcDb2dVertex
 10
2.860269390939114
 20
-2.496626593935566
 30
0.0
  0
VERTEX
  5
5D
330
54
100
AcDbEntity
  8
Layer 1
370
     0
100
AcDbVertex
100
AcDb2dVertex
 10
2.839123536400848
 20
-2.43588573120735
 30
0.0
  0
SEQEND
  5
5E
330
54
100
AcDbEntity
  8
Layer 1
370
     0
  0
POLYLINE
  5
5F
330
41
100
AcDbEntity
  8
Layer 1
370
     0
100
AcDb2dPolyline
 66
     1
 10
0.0
 20
0.0
 30
0.0
  0
VERTEX
  5
60
330
5F
100
AcDbEntity
  8
Layer 1
370
     0
100
AcDbVertex
100
AcDb2dVertex
 10
2.822208712563932
 20
-2.387056847223019
 30
0.0
  0
VERTEX
  5
61
330
5F
100
AcDbEntity
  8
Layer 1
370
     0
100
AcDbVertex
100
AcDb2dVertex
 10
2.793758518210426
 20
-2.304398315564829
 30
0.0
  0
VERTEX
  5
62
330
5F
100
AcDbEntity
  8
Layer 1
370
     0
100
AcDbVertex
100
AcDb2dVertex
 10
2.765308323856971
 20
-2.387056847223019
 30
0.0
  0
VERTEX
  5
63
330
5F
100
AcDbEntity
  8
Layer 1
370
     0
100
AcDbVertex
100
AcDb2dVertex
 10
2.822208712563932
 20
-2.387056847223019
 30
0.0
  0
SEQEND
  5
64
330
5F
100
AcDbEntity
  8
Layer 1
370
     0
  0
HATCH
  5
65
330
41
100
AcDbEntity
  8
Layer 1
 62
   158
420
   795456
100
AcDbHatch
 10
0.0
 20
0.0
 30
0.0
210
0.0
220
0.0
230
1.0
  2
SOLID
 70
     1
 71
     0
 91
        2
 92
        1
 93
        8
 72
     1
 10
2.839123536400848
 20
-2.43588573120735
 11
2.748007592824226
 21
-2.43588573120735
 72
     1
 10
2.748007592824226
 20
-2.43588573120735
 11
2.727247645481788
 21
-2.496626593935566
 72
     1
 10
2.727247645481788
 20
-2.496626593935566
 11
2.669194184671596
 21
-2.496626593935566
 72
     1
 10
2.669194184671596
 20
-2.496626593935566
 11
2.767614468063407
 21
-2.227514443391404
 72
     1
 10
2.767614468063407
 20
-2.227514443391404
 11
2.819897918873191
 21
-2.227514443391404
 72
     1
 10
2.819897918873191
 20
-2.227514443391404
 11
2.918318202265052
 21
-2.496626593935566
 72
     1
 10
2.918318202265052
 20
-2.496626593935566
 11
2.860269390939114
 21
-2.496626593935566
 72
     1
 10
2.860269390939114
 20
-2.496626593935566
 11
2.839123536400848
 21
-2.43588573120735
 97
        0
 92
        1
 93
        3
 72
     1
 10
2.822208712563932
 20
-2.387056847223019
 11
2.793758518210426
 21
-2.304398315564829
 72
     1
 10
2.793758518210426
 20
-2.304398315564829
 11
2.765308323856971
 21
-2.387056847223019
 72
     1
 10
2.765308323856971
 20
-2.387056847223019
 11
2.822208712563932
 21
-2.387056847223019
 97
        0
 75
     2
 76
     1
 98
        0
  0
SPLINE
  5
66
330
41
100
AcDbEntity
  8
Layer 1
370
     0
100
AcDbSpline
210
0.0
220
0.0
230
1.0
 70
    11
 71
     3
 72
    35
 73
    31
 74
     0
 42
0.0000000001
 43
0.0000000001
 12
1.0
 22
0.0
 32
0.0
 13
1.0
 23
0.0
 33
0.0
 40
0.0
 40
0.0
 40
0.0
 40
0.0
 40
1.0
 40
1.0
 40
1.0
 40
2.0
 40
2.0
 40
2.0
 40
3.0
 40
3.0
 40
3.0
 40
4.0
 40
4.0
 40
4.0
 40
5.0
 40
5.0
 40
5.0
 40
6.0
 40
6.0
 40
6.0
 40
7.0
 40
7.0
 40
7.0
 40
8.0
 40
8.0
 40
8.0
 40
9.0
 40
9.0
 40
9.0
 40
10.0
 40
10.0
 40
10.0
 40
10.0
 10
3.047136813926676
 20
-2.404362227740017
 30
0.0
 10
3.047136813926676
 20
-2.404362227740017
 30
0.0
 10
3.009843300458897
 20
-2.404362227740017
 30
0.0
 10
3.009843300458897
 20
-2.404362227740017
 30
0.0
 10
3.009843300458897
 20
-2.404362227740017
 30
0.0
 10
3.009843300458897
 20
-2.496626593935566
 30
0.0
 10
3.009843300458897
 20
-2.496626593935566
 30
0.0
 10
3.009843300458897
 20
-2.496626593935566
 30
0.0
 10
2.958712921752395
 20
-2.496626593935566
 30
0.0
 10
2.958712921752395
 20
-2.496626593935566
 30
0.0
 10
2.958712921752395
 20
-2.496626593935566
 30
0.0
 10
2.958712921752395
 20
-2.227514443391404
 30
0.0
 10
2.958712921752395
 20
-2.227514443391404
 30
0.0
 10
2.958712921752395
 20
-2.227514443391404
 30
0.0
 10
3.058286277247412
 20
-2.227514443391404
 30
0.0
 10
3.058286277247412
 20
-2.227514443391404
 30
0.0
 10
3.118259975068213
 20
-2.227514443391404
 30
0.0
 10
3.151708365030496
 20
-2.266718894901209
 30
0.0
 10
3.151708365030496
 20
-2.315929036597127
 30
0.0
 10
3.151708365030496
 20
-2.352074127445967
 30
0.0
 10
3.134021726801923
 20
-2.382825816521618
 30
0.0
 10
3.10057333683964
 20
-2.396671980728961
 30
0.0
 10
3.10057333683964
 20
-2.396671980728961
 30
0.0
 10
3.158245539938333
 20
-2.496626593935566
 30
0.0
 10
3.158245539938333
 20
-2.496626593935566
 30
0.0
 10
3.158245539938333
 20
-2.496626593935566
 30
0.0
 10
3.10057333683964
 20
-2.496626593935566
 30
0.0
 10
3.10057333683964
 20
-2.496626593935566
 30
0.0
 10
3.10057333683964
 20
-2.496626593935566
 30
0.0
 10
3.047136813926676
 20
-2.404362227740017
 30
0.0
 10
3.047136813926676
 20
-2.404362227740017
 30
0.0
  0
SPLINE
  5
67
330
41
100
AcDbEntity
  8
Layer 1
370
     0
100
AcDbSpline
210
0.0
220
0.0
230
1.0
 70
    11
 71
     3
 72
    20
 73
    16
 74
     0
 42
0.0000000001
 43
0.0000000001
 12
1.0
 22
0.0
 32
0.0
 13
1.0
 23
0.0
 33
0.0
 40
0.0
 40
0.0
 40
0.0
 40
0.0
 40
1.0
 40
1.0
 40
1.0
 40
2.0
 40
2.0
 40
2.0
 40
3.0
 40
3.0
 40
3.0
 40
4.0
 40
4.0
 40
4.0
 40
5.0
 40
5.0
 40
5.0
 40
5.0
 10
3.009843300458897
 20
-2.35553334375566
 30
0.0
 10
3.009843300458897
 20
-2.35553334375566
 30
0.0
 10
3.057133205144181
 20
-2.35553334375566
 30
0.0
 10
3.057133205144181
 20
-2.35553334375566
 30
0.0
 10
3.082505440899543
 20
-2.35553334375566
 30
0.0
 10
3.098653099829031
 20
-2.338999777630319
 30
0.0
 10
3.098653099829031
 20
-2.315929036597127
 30
0.0
 10
3.098653099829031
 20
-2.292867594532544
 30
0.0
 10
3.082505440899543
 20
-2.276715286118739
 30
0.0
 10
3.057133205144181
 20
-2.276715286118739
 30
0.0
 10
3.057133205144181
 20
-2.276715286118739
 30
0.0
 10
3.009843300458897
 20
-2.276715286118739
 30
0.0
 10
3.009843300458897
 20
-2.276715286118739
 30
0.0
 10
3.009843300458897
 20
-2.276715286118739
 30
0.0
 10
3.009843300458897
 20
-2.35553334375566
 30
0.0
 10
3.009843300458897
 20
-2.35553334375566
 30
0.0
  0
HATCH
  5
68
330
41
100
AcDbEntity
  8
Layer 1
 62
   158
420
   795456
100
AcDbHatch
 10
0.0
 20
0.0
 30
0.0
210
0.0
220
0.0
230
1.0
  2
SOLID
 70
     1
 71
     0
 91
        2
 92
        1
 93
        1
 72
     4
 94
        3
 73
     0
 74
     1
 95
       35
 96
       31
 40
0.0
 40
0.0
 40
0.0
 40
0.0
 40
1.0
 40
1.0
 40
1.0
 40
2.0
 40
2.0
 40
2.0
 40
3.0
 40
3.0
 40
3.0
 40
4.0
 40
4.0
 40
4.0
 40
5.0
 40
5.0
 40
5.0
 40
6.0
 40
6.0
 40
6.0
 40
7.0
 40
7.0
 40
7.0
 40
8.0
 40
8.0
 40
8.0
 40
9.0
 40
9.0
 40
9.0
 40
10.0
 40
10.0
 40
10.0
 40
10.0
 10
3.047136813926676
 20
-2.404362227740017
 10
3.047136813926676
 20
-2.404362227740017
 10
3.009843300458897
 20
-2.404362227740017
 10
3.009843300458897
 20
-2.404362227740017
 10
3.009843300458897
 20
-2.404362227740017
 10
3.009843300458897
 20
-2.496626593935566
 10
3.009843300458897
 20
-2.496626593935566
 10
3.009843300458897
 20
-2.496626593935566
 10
2.958712921752395
 20
-2.496626593935566
 10
2.958712921752395
 20
-2.496626593935566
 10
2.958712921752395
 20
-2.496626593935566
 10
2.958712921752395
 20
-2.227514443391404
 10
2.958712921752395
 20
-2.227514443391404
 10
2.958712921752395
 20
-2.227514443391404
 10
3.058286277247412
 20
-2.227514443391404
 10
3.058286277247412
 20
-2.227514443391404
 10
3.118259975068213
 20
-2.227514443391404
 10
3.151708365030496
 20
-2.266718894901209
 10
3.151708365030496
 20
-2.315929036597127
 10
3.151708365030496
 20
-2.352074127445967
 10
3.134021726801923
 20
-2.382825816521618
 10
3.10057333683964
 20
-2.396671980728961
 10
3.10057333683964
 20
-2.396671980728961
 10
3.158245539938333
 20
-2.496626593935566
 10
3.158245539938333
 20
-2.496626593935566
 10
3.158245539938333
 20
-2.496626593935566
 10
3.10057333683964
 20
-2.496626593935566
 10
3.10057333683964
 20
-2.496626593935566
 10
3.10057333683964
 20
-2.496626593935566
 10
3.047136813926676
 20
-2.404362227740017
 10
3.047136813926676
 20
-2.404362227740017
 97
        0
 97
        0
 92
        1
 93
        1
 72
     4
 94
        3
 73
     0
 74
     1
 95
       20
 96
       16
 40
0.0
 40
0.0
 40
0.0
 40
0.0
 40
1.0
 40
1.0
 40
1.0
 40
2.0
 40
2.0
 40
2.0
 40
3.0
 40
3.0
 40
3.0
 40
4.0
 40
4.0
 40
4.0
 40
5.0
 40
5.0
 40
5.0
 40
5.0
 10
3.009843300458897
 20
-2.35553334375566
 10
3.009843300458897
 20
-2.35553334375566
 10
3.057133205144181
 20
-2.35553334375566
 10
3.057133205144181
 20
-2.35553334375566
 10
3.082505440899543
 20
-2.35553334375566
 10
3.098653099829031
 20
-2.338999777630319
 10
3.098653099829031
 20
-2.315929036597127
 10
3.098653099829031
 20
-2.292867594532544
 10
3.082505440899543
 20
-2.276715286118739
 10
3.057133205144181
 20
-2.276715286118739
 10
3.057133205144181
 20
-2.276715286118739
 10
3.009843300458897
 20
-2.276715286118739
 10
3.009843300458897
 20
-2.276715286118739
 10
3.009843300458897
 20
-2.276715286118739
 10
3.009843300458897
 20
-2.35553334375566
 10
3.009843300458897
 20
-2.35553334375566
 97
        0
 97
        0
 75
     2
 76
     1
 98
        0
  0
SPLINE
  5
69
330
41
100
AcDbEntity
  8
Layer 1
370
     0
100
AcDbSpline
210
0.0
220
0.0
230
1.0
 70
    11
 71
     3
 72
    26
 73
    22
 74
     0
 42
0.0000000001
 43
0.0000000001
 12
1.0
 22
0.0
 32
0.0
 13
1.0
 23
0.0
 33
0.0
 40
0.0
 40
0.0
 40
0.0
 40
0.0
 40
1.0
 40
1.0
 40
1.0
 40
2.0
 40
2.0
 40
2.0
 40
3.0
 40
3.0
 40
3.0
 40
4.0
 40
4.0
 40
4.0
 40
5.0
 40
5.0
 40
5.0
 40
6.0
 40
6.0
 40
6.0
 40
7.0
 40
7.0
 40
7.0
 40
7.0
 10
3.508891046943138
 20
-2.315929036597127
 30
0.0
 10
3.508891046943138
 20
-2.365139178293046
 30
0.0
 10
3.475451955949463
 20
-2.404362227740017
 30
0.0
 10
3.415473608644384
 20
-2.404362227740017
 30
0.0
 10
3.415473608644384
 20
-2.404362227740017
 30
0.0
 10
3.367035281340122
 20
-2.404362227740017
 30
0.0
 10
3.367035281340122
 20
-2.404362227740017
 30
0.0
 10
3.367035281340122
 20
-2.404362227740017
 30
0.0
 10
3.367035281340122
 20
-2.496626593935566
 30
0.0
 10
3.367035281340122
 20
-2.496626593935566
 30
0.0
 10
3.367035281340122
 20
-2.496626593935566
 30
0.0
 10
3.315900253149291
 20
-2.496626593935566
 30
0.0
 10
3.315900253149291
 20
-2.496626593935566
 30
0.0
 10
3.315900253149291
 20
-2.496626593935566
 30
0.0
 10
3.315900253149291
 20
-2.227514443391404
 30
0.0
 10
3.315900253149291
 20
-2.227514443391404
 30
0.0
 10
3.315900253149291
 20
-2.227514443391404
 30
0.0
 10
3.415473608644384
 20
-2.227514443391404
 30
0.0
 10
3.415473608644384
 20
-2.227514443391404
 30
0.0
 10
3.475451955949463
 20
-2.227514443391404
 30
0.0
 10
3.508891046943138
 20
-2.266718894901209
 30
0.0
 10
3.508891046943138
 20
-2.315929036597127
 30
0.0
  0
SPLINE
  5
6A
330
41
100
AcDbEntity
  8
Layer 1
370
     0
100
AcDbSpline
210
0.0
220
0.0
230
1.0
 70
    11
 71
     3
 72
    20
 73
    16
 74
     0
 42
0.0000000001
 43
0.0000000001
 12
1.0
 22
0.0
 32
0.0
 13
1.0
 23
0.0
 33
0.0
 40
0.0
 40
0.0
 40
0.0
 40
0.0
 40
1.0
 40
1.0
 40
1.0
 40
2.0
 40
2.0
 40
2.0
 40
3.0
 40
3.0
 40
3.0
 40
4.0
 40
4.0
 40
4.0
 40
5.0
 40
5.0
 40
5.0
 40
5.0
 10
3.456221688937553
 20
-2.315929036597127
 30
0.0
 10
3.456221688937553
 20
-2.292867594532544
 30
0.0
 10
3.439697421780768
 20
-2.276715286118739
 30
0.0
 10
3.414320536541153
 20
-2.276715286118739
 30
0.0
 10
3.414320536541153
 20
-2.276715286118739
 30
0.0
 10
3.367035281340122
 20
-2.276715286118739
 30
0.0
 10
3.367035281340122
 20
-2.276715286118739
 30
0.0
 10
3.367035281340122
 20
-2.276715286118739
 30
0.0
 10
3.367035281340122
 20
-2.35553334375566
 30
0.0
 10
3.367035281340122
 20
-2.35553334375566
 30
0.0
 10
3.367035281340122
 20
-2.35553334375566
 30
0.0
 10
3.414320536541153
 20
-2.35553334375566
 30
0.0
 10
3.414320536541153
 20
-2.35553334375566
 30
0.0
 10
3.439697421780768
 20
-2.35553334375566
 30
0.0
 10
3.456221688937553
 20
-2.338999777630319
 30
0.0
 10
3.456221688937553
 20
-2.315929036597127
 30
0.0
  0
HATCH
  5
6B
330
41
100
AcDbEntity
  8
Layer 1
 62
   158
420
   795456
100
AcDbHatch
 10
0.0
 20
0.0
 30
0.0
210
0.0
220
0.0
230
1.0
  2
SOLID
 70
     1
 71
     0
 91
        2
 92
        1
 93
        1
 72
     4
 94
        3
 73
     0
 74
     1
 95
       26
 96
       22
 40
0.0
 40
0.0
 40
0.0
 40
0.0
 40
1.0
 40
1.0
 40
1.0
 40
2.0
 40
2.0
 40
2.0
 40
3.0
 40
3.0
 40
3.0
 40
4.0
 40
4.0
 40
4.0
 40
5.0
 40
5.0
 40
5.0
 40
6.0
 40
6.0
 40
6.0
 40
7.0
 40
7.0
 40
7.0
 40
7.0
 10
3.508891046943138
 20
-2.315929036597127
 10
3.508891046943138
 20
-2.365139178293046
 10
3.475451955949463
 20
-2.404362227740017
 10
3.415473608644384
 20
-2.404362227740017
 10
3.415473608644384
 20
-2.404362227740017
 10
3.367035281340122
 20
-2.404362227740017
 10
3.367035281340122
 20
-2.404362227740017
 10
3.367035281340122
 20
-2.404362227740017
 10
3.367035281340122
 20
-2.496626593935566
 10
3.367035281340122
 20
-2.496626593935566
 10
3.367035281340122
 20
-2.496626593935566
 10
3.315900253149291
 20
-2.496626593935566
 10
3.315900253149291
 20
-2.496626593935566
 10
3.315900253149291
 20
-2.496626593935566
 10
3.315900253149291
 20
-2.227514443391404
 10
3.315900253149291
 20
-2.227514443391404
 10
3.315900253149291
 20
-2.227514443391404
 10
3.415473608644384
 20
-2.227514443391404
 10
3.415473608644384
 20
-2.227514443391404
 10
3.475451955949463
 20
-2.227514443391404
 10
3.508891046943138
 20
-2.266718894901209
 10
3.508891046943138
 20
-2.315929036597127
 97
        0
 97
        0
 92
        1
 93
        1
 72
     4
 94
        3
 73
     0
 74
     1
 95
       20
 96
       16
 40
0.0
 40
0.0
 40
0.0
 40
0.0
 40
1.0
 40
1.0
 40
1.0
 40
2.0
 40
2.0
 40
2.0
 40
3.0
 40
3.0
 40
3.0
 40
4.0
 40
4.0
 40
4.0
 40
5.0
 40
5.0
 40
5.0
 40
5.0
 10
3.456221688937553
 20
-2.315929036597127
 10
3.456221688937553
 20
-2.292867594532544
 10
3.439697421780768
 20
-2.276715286118739
 10
3.414320536541153
 20
-2.276715286118739
 10
3.414320536541153
 20
-2.276715286118739
 10
3.367035281340122
 20
-2.276715286118739
 10
3.367035281340122
 20
-2.276715286118739
 10
3.367035281340122
 20
-2.276715286118739
 10
3.367035281340122
 20
-2.35553334375566
 10
3.367035281340122
 20
-2.35553334375566
 10
3.367035281340122
 20
-2.35553334375566
 10
3.414320536541153
 20
-2.35553334375566
 10
3.414320536541153
 20
-2.35553334375566
 10
3.439697421780768
 20
-2.35553334375566
 10
3.456221688937553
 20
-2.338999777630319
 10
3.456221688937553
 20
-2.315929036597127
 97
        0
 97
        0
 75
     2
 76
     1
 98
        0
  0
POLYLINE
  5
6C
330
41
100
AcDbEntity
  8
Layer 1
370
     0
100
AcDb2dPolyline
 66
     1
 10
0.0
 20
0.0
 30
0.0
  0
VERTEX
  5
6D
330
6C
100
AcDbEntity
  8
Layer 1
370
     0
100
AcDbVertex
100
AcDb2dVertex
 10
3.674989223619731
 20
-2.43588573120735
 30
0.0
  0
VERTEX
  5
6E
330
6C
100
AcDbEntity
  8
Layer 1
370
     0
100
AcDbVertex
100
AcDb2dVertex
 10
3.583877929527413
 20
-2.43588573120735
 30
0.0
  0
VERTEX
  5
6F
330
6C
100
AcDbEntity
  8
Layer 1
370
     0
100
AcDbVertex
100
AcDb2dVertex
 10
3.563113332700671
 20
-2.496626593935566
 30
0.0
  0
VERTEX
  5
70
330
6C
100
AcDbEntity
  8
Layer 1
370
     0
100
AcDbVertex
100
AcDb2dVertex
 10
3.505059871890504
 20
-2.496626593935566
 30
0.0
  0
VERTEX
  5
71
330
6C
100
AcDbEntity
  8
Layer 1
370
     0
100
AcDbVertex
100
AcDb2dVertex
 10
3.60348015528229
 20
-2.227514443391404
 30
0.0
  0
VERTEX
  5
72
330
6C
100
AcDbEntity
  8
Layer 1
370
     0
100
AcDbVertex
100
AcDb2dVertex
 10
3.655768255576378
 20
-2.227514443391404
 30
0.0
  0
VERTEX
  5
73
330
6C
100
AcDbEntity
  8
Layer 1
370
     0
100
AcDbVertex
100
AcDb2dVertex
 10
3.754188538968189
 20
-2.496626593935566
 30
0.0
  0
VERTEX
  5
74
330
6C
100
AcDbEntity
  8
Layer 1
370
     0
100
AcDbVertex
100
AcDb2dVertex
 10
3.696135078157972
 20
-2.496626593935566
 30
0.0
  0
VERTEX
  5
75
330
6C
100
AcDbEntity
  8
Layer 1
370
     0
100
AcDbVertex
100
AcDb2dVertex
 10
3.674989223619731
 20
-2.43588573120735
 30
0.0
  0
SEQEND
  5
76
330
6C
100
AcDbEntity
  8
Layer 1
370
     0
  0
POLYLINE
  5
77
330
41
100
AcDbEntity
  8
Layer 1
370
     0
100
AcDb2dPolyline
 66
     1
 10
0.0
 20
0.0
 30
0.0
  0
VERTEX
  5
78
330
77
100
AcDbEntity
  8
Layer 1
370
     0
100
AcDbVertex
100
AcDb2dVertex
 10
3.65807439978284
 20
-2.387056847223019
 30
0.0
  0
VERTEX
  5
79
330
77
100
AcDbEntity
  8
Layer 1
370
     0
100
AcDbVertex
100
AcDb2dVertex
 10
3.629628854913613
 20
-2.304398315564829
 30
0.0
  0
VERTEX
  5
7A
330
77
100
AcDbEntity
  8
Layer 1
370
     0
100
AcDbVertex
100
AcDb2dVertex
 10
3.601174011075828
 20
-2.387056847223019
 30
0.0
  0
VERTEX
  5
7B
330
77
100
AcDbEntity
  8
Layer 1
370
     0
100
AcDbVertex
100
AcDb2dVertex
 10
3.65807439978284
 20
-2.387056847223019
 30
0.0
  0
SEQEND
  5
7C
330
77
100
AcDbEntity
  8
Layer 1
370
     0
  0
HATCH
  5
7D
330
41
100
AcDbEntity
  8
Layer 1
 62
   158
420
   795456
100
AcDbHatch
 10
0.0
 20
0.0
 30
0.0
210
0.0
220
0.0
230
1.0
  2
SOLID
 70
     1
 71
     0
 91
        2
 92
        1
 93
        8
 72
     1
 10
3.674989223619731
 20
-2.43588573120735
 11
3.583877929527413
 21
-2.43588573120735
 72
     1
 10
3.583877929527413
 20
-2.43588573120735
 11
3.563113332700671
 21
-2.496626593935566
 72
     1
 10
3.563113332700671
 20
-2.496626593935566
 11
3.505059871890504
 21
-2.496626593935566
 72
     1
 10
3.505059871890504
 20
-2.496626593935566
 11
3.60348015528229
 21
-2.227514443391404
 72
     1
 10
3.60348015528229
 20
-2.227514443391404
 11
3.655768255576378
 21
-2.227514443391404
 72
     1
 10
3.655768255576378
 20
-2.227514443391404
 11
3.754188538968189
 21
-2.496626593935566
 72
     1
 10
3.754188538968189
 20
-2.496626593935566
 11
3.696135078157972
 21
-2.496626593935566
 72
     1
 10
3.696135078157972
 20
-2.496626593935566
 11
3.674989223619731
 21
-2.43588573120735
 97
        0
 92
        1
 93
        3
 72
     1
 10
3.65807439978284
 20
-2.387056847223019
 11
3.629628854913613
 21
-2.304398315564829
 72
     1
 10
3.629628854913613
 20
-2.304398315564829
 11
3.601174011075828
 21
-2.387056847223019
 72
     1
 10
3.601174011075828
 20
-2.387056847223019
 11
3.65807439978284
 21
-2.387056847223019
 97
        0
 75
     2
 76
     1
 98
        0
  0
POLYLINE
  5
7E
330
41
100
AcDbEntity
  8
Layer 1
370
     0
100
AcDb2dPolyline
 66
     1
 10
0.0
 20
0.0
 30
0.0
  0
VERTEX
  5
7F
330
7E
100
AcDbEntity
  8
Layer 1
370
     0
100
AcDbVertex
100
AcDb2dVertex
 10
3.949903930554354
 20
-2.276715286118739
 30
0.0
  0
VERTEX
  5
80
330
7E
100
AcDbEntity
  8
Layer 1
370
     0
100
AcDbVertex
100
AcDb2dVertex
 10
3.877632346793815
 20
-2.276715286118739
 30
0.0
  0
VERTEX
  5
81
330
7E
100
AcDbEntity
  8
Layer 1
370
     0
100
AcDbVertex
100
AcDb2dVertex
 10
3.877632346793815
 20
-2.496626593935566
 30
0.0
  0
VERTEX
  5
82
330
7E
100
AcDbEntity
  8
Layer 1
370
     0
100
AcDbVertex
100
AcDb2dVertex
 10
3.82649731860301
 20
-2.496626593935566
 30
0.0
  0
VERTEX
  5
83
330
7E
100
AcDbEntity
  8
Layer 1
370
     0
100
AcDbVertex
100
AcDb2dVertex
 10
3.82649731860301
 20
-2.276715286118739
 30
0.0
  0
VERTEX
  5
84
330
7E
100
AcDbEntity
  8
Layer 1
370
     0
100
AcDbVertex
100
AcDb2dVertex
 10
3.754216435873913
 20
-2.276715286118739
 30
0.0
  0
VERTEX
  5
85
330
7E
100
AcDbEntity
  8
Layer 1
370
     0
100
AcDbVertex
100
AcDb2dVertex
 10
3.754216435873913
 20
-2.227514443391404
 30
0.0
  0
VERTEX
  5
86
330
7E
100
AcDbEntity
  8
Layer 1
370
     0
100
AcDbVertex
100
AcDb2dVertex
 10
3.949903930554354
 20
-2.227514443391404
 30
0.0
  0
VERTEX
  5
87
330
7E
100
AcDbEntity
  8
Layer 1
370
     0
100
AcDbVertex
100
AcDb2dVertex
 10
3.949903930554354
 20
-2.276715286118739
 30
0.0
  0
SEQEND
  5
88
330
7E
100
AcDbEntity
  8
Layer 1
370
     0
  0
HATCH
  5
89
330
41
100
AcDbEntity
  8
Layer 1
 62
   158
420
   795456
100
AcDbHatch
 10
0.0
 20
0.0
 30
0.0
210
0.0
220
0.0
230
1.0
  2
SOLID
 70
     1
 71
     0
 91
        1
 92
        1
 93
        8
 72
     1
 10
3.949903930554354
 20
-2.276715286118739
 11
3.877632346793815
 21
-2.276715286118739
 72
     1
 10
3.877632346793815
 20
-2.276715286118739
 11
3.877632346793815
 21
-2.496626593935566
 72
     1
 10
3.877632346793815
 20
-2.496626593935566
 11
3.82649731860301
 21
-2.496626593935566
 72
     1
 10
3.82649731860301
 20
-2.496626593935566
 11
3.82649731860301
 21
-2.276715286118739
 72
     1
 10
3.82649731860301
 20
-2.276715286118739
 11
3.754216435873913
 21
-2.276715286118739
 72
     1
 10
3.754216435873913
 20
-2.276715286118739
 11
3.754216435873913
 21
-2.227514443391404
 72
     1
 10
3.754216435873913
 20
-2.227514443391404
 11
3.949903930554354
 21
-2.227514443391404
 72
     1
 10
3.949903930554354
 20
-2.227514443391404
 11
3.949903930554354
 21
-2.276715286118739
 97
        0
 75
     2
 76
     1
 98
        0
  0
POLYLINE
  5
8A
330
41
100
AcDbEntity
  8
Layer 1
370
     0
100
AcDb2dPolyline
 66
     1
 10
0.0
 20
0.0
 30
0.0
  0
VERTEX
  5
8B
330
8A
100
AcDbEntity
  8
Layer 1
370
     0
100
AcDbVertex
100
AcDb2dVertex
 10
4.049114626274988
 20
-2.227514443391404
 30
0.0
  0
VERTEX
  5
8C
330
8A
100
AcDbEntity
  8
Layer 1
370
     0
100
AcDbVertex
100
AcDb2dVertex
 10
4.049114626274988
 20
-2.496626593935566
 30
0.0
  0
VERTEX
  5
8D
330
8A
100
AcDbEntity
  8
Layer 1
370
     0
100
AcDbVertex
100
AcDb2dVertex
 10
3.997979598084207
 20
-2.496626593935566
 30
0.0
  0
VERTEX
  5
8E
330
8A
100
AcDbEntity
  8
Layer 1
370
     0
100
AcDbVertex
100
AcDb2dVertex
 10
3.997979598084207
 20
-2.227514443391404
 30
0.0
  0
VERTEX
  5
8F
330
8A
100
AcDbEntity
  8
Layer 1
370
     0
100
AcDbVertex
100
AcDb2dVertex
 10
4.049114626274988
 20
-2.227514443391404
 30
0.0
  0
SEQEND
  5
90
330
8A
100
AcDbEntity
  8
Layer 1
370
     0
  0
HATCH
  5
91
330
41
100
AcDbEntity
  8
Layer 1
 62
   158
420
   795456
100
AcDbHatch
 10
0.0
 20
0.0
 30
0.0
210
0.0
220
0.0
230
1.0
  2
SOLID
 70
     1
 71
     0
 91
        1
 92
        1
 93
        4
 72
     1
 10
4.049114626274988
 20
-2.227514443391404
 11
4.049114626274988
 21
-2.496626593935566
 72
     1
 10
4.049114626274988
 20
-2.496626593935566
 11
3.997979598084207
 21
-2.496626593935566
 72
     1
 10
3.997979598084207
 20
-2.496626593935566
 11
3.997979598084207
 21
-2.227514443391404
 72
     1
 10
3.997979598084207
 20
-2.227514443391404
 11
4.049114626274988
 21
-2.227514443391404
 97
        0
 75
     2
 76
     1
 98
        0
  0
SPLINE
  5
92
330
41
100
AcDbEntity
  8
Layer 1
370
     0
100
AcDbSpline
210
0.0
220
0.0
230
1.0
 70
    11
 71
     3
 72
    17
 73
    13
 74
     0
 42
0.0000000001
 43
0.0000000001
 12
1.0
 22
0.0
 32
0.0
 13
1.0
 23
0.0
 33
0.0
 40
0.0
 40
0.0
 40
0.0
 40
0.0
 40
1.0
 40
1.0
 40
1.0
 40
2.0
 40
2.0
 40
2.0
 40
3.0
 40
3.0
 40
3.0
 40
4.0
 40
4.0
 40
4.0
 40
4.0
 10
4.358230939626385
 20
-2.362451776375034
 30
0.0
 10
4.358230939626385
 20
-2.439726205228592
 30
0.0
 10
4.305171024940642
 20
-2.499704552533709
 30
0.0
 10
4.227896596087096
 20
-2.499704552533709
 30
0.0
 10
4.150622167233552
 20
-2.499704552533709
 30
0.0
 10
4.097180994836259
 20
-2.439726205228592
 30
0.0
 10
4.097180994836259
 20
-2.362451776375034
 30
0.0
 10
4.097180994836259
 20
-2.285177347521476
 30
0.0
 10
4.150622167233552
 20
-2.225208299184954
 30
0.0
 10
4.227896596087096
 20
-2.225208299184954
 30
0.0
 10
4.305171024940642
 20
-2.225208299184954
 30
0.0
 10
4.358230939626385
 20
-2.285177347521476
 30
0.0
 10
4.358230939626385
 20
-2.362451776375034
 30
0.0
  0
SPLINE
  5
93
330
41
100
AcDbEntity
  8
Layer 1
370
     0
100
AcDbSpline
210
0.0
220
0.0
230
1.0
 70
    11
 71
     3
 72
    17
 73
    13
 74
     0
 42
0.0000000001
 43
0.0000000001
 12
1.0
 22
0.0
 32
0.0
 13
1.0
 23
0.0
 33
0.0
 40
0.0
 40
0.0
 40
0.0
 40
0.0
 40
1.0
 40
1.0
 40
1.0
 40
2.0
 40
2.0
 40
2.0
 40
3.0
 40
3.0
 40
3.0
 40
4.0
 40
4.0
 40
4.0
 40
4.0
 10
4.305942839332324
 20
-2.362451776375034
 30
0.0
 10
4.305942839332324
 20
-2.313241634679116
 30
0.0
 10
4.276725480071465
 20
-2.276334028407177
 30
0.0
 10
4.227896596087096
 20
-2.276334028407177
 30
0.0
 10
4.178686454391178
 20
-2.276334028407177
 30
0.0
 10
4.149469095130295
 20
-2.313241634679116
 30
0.0
 10
4.149469095130295
 20
-2.362451776375034
 30
0.0
 10
4.149469095130295
 20
-2.411280660359403
 30
0.0
 10
4.178686454391178
 20
-2.448188266631317
 30
0.0
 10
4.227896596087096
 20
-2.448188266631317
 30
0.0
 10
4.276725480071465
 20
-2.448188266631317
 30
0.0
 10
4.305942839332324
 20
-2.411280660359403
 30
0.0
 10
4.305942839332324
 20
-2.362451776375034
 30
0.0
  0
HATCH
  5
94
330
41
100
AcDbEntity
  8
Layer 1
 62
   158
420
   795456
100
AcDbHatch
 10
0.0
 20
0.0
 30
0.0
210
0.0
220
0.0
230
1.0
  2
SOLID
 70
     1
 71
     0
 91
        2
 92
        1
 93
        1
 72
     4
 94
        3
 73
     0
 74
     1
 95
       17
 96
       13
 40
0.0
 40
0.0
 40
0.0
 40
0.0
 40
1.0
 40
1.0
 40
1.0
 40
2.0
 40
2.0
 40
2.0
 40
3.0
 40
3.0
 40
3.0
 40
4.0
 40
4.0
 40
4.0
 40
4.0
 10
4.358230939626385
 20
-2.362451776375034
 10
4.358230939626385
 20
-2.439726205228592
 10
4.305171024940642
 20
-2.499704552533709
 10
4.227896596087096
 20
-2.499704552533709
 10
4.150622167233552
 20
-2.499704552533709
 10
4.097180994836259
 20
-2.439726205228592
 10
4.097180994836259
 20
-2.362451776375034
 10
4.097180994836259
 20
-2.285177347521476
 10
4.150622167233552
 20
-2.225208299184954
 10
4.227896596087096
 20
-2.225208299184954
 10
4.305171024940642
 20
-2.225208299184954
 10
4.358230939626385
 20
-2.285177347521476
 10
4.358230939626385
 20
-2.362451776375034
 97
        0
 97
        0
 92
        1
 93
        1
 72
     4
 94
        3
 73
     0
 74
     1
 95
       17
 96
       13
 40
0.0
 40
0.0
 40
0.0
 40
0.0
 40
1.0
 40
1.0
 40
1.0
 40
2.0
 40
2.0
 40
2.0
 40
3.0
 40
3.0
 40
3.0
 40
4.0
 40
4.0
 40
4.0
 40
4.0
 10
4.305942839332324
 20
-2.362451776375034
 10
4.305942839332324
 20
-2.313241634679116
 10
4.276725480071465
 20
-2.276334028407177
 10
4.227896596087096
 20
-2.276334028407177
 10
4.178686454391178
 20
-2.276334028407177
 10
4.149469095130295
 20
-2.313241634679116
 10
4.149469095130295
 20
-2.362451776375034
 10
4.149469095130295
 20
-2.411280660359403
 10
4.178686454391178
 20
-2.448188266631317
 10
4.227896596087096
 20
-2.448188266631317
 10
4.276725480071465
 20
-2.448188266631317
 10
4.305942839332324
 20
-2.411280660359403
 10
4.305942839332324
 20
-2.362451776375034
 97
        0
 97
        0
 75
     2
 76
     1
 98
        0
  0
SPLINE
  5
95
330
41
100
AcDbEntity
  8
Layer 1
370
     0
100
AcDbSpline
210
0.0
220
0.0
230
1.0
 70
    11
 71
     3
 72
    47
 73
    43
 74
     0
 42
0.0000000001
 43
0.0000000001
 12
1.0
 22
0.0
 32
0.0
 13
1.0
 23
0.0
 33
0.0
 40
0.0
 40
0.0
 40
0.0
 40
0.0
 40
1.0
 40
1.0
 40
1.0
 40
2.0
 40
2.0
 40
2.0
 40
3.0
 40
3.0
 40
3.0
 40
4.0
 40
4.0
 40
4.0
 40
5.0
 40
5.0
 40
5.0
 40
6.0
 40
6.0
 40
6.0
 40
7.0
 40
7.0
 40
7.0
 40
8.0
 40
8.0
 40
8.0
 40
9.0
 40
9.0
 40
9.0
 40
10.0
 40
10.0
 40
10.0
 40
11.0
 40
11.0
 40
11.0
 40
12.0
 40
12.0
 40
12.0
 40
13.0
 40
13.0
 40
13.0
 40
14.0
 40
14.0
 40
14.0
 40
14.0
 10
4.597000555712182
 20
-2.418580350690313
 30
0.0
 10
4.597000555712182
 20
-2.46317820397332
 30
0.0
 10
4.565858309956385
 20
-2.501238882348503
 30
0.0
 10
4.498961530031869
 20
-2.501238882348503
 30
0.0
 10
4.446292172026284
 20
-2.501238882348503
 30
0.0
 10
4.398625659113728
 20
-2.47317459519085
 30
0.0
 10
4.39093541210266
 20
-2.434342102424012
 30
0.0
 10
4.39093541210266
 20
-2.434342102424012
 30
0.0
 10
4.437839409592142
 20
-2.416274206483864
 30
0.0
 10
4.437839409592142
 20
-2.416274206483864
 30
0.0
 10
4.44283295571659
 20
-2.436648246630461
 30
0.0
 10
4.466284954461344
 20
-2.449341338734548
 30
0.0
 10
4.494349241618996
 20
-2.449341338734548
 30
0.0
 10
4.525491487374766
 20
-2.449341338734548
 30
0.0
 10
4.542406311211632
 20
-2.437038803310606
 30
0.0
 10
4.542406311211632
 20
-2.420505237185226
 30
0.0
 10
4.542406311211632
 20
-2.404362227740017
 30
0.0
 10
4.529341260364567
 20
-2.397434496152048
 30
0.0
 10
4.485505922504696
 20
-2.384369445304969
 30
0.0
 10
4.423611987673262
 20
-2.365910992684727
 30
0.0
 10
4.398235102433571
 20
-2.342458993940012
 30
0.0
 10
4.398235102433571
 20
-2.302863985750062
 30
0.0
 10
4.398235102433571
 20
-2.267490709292891
 30
0.0
 10
4.423993245384811
 20
-2.225208299184954
 30
0.0
 10
4.493196169515739
 20
-2.225208299184954
 30
0.0
 10
4.534334806489015
 20
-2.225208299184954
 30
0.0
 10
4.576245257854023
 20
-2.247116669146306
 30
0.0
 10
4.583926205896508
 20
-2.285558605233025
 30
0.0
 10
4.583926205896508
 20
-2.285558605233025
 30
0.0
 10
4.538565837190441
 20
-2.302473429069929
 30
0.0
 10
4.538565837190441
 20
-2.302473429069929
 30
0.0
 10
4.535106620880722
 20
-2.285558605233025
 30
0.0
 10
4.513188951950799
 20
-2.276334028407177
 30
0.0
 10
4.493586726195872
 20
-2.27595277069564
 30
0.0
 10
4.472050314977474
 20
-2.275562214015495
 30
0.0
 10
4.452448089222596
 20
-2.283252461026538
 30
0.0
 10
4.452448089222596
 20
-2.300939099255149
 30
0.0
 10
4.452448089222596
 20
-2.31362289239069
 30
0.0
 10
4.462444480440101
 20
-2.321703696081853
 30
0.0
 10
4.504736189516633
 20
-2.334768746928956
 30
0.0
 10
4.557786805233769
 20
-2.350921055342736
 30
0.0
 10
4.597000555712182
 20
-2.368607693571322
 30
0.0
 10
4.597000555712182
 20
-2.418580350690313
 30
0.0
  0
HATCH
  5
96
330
41
100
AcDbEntity
  8
Layer 1
 62
   158
420
   795456
100
AcDbHatch
 10
0.0
 20
0.0
 30
0.0
210
0.0
220
0.0
230
1.0
  2
SOLID
 70
     1
 71
     0
 91
        1
 92
        1
 93
        1
 72
     4
 94
        3
 73
     0
 74
     1
 95
       47
 96
       43
 40
0.0
 40
0.0
 40
0.0
 40
0.0
 40
1.0
 40
1.0
 40
1.0
 40
2.0
 40
2.0
 40
2.0
 40
3.0
 40
3.0
 40
3.0
 40
4.0
 40
4.0
 40
4.0
 40
5.0
 40
5.0
 40
5.0
 40
6.0
 40
6.0
 40
6.0
 40
7.0
 40
7.0
 40
7.0
 40
8.0
 40
8.0
 40
8.0
 40
9.0
 40
9.0
 40
9.0
 40
10.0
 40
10.0
 40
10.0
 40
11.0
 40
11.0
 40
11.0
 40
12.0
 40
12.0
 40
12.0
 40
13.0
 40
13.0
 40
13.0
 40
14.0
 40
14.0
 40
14.0
 40
14.0
 10
4.597000555712182
 20
-2.418580350690313
 10
4.597000555712182
 20
-2.46317820397332
 10
4.565858309956385
 20
-2.501238882348503
 10
4.498961530031869
 20
-2.501238882348503
 10
4.446292172026284
 20
-2.501238882348503
 10
4.398625659113728
 20
-2.47317459519085
 10
4.39093541210266
 20
-2.434342102424012
 10
4.39093541210266
 20
-2.434342102424012
 10
4.437839409592142
 20
-2.416274206483864
 10
4.437839409592142
 20
-2.416274206483864
 10
4.44283295571659
 20
-2.436648246630461
 10
4.466284954461344
 20
-2.449341338734548
 10
4.494349241618996
 20
-2.449341338734548
 10
4.525491487374766
 20
-2.449341338734548
 10
4.542406311211632
 20
-2.437038803310606
 10
4.542406311211632
 20
-2.420505237185226
 10
4.542406311211632
 20
-2.404362227740017
 10
4.529341260364567
 20
-2.397434496152048
 10
4.485505922504696
 20
-2.384369445304969
 10
4.423611987673262
 20
-2.365910992684727
 10
4.398235102433571
 20
-2.342458993940012
 10
4.398235102433571
 20
-2.302863985750062
 10
4.398235102433571
 20
-2.267490709292891
 10
4.423993245384811
 20
-2.225208299184954
 10
4.493196169515739
 20
-2.225208299184954
 10
4.534334806489015
 20
-2.225208299184954
 10
4.576245257854023
 20
-2.247116669146306
 10
4.583926205896508
 20
-2.285558605233025
 10
4.583926205896508
 20
-2.285558605233025
 10
4.538565837190441
 20
-2.302473429069929
 10
4.538565837190441
 20
-2.302473429069929
 10
4.535106620880722
 20
-2.285558605233025
 10
4.513188951950799
 20
-2.276334028407177
 10
4.493586726195872
 20
-2.27595277069564
 10
4.472050314977474
 20
-2.275562214015495
 10
4.452448089222596
 20
-2.283252461026538
 10
4.452448089222596
 20
-2.300939099255149
 10
4.452448089222596
 20
-2.31362289239069
 10
4.462444480440101
 20
-2.321703696081853
 10
4.504736189516633
 20
-2.334768746928956
 10
4.557786805233769
 20
-2.350921055342736
 10
4.597000555712182
 20
-2.368607693571322
 10
4.597000555712182
 20
-2.418580350690313
 97
        0
 97
        0
 75
     2
 76
     1
 98
        0
  0
ENDBLK
  5
44
330
41
100
AcDbEntity
  8
0
100
AcDbBlockEnd
  0
BLOCK
  5
99
330
97
100
AcDbEntity
  8
0
100
AcDbBlockBegin
  2
block 3
 70
     0
 10
0.0
 20
0.0
 30
0.0
  3
block 3
  1

  0
POLYLINE
  5
9B
330
97
100
AcDbEntity
  8
Layer 1
370
     0
100
AcDb2dPolyline
 66
     1
 10
0.0
 20
0.0
 30
0.0
  0
VERTEX
  5
9C
330
9B
100
AcDbEntity
  8
Layer 1
370
     0
100
AcDbVertex
100
AcDb2dVertex
 10
2.059057523326386
 20
-2.723153914432967
 30
0.0
  0
VERTEX
  5
9D
330
9B
100
AcDbEntity
  8
Layer 1
370
     0
100
AcDbVertex
100
AcDb2dVertex
 10
1.988685827759594
 20
-2.723153914432967
 30
0.0
  0
VERTEX
  5
9E
330
9B
100
AcDbEntity
  8
Layer 1
370
     0
100
AcDbVertex
100
AcDb2dVertex
 10
1.972650399054613
 20
-2.770068378144186
 30
0.0
  0
VERTEX
  5
9F
330
9B
100
AcDbEntity
  8
Layer 1
370
     0
100
AcDbVertex
100
AcDb2dVertex
 10
1.927810789800851
 20
-2.770068378144186
 30
0.0
  0
VERTEX
  5
A0
330
9B
100
AcDbEntity
  8
Layer 1
370
     0
100
AcDbVertex
100
AcDb2dVertex
 10
2.003827389661751
 20
-2.562214550930422
 30
0.0
  0
VERTEX
  5
A1
330
9B
100
AcDbEntity
  8
Layer 1
370
     0
100
AcDbVertex
100
AcDb2dVertex
 10
2.044213917025142
 20
-2.562214550930422
 30
0.0
  0
VERTEX
  5
A2
330
9B
100
AcDbEntity
  8
Layer 1
370
     0
100
AcDbVertex
100
AcDb2dVertex
 10
2.120230516886068
 20
-2.770068378144186
 30
0.0
  0
VERTEX
  5
A3
330
9B
100
AcDbEntity
  8
Layer 1
370
     0
100
AcDbVertex
100
AcDb2dVertex
 10
2.07539090763228
 20
-2.770068378144186
 30
0.0
  0
VERTEX
  5
A4
330
9B
100
AcDbEntity
  8
Layer 1
370
     0
100
AcDbVertex
100
AcDb2dVertex
 10
2.059057523326386
 20
-2.723153914432967
 30
0.0
  0
SEQEND
  5
A5
330
9B
100
AcDbEntity
  8
Layer 1
370
     0
  0
POLYLINE
  5
A6
330
97
100
AcDbEntity
  8
Layer 1
370
     0
100
AcDb2dPolyline
 66
     1
 10
0.0
 20
0.0
 30
0.0
  0
VERTEX
  5
A7
330
A6
100
AcDbEntity
  8
Layer 1
370
     0
100
AcDbVertex
100
AcDb2dVertex
 10
2.045996233256207
 20
-2.68543815272887
 30
0.0
  0
VERTEX
  5
A8
330
A6
100
AcDbEntity
  8
Layer 1
370
     0
100
AcDbVertex
100
AcDb2dVertex
 10
2.02401794465618
 20
-2.621599810884466
 30
0.0
  0
VERTEX
  5
A9
330
A6
100
AcDbEntity
  8
Layer 1
370
     0
100
AcDbVertex
100
AcDb2dVertex
 10
2.002045073430685
 20
-2.68543815272887
 30
0.0
  0
VERTEX
  5
AA
330
A6
100
AcDbEntity
  8
Layer 1
370
     0
100
AcDbVertex
100
AcDb2dVertex
 10
2.045996233256207
 20
-2.68543815272887
 30
0.0
  0
SEQEND
  5
AB
330
A6
100
AcDbEntity
  8
Layer 1
370
     0
  0
HATCH
  5
AC
330
97
100
AcDbEntity
  8
Layer 1
 62
    30
420
 15234850
100
AcDbHatch
 10
0.0
 20
0.0
 30
0.0
210
0.0
220
0.0
230
1.0
  2
SOLID
 70
     1
 71
     0
 91
        2
 92
        1
 93
        8
 72
     1
 10
2.059057523326386
 20
-2.723153914432967
 11
1.988685827759594
 21
-2.723153914432967
 72
     1
 10
1.988685827759594
 20
-2.723153914432967
 11
1.972650399054613
 21
-2.770068378144186
 72
     1
 10
1.972650399054613
 20
-2.770068378144186
 11
1.927810789800851
 21
-2.770068378144186
 72
     1
 10
1.927810789800851
 20
-2.770068378144186
 11
2.003827389661751
 21
-2.562214550930422
 72
     1
 10
2.003827389661751
 20
-2.562214550930422
 11
2.044213917025142
 21
-2.562214550930422
 72
     1
 10
2.044213917025142
 20
-2.562214550930422
 11
2.120230516886068
 21
-2.770068378144186
 72
     1
 10
2.120230516886068
 20
-2.770068378144186
 11
2.07539090763228
 21
-2.770068378144186
 72
     1
 10
2.07539090763228
 20
-2.770068378144186
 11
2.059057523326386
 21
-2.723153914432967
 97
        0
 92
        1
 93
        3
 72
     1
 10
2.045996233256207
 20
-2.68543815272887
 11
2.02401794465618
 21
-2.621599810884466
 72
     1
 10
2.02401794465618
 20
-2.621599810884466
 11
2.002045073430685
 21
-2.68543815272887
 72
     1
 10
2.002045073430685
 20
-2.68543815272887
 11
2.045996233256207
 21
-2.68543815272887
 97
        0
 75
     2
 76
     1
 98
        0
  0
POLYLINE
  5
AD
330
97
100
AcDbEntity
  8
Layer 1
370
     0
100
AcDb2dPolyline
 66
     1
 10
0.0
 20
0.0
 30
0.0
  0
VERTEX
  5
AE
330
AD
100
AcDbEntity
  8
Layer 1
370
     0
100
AcDbVertex
100
AcDb2dVertex
 10
2.319172762944542
 20
-2.562214550930422
 30
0.0
  0
VERTEX
  5
AF
330
AD
100
AcDbEntity
  8
Layer 1
370
     0
100
AcDbVertex
100
AcDb2dVertex
 10
2.319172762944542
 20
-2.770068378144186
 30
0.0
  0
VERTEX
  5
B0
330
AD
100
AcDbEntity
  8
Layer 1
370
     0
100
AcDbVertex
100
AcDb2dVertex
 10
2.280276013585851
 20
-2.770068378144186
 30
0.0
  0
VERTEX
  5
B1
330
AD
100
AcDbEntity
  8
Layer 1
370
     0
100
AcDbVertex
100
AcDb2dVertex
 10
2.196837610574296
 20
-2.635262429531066
 30
0.0
  0
VERTEX
  5
B2
330
AD
100
AcDbEntity
  8
Layer 1
370
     0
100
AcDbVertex
100
AcDb2dVertex
 10
2.196837610574296
 20
-2.770068378144186
 30
0.0
  0
VERTEX
  5
B3
330
AD
100
AcDbEntity
  8
Layer 1
370
     0
100
AcDbVertex
100
AcDb2dVertex
 10
2.157344950013718
 20
-2.770068378144186
 30
0.0
  0
VERTEX
  5
B4
330
AD
100
AcDbEntity
  8
Layer 1
370
     0
100
AcDbVertex
100
AcDb2dVertex
 10
2.157344950013718
 20
-2.562214550930422
 30
0.0
  0
VERTEX
  5
B5
330
AD
100
AcDbEntity
  8
Layer 1
370
     0
100
AcDbVertex
100
AcDb2dVertex
 10
2.195943743771497
 20
-2.562214550930422
 30
0.0
  0
VERTEX
  5
B6
330
AD
100
AcDbEntity
  8
Layer 1
370
     0
100
AcDbVertex
100
AcDb2dVertex
 10
2.279680102383963
 20
-2.697020499543492
 30
0.0
  0
VERTEX
  5
B7
330
AD
100
AcDbEntity
  8
Layer 1
370
     0
100
AcDbVertex
100
AcDb2dVertex
 10
2.279680102383963
 20
-2.562214550930422
 30
0.0
  0
VERTEX
  5
B8
330
AD
100
AcDbEntity
  8
Layer 1
370
     0
100
AcDbVertex
100
AcDb2dVertex
 10
2.319172762944542
 20
-2.562214550930422
 30
0.0
  0
SEQEND
  5
B9
330
AD
100
AcDbEntity
  8
Layer 1
370
     0
  0
HATCH
  5
BA
330
97
100
AcDbEntity
  8
Layer 1
 62
    30
420
 15234850
100
AcDbHatch
 10
0.0
 20
0.0
 30
0.0
210
0.0
220
0.0
230
1.0
  2
SOLID
 70
     1
 71
     0
 91
        1
 92
        1
 93
       10
 72
     1
 10
2.319172762944542
 20
-2.562214550930422
 11
2.319172762944542
 21
-2.770068378144186
 72
     1
 10
2.319172762944542
 20
-2.770068378144186
 11
2.280276013585851
 21
-2.770068378144186
 72
     1
 10
2.280276013585851
 20
-2.770068378144186
 11
2.196837610574296
 21
-2.635262429531066
 72
     1
 10
2.196837610574296
 20
-2.635262429531066
 11
2.196837610574296
 21
-2.770068378144186
 72
     1
 10
2.196837610574296
 20
-2.770068378144186
 11
2.157344950013718
 21
-2.770068378144186
 72
     1
 10
2.157344950013718
 20
-2.770068378144186
 11
2.157344950013718
 21
-2.562214550930422
 72
     1
 10
2.157344950013718
 20
-2.562214550930422
 11
2.195943743771497
 21
-2.562214550930422
 72
     1
 10
2.195943743771497
 20
-2.562214550930422
 11
2.279680102383963
 21
-2.697020499543492
 72
     1
 10
2.279680102383963
 20
-2.697020499543492
 11
2.279680102383963
 21
-2.562214550930422
 72
     1
 10
2.279680102383963
 20
-2.562214550930422
 11
2.319172762944542
 21
-2.562214550930422
 97
        0
 75
     2
 76
     1
 98
        0
  0
SPLINE
  5
BB
330
97
100
AcDbEntity
  8
Layer 1
370
     0
100
AcDbSpline
210
0.0
220
0.0
230
1.0
 70
    11
 71
     3
 72
    20
 73
    16
 74
     0
 42
0.0000000001
 43
0.0000000001
 12
1.0
 22
0.0
 32
0.0
 13
1.0
 23
0.0
 33
0.0
 40
0.0
 40
0.0
 40
0.0
 40
0.0
 40
1.0
 40
1.0
 40
1.0
 40
2.0
 40
2.0
 40
2.0
 40
3.0
 40
3.0
 40
3.0
 40
4.0
 40
4.0
 40
4.0
 40
5.0
 40
5.0
 40
5.0
 40
5.0
 10
2.545440246296266
 20
-2.666141464537279
 30
0.0
 10
2.545440246296266
 20
-2.727011085121477
 30
0.0
 10
2.505351674533775
 20
-2.770068378144186
 30
0.0
 10
2.436458922222553
 20
-2.770068378144186
 30
0.0
 10
2.436458922222553
 20
-2.770068378144186
 30
0.0
 10
2.369651859117829
 20
-2.770068378144186
 30
0.0
 10
2.369651859117829
 20
-2.770068378144186
 30
0.0
 10
2.369651859117829
 20
-2.770068378144186
 30
0.0
 10
2.369651859117829
 20
-2.562214550930422
 30
0.0
 10
2.369651859117829
 20
-2.562214550930422
 30
0.0
 10
2.369651859117829
 20
-2.562214550930422
 30
0.0
 10
2.436458922222553
 20
-2.562214550930422
 30
0.0
 10
2.436458922222553
 20
-2.562214550930422
 30
0.0
 10
2.505351674533775
 20
-2.562214550930422
 30
0.0
 10
2.545440246296266
 20
-2.605271843953131
 30
0.0
 10
2.545440246296266
 20
-2.666141464537279
 30
0.0
  0
SPLINE
  5
BC
330
97
100
AcDbEntity
  8
Layer 1
370
     0
100
AcDbSpline
210
0.0
220
0.0
230
1.0
 70
    11
 71
     3
 72
    20
 73
    16
 74
     0
 42
0.0000000001
 43
0.0000000001
 12
1.0
 22
0.0
 32
0.0
 13
1.0
 23
0.0
 33
0.0
 40
0.0
 40
0.0
 40
0.0
 40
0.0
 40
1.0
 40
1.0
 40
1.0
 40
2.0
 40
2.0
 40
2.0
 40
3.0
 40
3.0
 40
3.0
 40
4.0
 40
4.0
 40
4.0
 40
5.0
 40
5.0
 40
5.0
 40
5.0
 10
2.505947585735662
 20
-2.666141464537279
 30
0.0
 10
2.505947585735662
 20
-2.626648803976726
 30
0.0
 10
2.479223677018897
 20
-2.600222850860872
 30
0.0
 10
2.4355704727943
 20
-2.600222850860872
 30
0.0
 10
2.4355704727943
 20
-2.600222850860872
 30
0.0
 10
2.409144519678446
 20
-2.600222850860872
 30
0.0
 10
2.409144519678446
 20
-2.600222850860872
 30
0.0
 10
2.409144519678446
 20
-2.600222850860872
 30
0.0
 10
2.409144519678446
 20
-2.732352616440064
 30
0.0
 10
2.409144519678446
 20
-2.732352616440064
 30
0.0
 10
2.409144519678446
 20
-2.732352616440064
 30
0.0
 10
2.4355704727943
 20
-2.732352616440064
 30
0.0
 10
2.4355704727943
 20
-2.732352616440064
 30
0.0
 10
2.479223677018897
 20
-2.732352616440064
 30
0.0
 10
2.505947585735662
 20
-2.705926663324236
 30
0.0
 10
2.505947585735662
 20
-2.666141464537279
 30
0.0
  0
HATCH
  5
BD
330
97
100
AcDbEntity
  8
Layer 1
 62
    30
420
 15234850
100
AcDbHatch
 10
0.0
 20
0.0
 30
0.0
210
0.0
220
0.0
230
1.0
  2
SOLID
 70
     1
 71
     0
 91
        2
 92
        1
 93
        1
 72
     4
 94
        3
 73
     0
 74
     1
 95
       20
 96
       16
 40
0.0
 40
0.0
 40
0.0
 40
0.0
 40
1.0
 40
1.0
 40
1.0
 40
2.0
 40
2.0
 40
2.0
 40
3.0
 40
3.0
 40
3.0
 40
4.0
 40
4.0
 40
4.0
 40
5.0
 40
5.0
 40
5.0
 40
5.0
 10
2.545440246296266
 20
-2.666141464537279
 10
2.545440246296266
 20
-2.727011085121477
 10
2.505351674533775
 20
-2.770068378144186
 10
2.436458922222553
 20
-2.770068378144186
 10
2.436458922222553
 20
-2.770068378144186
 10
2.369651859117829
 20
-2.770068378144186
 10
2.369651859117829
 20
-2.770068378144186
 10
2.369651859117829
 20
-2.770068378144186
 10
2.369651859117829
 20
-2.562214550930422
 10
2.369651859117829
 20
-2.562214550930422
 10
2.369651859117829
 20
-2.562214550930422
 10
2.436458922222553
 20
-2.562214550930422
 10
2.436458922222553
 20
-2.562214550930422
 10
2.505351674533775
 20
-2.562214550930422
 10
2.545440246296266
 20
-2.605271843953131
 10
2.545440246296266
 20
-2.666141464537279
 97
        0
 97
        0
 92
        1
 93
        1
 72
     4
 94
        3
 73
     0
 74
     1
 95
       20
 96
       16
 40
0.0
 40
0.0
 40
0.0
 40
0.0
 40
1.0
 40
1.0
 40
1.0
 40
2.0
 40
2.0
 40
2.0
 40
3.0
 40
3.0
 40
3.0
 40
4.0
 40
4.0
 40
4.0
 40
5.0
 40
5.0
 40
5.0
 40
5.0
 10
2.505947585735662
 20
-2.666141464537279
 10
2.505947585735662
 20
-2.626648803976726
 10
2.479223677018897
 20
-2.600222850860872
 10
2.4355704727943
 20
-2.600222850860872
 10
2.4355704727943
 20
-2.600222850860872
 10
2.409144519678446
 20
-2.600222850860872
 10
2.409144519678446
 20
-2.600222850860872
 10
2.409144519678446
 20
-2.600222850860872
 10
2.409144519678446
 20
-2.732352616440064
 10
2.409144519678446
 20
-2.732352616440064
 10
2.409144519678446
 20
-2.732352616440064
 10
2.4355704727943
 20
-2.732352616440064
 10
2.4355704727943
 20
-2.732352616440064
 10
2.479223677018897
 20
-2.732352616440064
 10
2.505947585735662
 20
-2.705926663324236
 10
2.505947585735662
 20
-2.666141464537279
 97
        0
 97
        0
 75
     2
 76
     1
 98
        0
  0
SPLINE
  5
BE
330
97
100
AcDbEntity
  8
Layer 1
370
     0
100
AcDbSpline
210
0.0
220
0.0
230
1.0
 70
    11
 71
     3
 72
    47
 73
    43
 74
     0
 42
0.0000000001
 43
0.0000000001
 12
1.0
 22
0.0
 32
0.0
 13
1.0
 23
0.0
 33
0.0
 40
0.0
 40
0.0
 40
0.0
 40
0.0
 40
1.0
 40
1.0
 40
1.0
 40
2.0
 40
2.0
 40
2.0
 40
3.0
 40
3.0
 40
3.0
 40
4.0
 40
4.0
 40
4.0
 40
5.0
 40
5.0
 40
5.0
 40
6.0
 40
6.0
 40
6.0
 40
7.0
 40
7.0
 40
7.0
 40
8.0
 40
8.0
 40
8.0
 40
9.0
 40
9.0
 40
9.0
 40
10.0
 40
10.0
 40
10.0
 40
11.0
 40
11.0
 40
11.0
 40
12.0
 40
12.0
 40
12.0
 40
13.0
 40
13.0
 40
13.0
 40
14.0
 40
14.0
 40
14.0
 40
14.0
 10
2.832273977256641
 20
-2.709794668761863
 30
0.0
 10
2.832273977256641
 20
-2.744238336230208
 30
0.0
 10
2.808220834199169
 20
-2.773633010606293
 30
0.0
 10
2.756555332996666
 20
-2.773633010606293
 30
0.0
 10
2.715870850032338
 20
-2.773633010606293
 30
0.0
 10
2.67904895513104
 20
-2.751952677607151
 30
0.0
 10
2.673111512610553
 20
-2.721962092029192
 30
0.0
 10
2.673111512610553
 20
-2.721962092029192
 30
0.0
 10
2.709337496309925
 20
-2.708006935156239
 30
0.0
 10
2.709337496309925
 20
-2.708006935156239
 30
0.0
 10
2.713200084372981
 20
-2.723749825634867
 30
0.0
 10
2.73131578490999
 20
-2.733544438843865
 30
0.0
 10
2.752990700534534
 20
-2.733544438843865
 30
0.0
 10
2.777043843592006
 20
-2.733544438843865
 30
0.0
 10
2.79010513366221
 20
-2.72404236386122
 30
0.0
 10
2.79010513366221
 20
-2.711279029392017
 30
0.0
 10
2.79010513366221
 20
-2.698797398399999
 30
0.0
 10
2.780012564852288
 20
-2.693455867081411
 30
0.0
 10
2.746159391211197
 20
-2.683357880896892
 30
0.0
 10
2.698351060697203
 20
-2.669110185797535
 30
0.0
 10
2.678756416904637
 20
-2.650994485260551
 30
0.0
 10
2.678756416904637
 20
-2.620407988480717
 30
0.0
 10
2.678756416904637
 20
-2.593093585936635
 30
0.0
 10
2.698649016298153
 20
-2.560426817324747
 30
0.0
 10
2.75209683373171
 20
-2.560426817324747
 30
0.0
 10
2.783869735540773
 20
-2.560426817324747
 30
0.0
 10
2.81623854855161
 20
-2.577350695458007
 30
0.0
 10
2.822175991072122
 20
-2.607048742809613
 30
0.0
 10
2.822175991072122
 20
-2.607048742809613
 30
0.0
 10
2.787136412401928
 20
-2.620115450254363
 30
0.0
 10
2.787136412401928
 20
-2.620115450254363
 30
0.0
 10
2.784465646742647
 20
-2.607048742809613
 30
0.0
 10
2.767541768609362
 20
-2.599919477885376
 30
0.0
 10
2.752394789332634
 20
-2.599626939658972
 30
0.0
 10
2.735768866800299
 20
-2.599323566683501
 30
0.0
 10
2.720621887523647
 20
-2.605271843953131
 30
0.0
 10
2.720621887523647
 20
-2.618923627850589
 30
0.0
 10
2.720621887523647
 20
-2.628729075808678
 30
0.0
 10
2.728341646275112
 20
-2.63495905655557
 30
0.0
 10
2.761008414887025
 20
-2.645057042740063
 30
0.0
 10
2.801985436077732
 20
-2.657527838982939
 30
0.0
 10
2.832273977256641
 20
-2.671190457629513
 30
0.0
 10
2.832273977256641
 20
-2.709794668761863
 30
0.0
  0
HATCH
  5
BF
330
97
100
AcDbEntity
  8
Layer 1
 62
    30
420
 15234850
100
AcDbHatch
 10
0.0
 20
0.0
 30
0.0
210
0.0
220
0.0
230
1.0
  2
SOLID
 70
     1
 71
     0
 91
        1
 92
        1
 93
        1
 72
     4
 94
        3
 73
     0
 74
     1
 95
       47
 96
       43
 40
0.0
 40
0.0
 40
0.0
 40
0.0
 40
1.0
 40
1.0
 40
1.0
 40
2.0
 40
2.0
 40
2.0
 40
3.0
 40
3.0
 40
3.0
 40
4.0
 40
4.0
 40
4.0
 40
5.0
 40
5.0
 40
5.0
 40
6.0
 40
6.0
 40
6.0
 40
7.0
 40
7.0
 40
7.0
 40
8.0
 40
8.0
 40
8.0
 40
9.0
 40
9.0
 40
9.0
 40
10.0
 40
10.0
 40
10.0
 40
11.0
 40
11.0
 40
11.0
 40
12.0
 40
12.0
 40
12.0
 40
13.0
 40
13.0
 40
13.0
 40
14.0
 40
14.0
 40
14.0
 40
14.0
 10
2.832273977256641
 20
-2.709794668761863
 10
2.832273977256641
 20
-2.744238336230208
 10
2.808220834199169
 20
-2.773633010606293
 10
2.756555332996666
 20
-2.773633010606293
 10
2.715870850032338
 20
-2.773633010606293
 10
2.67904895513104
 20
-2.751952677607151
 10
2.673111512610553
 20
-2.721962092029192
 10
2.673111512610553
 20
-2.721962092029192
 10
2.709337496309925
 20
-2.708006935156239
 10
2.709337496309925
 20
-2.708006935156239
 10
2.713200084372981
 20
-2.723749825634867
 10
2.73131578490999
 20
-2.733544438843865
 10
2.752990700534534
 20
-2.733544438843865
 10
2.777043843592006
 20
-2.733544438843865
 10
2.79010513366221
 20
-2.72404236386122
 10
2.79010513366221
 20
-2.711279029392017
 10
2.79010513366221
 20
-2.698797398399999
 10
2.780012564852288
 20
-2.693455867081411
 10
2.746159391211197
 20
-2.683357880896892
 10
2.698351060697203
 20
-2.669110185797535
 10
2.678756416904637
 20
-2.650994485260551
 10
2.678756416904637
 20
-2.620407988480717
 10
2.678756416904637
 20
-2.593093585936635
 10
2.698649016298153
 20
-2.560426817324747
 10
2.75209683373171
 20
-2.560426817324747
 10
2.783869735540773
 20
-2.560426817324747
 10
2.81623854855161
 20
-2.577350695458007
 10
2.822175991072122
 20
-2.607048742809613
 10
2.822175991072122
 20
-2.607048742809613
 10
2.787136412401928
 20
-2.620115450254363
 10
2.787136412401928
 20
-2.620115450254363
 10
2.784465646742647
 20
-2.607048742809613
 10
2.767541768609362
 20
-2.599919477885376
 10
2.752394789332634
 20
-2.599626939658972
 10
2.735768866800299
 20
-2.599323566683501
 10
2.720621887523647
 20
-2.605271843953131
 10
2.720621887523647
 20
-2.618923627850589
 10
2.720621887523647
 20
-2.628729075808678
 10
2.728341646275112
 20
-2.63495905655557
 10
2.761008414887025
 20
-2.645057042740063
 10
2.801985436077732
 20
-2.657527838982939
 10
2.832273977256641
 20
-2.671190457629513
 10
2.832273977256641
 20
-2.709794668761863
 97
        0
 97
        0
 75
     2
 76
     1
 98
        0
  0
POLYLINE
  5
C0
330
97
100
AcDbEntity
  8
Layer 1
370
     0
100
AcDb2dPolyline
 66
     1
 10
0.0
 20
0.0
 30
0.0
  0
VERTEX
  5
C1
330
C0
100
AcDbEntity
  8
Layer 1
370
     0
100
AcDbVertex
100
AcDb2dVertex
 10
3.008647440887747
 20
-2.600222850860872
 30
0.0
  0
VERTEX
  5
C2
330
C0
100
AcDbEntity
  8
Layer 1
370
     0
100
AcDbVertex
100
AcDb2dVertex
 10
2.952821396021262
 20
-2.600222850860872
 30
0.0
  0
VERTEX
  5
C3
330
C0
100
AcDbEntity
  8
Layer 1
370
     0
100
AcDbVertex
100
AcDb2dVertex
 10
2.952821396021262
 20
-2.770068378144186
 30
0.0
  0
VERTEX
  5
C4
330
C0
100
AcDbEntity
  8
Layer 1
370
     0
100
AcDbVertex
100
AcDb2dVertex
 10
2.913328735460659
 20
-2.770068378144186
 30
0.0
  0
VERTEX
  5
C5
330
C0
100
AcDbEntity
  8
Layer 1
370
     0
100
AcDbVertex
100
AcDb2dVertex
 10
2.913328735460659
 20
-2.600222850860872
 30
0.0
  0
VERTEX
  5
C6
330
C0
100
AcDbEntity
  8
Layer 1
370
     0
100
AcDbVertex
100
AcDb2dVertex
 10
2.857502690594174
 20
-2.600222850860872
 30
0.0
  0
VERTEX
  5
C7
330
C0
100
AcDbEntity
  8
Layer 1
370
     0
100
AcDbVertex
100
AcDb2dVertex
 10
2.857502690594174
 20
-2.562214550930422
 30
0.0
  0
VERTEX
  5
C8
330
C0
100
AcDbEntity
  8
Layer 1
370
     0
100
AcDbVertex
100
AcDb2dVertex
 10
3.008647440887747
 20
-2.562214550930422
 30
0.0
  0
VERTEX
  5
C9
330
C0
100
AcDbEntity
  8
Layer 1
370
     0
100
AcDbVertex
100
AcDb2dVertex
 10
3.008647440887747
 20
-2.600222850860872
 30
0.0
  0
SEQEND
  5
CA
330
C0
100
AcDbEntity
  8
Layer 1
370
     0
  0
HATCH
  5
CB
330
97
100
AcDbEntity
  8
Layer 1
 62
    30
420
 15234850
100
AcDbHatch
 10
0.0
 20
0.0
 30
0.0
210
0.0
220
0.0
230
1.0
  2
SOLID
 70
     1
 71
     0
 91
        1
 92
        1
 93
        8
 72
     1
 10
3.008647440887747
 20
-2.600222850860872
 11
2.952821396021262
 21
-2.600222850860872
 72
     1
 10
2.952821396021262
 20
-2.600222850860872
 11
2.952821396021262
 21
-2.770068378144186
 72
     1
 10
2.952821396021262
 20
-2.770068378144186
 11
2.913328735460659
 21
-2.770068378144186
 72
     1
 10
2.913328735460659
 20
-2.770068378144186
 11
2.913328735460659
 21
-2.600222850860872
 72
     1
 10
2.913328735460659
 20
-2.600222850860872
 11
2.857502690594174
 21
-2.600222850860872
 72
     1
 10
2.857502690594174
 20
-2.600222850860872
 11
2.857502690594174
 21
-2.562214550930422
 72
     1
 10
2.857502690594174
 20
-2.562214550930422
 11
3.008647440887747
 21
-2.562214550930422
 72
     1
 10
3.008647440887747
 20
-2.562214550930422
 11
3.008647440887747
 21
-2.600222850860872
 97
        0
 75
     2
 76
     1
 98
        0
  0
SPLINE
  5
CC
330
97
100
AcDbEntity
  8
Layer 1
370
     0
100
AcDbSpline
210
0.0
220
0.0
230
1.0
 70
    11
 71
     3
 72
    35
 73
    31
 74
     0
 42
0.0000000001
 43
0.0000000001
 12
1.0
 22
0.0
 32
0.0
 13
1.0
 23
0.0
 33
0.0
 40
0.0
 40
0.0
 40
0.0
 40
0.0
 40
1.0
 40
1.0
 40
1.0
 40
2.0
 40
2.0
 40
2.0
 40
3.0
 40
3.0
 40
3.0
 40
4.0
 40
4.0
 40
4.0
 40
5.0
 40
5.0
 40
5.0
 40
6.0
 40
6.0
 40
6.0
 40
7.0
 40
7.0
 40
7.0
 40
8.0
 40
8.0
 40
8.0
 40
9.0
 40
9.0
 40
9.0
 40
10.0
 40
10.0
 40
10.0
 40
10.0
 10
3.119990740270724
 20
-2.698797398399999
 30
0.0
 10
3.119990740270724
 20
-2.698797398399999
 30
0.0
 10
3.091191977096438
 20
-2.698797398399999
 30
0.0
 10
3.091191977096438
 20
-2.698797398399999
 30
0.0
 10
3.091191977096438
 20
-2.698797398399999
 30
0.0
 10
3.091191977096438
 20
-2.770068378144186
 30
0.0
 10
3.091191977096438
 20
-2.770068378144186
 30
0.0
 10
3.091191977096438
 20
-2.770068378144186
 30
0.0
 10
3.05169931653586
 20
-2.770068378144186
 30
0.0
 10
3.05169931653586
 20
-2.770068378144186
 30
0.0
 10
3.05169931653586
 20
-2.770068378144186
 30
0.0
 10
3.05169931653586
 20
-2.562214550930422
 30
0.0
 10
3.05169931653586
 20
-2.562214550930422
 30
0.0
 10
3.05169931653586
 20
-2.562214550930422
 30
0.0
 10
3.128604365825115
 20
-2.562214550930422
 30
0.0
 10
3.128604365825115
 20
-2.562214550930422
 30
0.0
 10
3.174922918334409
 20
-2.562214550930422
 30
0.0
 10
3.200763794997505
 20
-2.592497674734735
 30
0.0
 10
3.200763794997505
 20
-2.630505974665185
 30
0.0
 10
3.200763794997505
 20
-2.658416288411167
 30
0.0
 10
3.187101176350855
 20
-2.68217689324226
 30
0.0
 10
3.161271134436876
 20
-2.692859955879511
 30
0.0
 10
3.161271134436876
 20
-2.692859955879511
 30
0.0
 10
3.205812788089714
 20
-2.770068378144186
 30
0.0
 10
3.205812788089714
 20
-2.770068378144186
 30
0.0
 10
3.205812788089714
 20
-2.770068378144186
 30
0.0
 10
3.161271134436876
 20
-2.770068378144186
 30
0.0
 10
3.161271134436876
 20
-2.770068378144186
 30
0.0
 10
3.161271134436876
 20
-2.770068378144186
 30
0.0
 10
3.119990740270724
 20
-2.698797398399999
 30
0.0
 10
3.119990740270724
 20
-2.698797398399999
 30
0.0
  0
SPLINE
  5
CD
330
97
100
AcDbEntity
  8
Layer 1
370
     0
100
AcDbSpline
210
0.0
220
0.0
230
1.0
 70
    11
 71
     3
 72
    20
 73
    16
 74
     0
 42
0.0000000001
 43
0.0000000001
 12
1.0
 22
0.0
 32
0.0
 13
1.0
 23
0.0
 33
0.0
 40
0.0
 40
0.0
 40
0.0
 40
0.0
 40
1.0
 40
1.0
 40
1.0
 40
2.0
 40
2.0
 40
2.0
 40
3.0
 40
3.0
 40
3.0
 40
4.0
 40
4.0
 40
4.0
 40
5.0
 40
5.0
 40
5.0
 40
5.0
 10
3.091191977096438
 20
-2.661092471445045
 30
0.0
 10
3.091191977096438
 20
-2.661092471445045
 30
0.0
 10
3.127715916396861
 20
-2.661092471445045
 30
0.0
 10
3.127715916396861
 20
-2.661092471445045
 30
0.0
 10
3.147315977563898
 20
-2.661092471445045
 30
0.0
 10
3.159786773806748
 20
-2.648318302226699
 30
0.0
 10
3.159786773806748
 20
-2.630505974665185
 30
0.0
 10
3.159786773806748
 20
-2.612693647103747
 30
0.0
 10
3.147315977563898
 20
-2.600222850860872
 30
0.0
 10
3.127715916396861
 20
-2.600222850860872
 30
0.0
 10
3.127715916396861
 20
-2.600222850860872
 30
0.0
 10
3.091191977096438
 20
-2.600222850860872
 30
0.0
 10
3.091191977096438
 20
-2.600222850860872
 30
0.0
 10
3.091191977096438
 20
-2.600222850860872
 30
0.0
 10
3.091191977096438
 20
-2.661092471445045
 30
0.0
 10
3.091191977096438
 20
-2.661092471445045
 30
0.0
  0
HATCH
  5
CE
330
97
100
AcDbEntity
  8
Layer 1
 62
    30
420
 15234850
100
AcDbHatch
 10
0.0
 20
0.0
 30
0.0
210
0.0
220
0.0
230
1.0
  2
SOLID
 70
     1
 71
     0
 91
        2
 92
        1
 93
        1
 72
     4
 94
        3
 73
     0
 74
     1
 95
       35
 96
       31
 40
0.0
 40
0.0
 40
0.0
 40
0.0
 40
1.0
 40
1.0
 40
1.0
 40
2.0
 40
2.0
 40
2.0
 40
3.0
 40
3.0
 40
3.0
 40
4.0
 40
4.0
 40
4.0
 40
5.0
 40
5.0
 40
5.0
 40
6.0
 40
6.0
 40
6.0
 40
7.0
 40
7.0
 40
7.0
 40
8.0
 40
8.0
 40
8.0
 40
9.0
 40
9.0
 40
9.0
 40
10.0
 40
10.0
 40
10.0
 40
10.0
 10
3.119990740270724
 20
-2.698797398399999
 10
3.119990740270724
 20
-2.698797398399999
 10
3.091191977096438
 20
-2.698797398399999
 10
3.091191977096438
 20
-2.698797398399999
 10
3.091191977096438
 20
-2.698797398399999
 10
3.091191977096438
 20
-2.770068378144186
 10
3.091191977096438
 20
-2.770068378144186
 10
3.091191977096438
 20
-2.770068378144186
 10
3.05169931653586
 20
-2.770068378144186
 10
3.05169931653586
 20
-2.770068378144186
 10
3.05169931653586
 20
-2.770068378144186
 10
3.05169931653586
 20
-2.562214550930422
 10
3.05169931653586
 20
-2.562214550930422
 10
3.05169931653586
 20
-2.562214550930422
 10
3.128604365825115
 20
-2.562214550930422
 10
3.128604365825115
 20
-2.562214550930422
 10
3.174922918334409
 20
-2.562214550930422
 10
3.200763794997505
 20
-2.592497674734735
 10
3.200763794997505
 20
-2.630505974665185
 10
3.200763794997505
 20
-2.658416288411167
 10
3.187101176350855
 20
-2.68217689324226
 10
3.161271134436876
 20
-2.692859955879511
 10
3.161271134436876
 20
-2.692859955879511
 10
3.205812788089714
 20
-2.770068378144186
 10
3.205812788089714
 20
-2.770068378144186
 10
3.205812788089714
 20
-2.770068378144186
 10
3.161271134436876
 20
-2.770068378144186
 10
3.161271134436876
 20
-2.770068378144186
 10
3.161271134436876
 20
-2.770068378144186
 10
3.119990740270724
 20
-2.698797398399999
 10
3.119990740270724
 20
-2.698797398399999
 97
        0
 97
        0
 92
        1
 93
        1
 72
     4
 94
        3
 73
     0
 74
     1
 95
       20
 96
       16
 40
0.0
 40
0.0
 40
0.0
 40
0.0
 40
1.0
 40
1.0
 40
1.0
 40
2.0
 40
2.0
 40
2.0
 40
3.0
 40
3.0
 40
3.0
 40
4.0
 40
4.0
 40
4.0
 40
5.0
 40
5.0
 40
5.0
 40
5.0
 10
3.091191977096438
 20
-2.661092471445045
 10
3.091191977096438
 20
-2.661092471445045
 10
3.127715916396861
 20
-2.661092471445045
 10
3.127715916396861
 20
-2.661092471445045
 10
3.147315977563898
 20
-2.661092471445045
 10
3.159786773806748
 20
-2.648318302226699
 10
3.159786773806748
 20
-2.630505974665185
 10
3.159786773806748
 20
-2.612693647103747
 10
3.147315977563898
 20
-2.600222850860872
 10
3.127715916396861
 20
-2.600222850860872
 10
3.127715916396861
 20
-2.600222850860872
 10
3.091191977096438
 20
-2.600222850860872
 10
3.091191977096438
 20
-2.600222850860872
 10
3.091191977096438
 20
-2.600222850860872
 10
3.091191977096438
 20
-2.661092471445045
 10
3.091191977096438
 20
-2.661092471445045
 97
        0
 97
        0
 75
     2
 76
     1
 98
        0
  0
SPLINE
  5
CF
330
97
100
AcDbEntity
  8
Layer 1
370
     0
100
AcDbSpline
210
0.0
220
0.0
230
1.0
 70
    11
 71
     3
 72
    35
 73
    31
 74
     0
 42
0.0000000001
 43
0.0000000001
 12
1.0
 22
0.0
 32
0.0
 13
1.0
 23
0.0
 33
0.0
 40
0.0
 40
0.0
 40
0.0
 40
0.0
 40
1.0
 40
1.0
 40
1.0
 40
2.0
 40
2.0
 40
2.0
 40
3.0
 40
3.0
 40
3.0
 40
4.0
 40
4.0
 40
4.0
 40
5.0
 40
5.0
 40
5.0
 40
6.0
 40
6.0
 40
6.0
 40
7.0
 40
7.0
 40
7.0
 40
8.0
 40
8.0
 40
8.0
 40
9.0
 40
9.0
 40
9.0
 40
10.0
 40
10.0
 40
10.0
 40
10.0
 10
3.402084268488958
 20
-2.562214550930422
 30
0.0
 10
3.402084268488958
 20
-2.562214550930422
 30
0.0
 10
3.402084268488958
 20
-2.688406873989126
 30
0.0
 10
3.402084268488958
 20
-2.688406873989126
 30
0.0
 10
3.402084268488958
 20
-2.740370330792555
 30
0.0
 10
3.37060932228082
 20
-2.772441188202593
 30
0.0
 10
3.322503036165901
 20
-2.772441188202593
 30
0.0
 10
3.274104211824553
 20
-2.772441188202593
 30
0.0
 10
3.242921803842819
 20
-2.740370330792555
 30
0.0
 10
3.242921803842819
 20
-2.688406873989126
 30
0.0
 10
3.242921803842819
 20
-2.688406873989126
 30
0.0
 10
3.242921803842819
 20
-2.562214550930422
 30
0.0
 10
3.242921803842819
 20
-2.562214550930422
 30
0.0
 10
3.242921803842819
 20
-2.562214550930422
 30
0.0
 10
3.282414464403347
 20
-2.562214550930422
 30
0.0
 10
3.282414464403347
 20
-2.562214550930422
 30
0.0
 10
3.282414464403347
 20
-2.562214550930422
 30
0.0
 10
3.282414464403347
 20
-2.687518424560898
 30
0.0
 10
3.282414464403347
 20
-2.687518424560898
 30
0.0
 10
3.282414464403347
 20
-2.715428738306855
 30
0.0
 10
3.297561443680125
 20
-2.732655989415611
 30
0.0
 10
3.322503036165901
 20
-2.732655989415611
 30
0.0
 10
3.347152090425197
 20
-2.732655989415611
 30
0.0
 10
3.362591607928354
 20
-2.715428738306855
 30
0.0
 10
3.362591607928354
 20
-2.687518424560898
 30
0.0
 10
3.362591607928354
 20
-2.687518424560898
 30
0.0
 10
3.362591607928354
 20
-2.562214550930422
 30
0.0
 10
3.362591607928354
 20
-2.562214550930422
 30
0.0
 10
3.362591607928354
 20
-2.562214550930422
 30
0.0
 10
3.402084268488958
 20
-2.562214550930422
 30
0.0
 10
3.402084268488958
 20
-2.562214550930422
 30
0.0
  0
HATCH
  5
D0
330
97
100
AcDbEntity
  8
Layer 1
 62
    30
420
 15234850
100
AcDbHatch
 10
0.0
 20
0.0
 30
0.0
210
0.0
220
0.0
230
1.0
  2
SOLID
 70
     1
 71
     0
 91
        1
 92
        1
 93
        1
 72
     4
 94
        3
 73
     0
 74
     1
 95
       35
 96
       31
 40
0.0
 40
0.0
 40
0.0
 40
0.0
 40
1.0
 40
1.0
 40
1.0
 40
2.0
 40
2.0
 40
2.0
 40
3.0
 40
3.0
 40
3.0
 40
4.0
 40
4.0
 40
4.0
 40
5.0
 40
5.0
 40
5.0
 40
6.0
 40
6.0
 40
6.0
 40
7.0
 40
7.0
 40
7.0
 40
8.0
 40
8.0
 40
8.0
 40
9.0
 40
9.0
 40
9.0
 40
10.0
 40
10.0
 40
10.0
 40
10.0
 10
3.402084268488958
 20
-2.562214550930422
 10
3.402084268488958
 20
-2.562214550930422
 10
3.402084268488958
 20
-2.688406873989126
 10
3.402084268488958
 20
-2.688406873989126
 10
3.402084268488958
 20
-2.740370330792555
 10
3.37060932228082
 20
-2.772441188202593
 10
3.322503036165901
 20
-2.772441188202593
 10
3.274104211824553
 20
-2.772441188202593
 10
3.242921803842819
 20
-2.740370330792555
 10
3.242921803842819
 20
-2.688406873989126
 10
3.242921803842819
 20
-2.688406873989126
 10
3.242921803842819
 20
-2.562214550930422
 10
3.242921803842819
 20
-2.562214550930422
 10
3.242921803842819
 20
-2.562214550930422
 10
3.282414464403347
 20
-2.562214550930422
 10
3.282414464403347
 20
-2.562214550930422
 10
3.282414464403347
 20
-2.562214550930422
 10
3.282414464403347
 20
-2.687518424560898
 10
3.282414464403347
 20
-2.687518424560898
 10
3.282414464403347
 20
-2.715428738306855
 10
3.297561443680125
 20
-2.732655989415611
 10
3.322503036165901
 20
-2.732655989415611
 10
3.347152090425197
 20
-2.732655989415611
 10
3.362591607928354
 20
-2.715428738306855
 10
3.362591607928354
 20
-2.687518424560898
 10
3.362591607928354
 20
-2.687518424560898
 10
3.362591607928354
 20
-2.562214550930422
 10
3.362591607928354
 20
-2.562214550930422
 10
3.362591607928354
 20
-2.562214550930422
 10
3.402084268488958
 20
-2.562214550930422
 10
3.402084268488958
 20
-2.562214550930422
 97
        0
 97
        0
 75
     2
 76
     1
 98
        0
  0
SPLINE
  5
D1
330
97
100
AcDbEntity
  8
Layer 1
370
     0
100
AcDbSpline
210
0.0
220
0.0
230
1.0
 70
    11
 71
     3
 72
    35
 73
    31
 74
     0
 42
0.0000000001
 43
0.0000000001
 12
1.0
 22
0.0
 32
0.0
 13
1.0
 23
0.0
 33
0.0
 40
0.0
 40
0.0
 40
0.0
 40
0.0
 40
1.0
 40
1.0
 40
1.0
 40
2.0
 40
2.0
 40
2.0
 40
3.0
 40
3.0
 40
3.0
 40
4.0
 40
4.0
 40
4.0
 40
5.0
 40
5.0
 40
5.0
 40
6.0
 40
6.0
 40
6.0
 40
7.0
 40
7.0
 40
7.0
 40
8.0
 40
8.0
 40
8.0
 40
9.0
 40
9.0
 40
9.0
 40
10.0
 40
10.0
 40
10.0
 40
10.0
 10
3.59479111642597
 20
-2.705926663324236
 30
0.0
 10
3.59479111642597
 20
-2.705926663324236
 30
0.0
 10
3.630426606297988
 20
-2.723749825634867
 30
0.0
 10
3.630426606297988
 20
-2.723749825634867
 30
0.0
 10
3.613502728164778
 20
-2.753144500010952
 30
0.0
 10
3.582612858409473
 20
-2.772441188202593
 30
0.0
 10
3.544312020252644
 20
-2.772441188202593
 30
0.0
 10
3.484623387323053
 20
-2.772441188202593
 30
0.0
 10
3.443646366132295
 20
-2.726122635693198
 30
0.0
 10
3.443646366132295
 20
-2.666434002763657
 30
0.0
 10
3.443646366132295
 20
-2.606756204583235
 30
0.0
 10
3.484623387323053
 20
-2.560426817324747
 30
0.0
 10
3.544312020252644
 20
-2.560426817324747
 30
0.0
 10
3.582612858409473
 20
-2.560426817324747
 30
0.0
 10
3.613502728164778
 20
-2.57943096729001
 30
0.0
 10
3.630426606297988
 20
-2.609129014641591
 30
0.0
 10
3.630426606297988
 20
-2.609129014641591
 30
0.0
 10
3.59479111642597
 20
-2.626941342203079
 30
0.0
 10
3.59479111642597
 20
-2.626941342203079
 30
0.0
 10
3.584400592015148
 20
-2.610310002296223
 30
0.0
 10
3.567173340906341
 20
-2.599919477885376
 30
0.0
 10
3.544312020252644
 20
-2.599919477885376
 30
0.0
 10
3.506596258548547
 20
-2.599919477885376
 30
0.0
 10
3.484027476121203
 20
-2.628425702833207
 30
0.0
 10
3.484027476121203
 20
-2.666434002763657
 30
0.0
 10
3.484027476121203
 20
-2.704149764467729
 30
0.0
 10
3.506596258548547
 20
-2.732655989415611
 30
0.0
 10
3.544312020252644
 20
-2.732655989415611
 30
0.0
 10
3.567173340906341
 20
-2.732655989415611
 30
0.0
 10
3.584400592015148
 20
-2.722558003231117
 30
0.0
 10
3.59479111642597
 20
-2.705926663324236
 30
0.0
  0
HATCH
  5
D2
330
97
100
AcDbEntity
  8
Layer 1
 62
    30
420
 15234850
100
AcDbHatch
 10
0.0
 20
0.0
 30
0.0
210
0.0
220
0.0
230
1.0
  2
SOLID
 70
     1
 71
     0
 91
        1
 92
        1
 93
        1
 72
     4
 94
        3
 73
     0
 74
     1
 95
       35
 96
       31
 40
0.0
 40
0.0
 40
0.0
 40
0.0
 40
1.0
 40
1.0
 40
1.0
 40
2.0
 40
2.0
 40
2.0
 40
3.0
 40
3.0
 40
3.0
 40
4.0
 40
4.0
 40
4.0
 40
5.0
 40
5.0
 40
5.0
 40
6.0
 40
6.0
 40
6.0
 40
7.0
 40
7.0
 40
7.0
 40
8.0
 40
8.0
 40
8.0
 40
9.0
 40
9.0
 40
9.0
 40
10.0
 40
10.0
 40
10.0
 40
10.0
 10
3.59479111642597
 20
-2.705926663324236
 10
3.59479111642597
 20
-2.705926663324236
 10
3.630426606297988
 20
-2.723749825634867
 10
3.630426606297988
 20
-2.723749825634867
 10
3.613502728164778
 20
-2.753144500010952
 10
3.582612858409473
 20
-2.772441188202593
 10
3.544312020252644
 20
-2.772441188202593
 10
3.484623387323053
 20
-2.772441188202593
 10
3.443646366132295
 20
-2.726122635693198
 10
3.443646366132295
 20
-2.666434002763657
 10
3.443646366132295
 20
-2.606756204583235
 10
3.484623387323053
 20
-2.560426817324747
 10
3.544312020252644
 20
-2.560426817324747
 10
3.582612858409473
 20
-2.560426817324747
 10
3.613502728164778
 20
-2.57943096729001
 10
3.630426606297988
 20
-2.609129014641591
 10
3.630426606297988
 20
-2.609129014641591
 10
3.59479111642597
 20
-2.626941342203079
 10
3.59479111642597
 20
-2.626941342203079
 10
3.584400592015148
 20
-2.610310002296223
 10
3.567173340906341
 20
-2.599919477885376
 10
3.544312020252644
 20
-2.599919477885376
 10
3.506596258548547
 20
-2.599919477885376
 10
3.484027476121203
 20
-2.628425702833207
 10
3.484027476121203
 20
-2.666434002763657
 10
3.484027476121203
 20
-2.704149764467729
 10
3.506596258548547
 20
-2.732655989415611
 10
3.544312020252644
 20
-2.732655989415611
 10
3.567173340906341
 20
-2.732655989415611
 10
3.584400592015148
 20
-2.722558003231117
 10
3.59479111642597
 20
-2.705926663324236
 97
        0
 97
        0
 75
     2
 76
     1
 98
        0
  0
POLYLINE
  5
D3
330
97
100
AcDbEntity
  8
Layer 1
370
     0
100
AcDb2dPolyline
 66
     1
 10
0.0
 20
0.0
 30
0.0
  0
VERTEX
  5
D4
330
D3
100
AcDbEntity
  8
Layer 1
370
     0
100
AcDbVertex
100
AcDb2dVertex
 10
3.817185176965419
 20
-2.600222850860872
 30
0.0
  0
VERTEX
  5
D5
330
D3
100
AcDbEntity
  8
Layer 1
370
     0
100
AcDbVertex
100
AcDb2dVertex
 10
3.761364549473556
 20
-2.600222850860872
 30
0.0
  0
VERTEX
  5
D6
330
D3
100
AcDbEntity
  8
Layer 1
370
     0
100
AcDbVertex
100
AcDb2dVertex
 10
3.761364549473556
 20
-2.770068378144186
 30
0.0
  0
VERTEX
  5
D7
330
D3
100
AcDbEntity
  8
Layer 1
370
     0
100
AcDbVertex
100
AcDb2dVertex
 10
3.721871888912927
 20
-2.770068378144186
 30
0.0
  0
VERTEX
  5
D8
330
D3
100
AcDbEntity
  8
Layer 1
370
     0
100
AcDbVertex
100
AcDb2dVertex
 10
3.721871888912927
 20
-2.600222850860872
 30
0.0
  0
VERTEX
  5
D9
330
D3
100
AcDbEntity
  8
Layer 1
370
     0
100
AcDbVertex
100
AcDb2dVertex
 10
3.666040426671871
 20
-2.600222850860872
 30
0.0
  0
VERTEX
  5
DA
330
D3
100
AcDbEntity
  8
Layer 1
370
     0
100
AcDbVertex
100
AcDb2dVertex
 10
3.666040426671871
 20
-2.562214550930422
 30
0.0
  0
VERTEX
  5
DB
330
D3
100
AcDbEntity
  8
Layer 1
370
     0
100
AcDbVertex
100
AcDb2dVertex
 10
3.817185176965419
 20
-2.562214550930422
 30
0.0
  0
VERTEX
  5
DC
330
D3
100
AcDbEntity
  8
Layer 1
370
     0
100
AcDbVertex
100
AcDb2dVertex
 10
3.817185176965419
 20
-2.600222850860872
 30
0.0
  0
SEQEND
  5
DD
330
D3
100
AcDbEntity
  8
Layer 1
370
     0
  0
HATCH
  5
DE
330
97
100
AcDbEntity
  8
Layer 1
 62
    30
420
 15234850
100
AcDbHatch
 10
0.0
 20
0.0
 30
0.0
210
0.0
220
0.0
230
1.0
  2
SOLID
 70
     1
 71
     0
 91
        1
 92
        1
 93
        8
 72
     1
 10
3.817185176965419
 20
-2.600222850860872
 11
3.761364549473556
 21
-2.600222850860872
 72
     1
 10
3.761364549473556
 20
-2.600222850860872
 11
3.761364549473556
 21
-2.770068378144186
 72
     1
 10
3.761364549473556
 20
-2.770068378144186
 11
3.721871888912927
 21
-2.770068378144186
 72
     1
 10
3.721871888912927
 20
-2.770068378144186
 11
3.721871888912927
 21
-2.600222850860872
 72
     1
 10
3.721871888912927
 20
-2.600222850860872
 11
3.666040426671871
 21
-2.600222850860872
 72
     1
 10
3.666040426671871
 20
-2.600222850860872
 11
3.666040426671871
 21
-2.562214550930422
 72
     1
 10
3.666040426671871
 20
-2.562214550930422
 11
3.817185176965419
 21
-2.562214550930422
 72
     1
 10
3.817185176965419
 20
-2.562214550930422
 11
3.817185176965419
 21
-2.600222850860872
 97
        0
 75
     2
 76
     1
 98
        0
  0
SPLINE
  5
DF
330
97
100
AcDbEntity
  8
Layer 1
370
     0
100
AcDbSpline
210
0.0
220
0.0
230
1.0
 70
    11
 71
     3
 72
    35
 73
    31
 74
     0
 42
0.0000000001
 43
0.0000000001
 12
1.0
 22
0.0
 32
0.0
 13
1.0
 23
0.0
 33
0.0
 40
0.0
 40
0.0
 40
0.0
 40
0.0
 40
1.0
 40
1.0
 40
1.0
 40
2.0
 40
2.0
 40
2.0
 40
3.0
 40
3.0
 40
3.0
 40
4.0
 40
4.0
 40
4.0
 40
5.0
 40
5.0
 40
5.0
 40
6.0
 40
6.0
 40
6.0
 40
7.0
 40
7.0
 40
7.0
 40
8.0
 40
8.0
 40
8.0
 40
9.0
 40
9.0
 40
9.0
 40
10.0
 40
10.0
 40
10.0
 40
10.0
 10
4.017909739254997
 20
-2.562214550930422
 30
0.0
 10
4.017909739254997
 20
-2.562214550930422
 30
0.0
 10
4.017909739254997
 20
-2.688406873989126
 30
0.0
 10
4.017909739254997
 20
-2.688406873989126
 30
0.0
 10
4.017909739254997
 20
-2.740370330792555
 30
0.0
 10
3.986434793046934
 20
-2.772441188202593
 30
0.0
 10
3.93832850693199
 20
-2.772441188202593
 30
0.0
 10
3.889929682590668
 20
-2.772441188202593
 30
0.0
 10
3.858747274608934
 20
-2.740370330792555
 30
0.0
 10
3.858747274608934
 20
-2.688406873989126
 30
0.0
 10
3.858747274608934
 20
-2.688406873989126
 30
0.0
 10
3.858747274608934
 20
-2.562214550930422
 30
0.0
 10
3.858747274608934
 20
-2.562214550930422
 30
0.0
 10
3.858747274608934
 20
-2.562214550930422
 30
0.0
 10
3.898239935169562
 20
-2.562214550930422
 30
0.0
 10
3.898239935169562
 20
-2.562214550930422
 30
0.0
 10
3.898239935169562
 20
-2.562214550930422
 30
0.0
 10
3.898239935169562
 20
-2.687518424560898
 30
0.0
 10
3.898239935169562
 20
-2.687518424560898
 30
0.0
 10
3.898239935169562
 20
-2.715428738306855
 30
0.0
 10
3.91338691444624
 20
-2.732655989415611
 30
0.0
 10
3.93832850693199
 20
-2.732655989415611
 30
0.0
 10
3.962977561191287
 20
-2.732655989415611
 30
0.0
 10
3.978417078694444
 20
-2.715428738306855
 30
0.0
 10
3.978417078694444
 20
-2.687518424560898
 30
0.0
 10
3.978417078694444
 20
-2.687518424560898
 30
0.0
 10
3.978417078694444
 20
-2.562214550930422
 30
0.0
 10
3.978417078694444
 20
-2.562214550930422
 30
0.0
 10
3.978417078694444
 20
-2.562214550930422
 30
0.0
 10
4.017909739254997
 20
-2.562214550930422
 30
0.0
 10
4.017909739254997
 20
-2.562214550930422
 30
0.0
  0
HATCH
  5
E0
330
97
100
AcDbEntity
  8
Layer 1
 62
    30
420
 15234850
100
AcDbHatch
 10
0.0
 20
0.0
 30
0.0
210
0.0
220
0.0
230
1.0
  2
SOLID
 70
     1
 71
     0
 91
        1
 92
        1
 93
        1
 72
     4
 94
        3
 73
     0
 74
     1
 95
       35
 96
       31
 40
0.0
 40
0.0
 40
0.0
 40
0.0
 40
1.0
 40
1.0
 40
1.0
 40
2.0
 40
2.0
 40
2.0
 40
3.0
 40
3.0
 40
3.0
 40
4.0
 40
4.0
 40
4.0
 40
5.0
 40
5.0
 40
5.0
 40
6.0
 40
6.0
 40
6.0
 40
7.0
 40
7.0
 40
7.0
 40
8.0
 40
8.0
 40
8.0
 40
9.0
 40
9.0
 40
9.0
 40
10.0
 40
10.0
 40
10.0
 40
10.0
 10
4.017909739254997
 20
-2.562214550930422
 10
4.017909739254997
 20
-2.562214550930422
 10
4.017909739254997
 20
-2.688406873989126
 10
4.017909739254997
 20
-2.688406873989126
 10
4.017909739254997
 20
-2.740370330792555
 10
3.986434793046934
 20
-2.772441188202593
 10
3.93832850693199
 20
-2.772441188202593
 10
3.889929682590668
 20
-2.772441188202593
 10
3.858747274608934
 20
-2.740370330792555
 10
3.858747274608934
 20
-2.688406873989126
 10
3.858747274608934
 20
-2.688406873989126
 10
3.858747274608934
 20
-2.562214550930422
 10
3.858747274608934
 20
-2.562214550930422
 10
3.858747274608934
 20
-2.562214550930422
 10
3.898239935169562
 20
-2.562214550930422
 10
3.898239935169562
 20
-2.562214550930422
 10
3.898239935169562
 20
-2.562214550930422
 10
3.898239935169562
 20
-2.687518424560898
 10
3.898239935169562
 20
-2.687518424560898
 10
3.898239935169562
 20
-2.715428738306855
 10
3.91338691444624
 20
-2.732655989415611
 10
3.93832850693199
 20
-2.732655989415611
 10
3.962977561191287
 20
-2.732655989415611
 10
3.978417078694444
 20
-2.715428738306855
 10
3.978417078694444
 20
-2.687518424560898
 10
3.978417078694444
 20
-2.687518424560898
 10
3.978417078694444
 20
-2.562214550930422
 10
3.978417078694444
 20
-2.562214550930422
 10
3.978417078694444
 20
-2.562214550930422
 10
4.017909739254997
 20
-2.562214550930422
 10
4.017909739254997
 20
-2.562214550930422
 97
        0
 97
        0
 75
     2
 76
     1
 98
        0
  0
SPLINE
  5
E1
330
97
100
AcDbEntity
  8
Layer 1
370
     0
100
AcDbSpline
210
0.0
220
0.0
230
1.0
 70
    11
 71
     3
 72
    35
 73
    31
 74
     0
 42
0.0000000001
 43
0.0000000001
 12
1.0
 22
0.0
 32
0.0
 13
1.0
 23
0.0
 33
0.0
 40
0.0
 40
0.0
 40
0.0
 40
0.0
 40
1.0
 40
1.0
 40
1.0
 40
2.0
 40
2.0
 40
2.0
 40
3.0
 40
3.0
 40
3.0
 40
4.0
 40
4.0
 40
4.0
 40
5.0
 40
5.0
 40
5.0
 40
6.0
 40
6.0
 40
6.0
 40
7.0
 40
7.0
 40
7.0
 40
8.0
 40
8.0
 40
8.0
 40
9.0
 40
9.0
 40
9.0
 40
10.0
 40
10.0
 40
10.0
 40
10.0
 10
4.135195898532983
 20
-2.698797398399999
 30
0.0
 10
4.135195898532983
 20
-2.698797398399999
 30
0.0
 10
4.106386300609655
 20
-2.698797398399999
 30
0.0
 10
4.106386300609655
 20
-2.698797398399999
 30
0.0
 10
4.106386300609655
 20
-2.698797398399999
 30
0.0
 10
4.106386300609655
 20
-2.770068378144186
 30
0.0
 10
4.106386300609655
 20
-2.770068378144186
 30
0.0
 10
4.106386300609655
 20
-2.770068378144186
 30
0.0
 10
4.066893640049051
 20
-2.770068378144186
 30
0.0
 10
4.066893640049051
 20
-2.770068378144186
 30
0.0
 10
4.066893640049051
 20
-2.770068378144186
 30
0.0
 10
4.066893640049051
 20
-2.562214550930422
 30
0.0
 10
4.066893640049051
 20
-2.562214550930422
 30
0.0
 10
4.066893640049051
 20
-2.562214550930422
 30
0.0
 10
4.143809524087348
 20
-2.562214550930422
 30
0.0
 10
4.143809524087348
 20
-2.562214550930422
 30
0.0
 10
4.190128076596718
 20
-2.562214550930422
 30
0.0
 10
4.215958118510646
 20
-2.592497674734735
 30
0.0
 10
4.215958118510646
 20
-2.630505974665185
 30
0.0
 10
4.215958118510646
 20
-2.658416288411167
 30
0.0
 10
4.202306334613215
 20
-2.68217689324226
 30
0.0
 10
4.176465457950068
 20
-2.692859955879511
 30
0.0
 10
4.176465457950068
 20
-2.692859955879511
 30
0.0
 10
4.221007111602932
 20
-2.770068378144186
 30
0.0
 10
4.221007111602932
 20
-2.770068378144186
 30
0.0
 10
4.221007111602932
 20
-2.770068378144186
 30
0.0
 10
4.176465457950068
 20
-2.770068378144186
 30
0.0
 10
4.176465457950068
 20
-2.770068378144186
 30
0.0
 10
4.176465457950068
 20
-2.770068378144186
 30
0.0
 10
4.135195898532983
 20
-2.698797398399999
 30
0.0
 10
4.135195898532983
 20
-2.698797398399999
 30
0.0
  0
SPLINE
  5
E2
330
97
100
AcDbEntity
  8
Layer 1
370
     0
100
AcDbSpline
210
0.0
220
0.0
230
1.0
 70
    11
 71
     3
 72
    20
 73
    16
 74
     0
 42
0.0000000001
 43
0.0000000001
 12
1.0
 22
0.0
 32
0.0
 13
1.0
 23
0.0
 33
0.0
 40
0.0
 40
0.0
 40
0.0
 40
0.0
 40
1.0
 40
1.0
 40
1.0
 40
2.0
 40
2.0
 40
2.0
 40
3.0
 40
3.0
 40
3.0
 40
4.0
 40
4.0
 40
4.0
 40
5.0
 40
5.0
 40
5.0
 40
5.0
 10
4.106386300609655
 20
-2.661092471445045
 30
0.0
 10
4.106386300609655
 20
-2.661092471445045
 30
0.0
 10
4.142910239910027
 20
-2.661092471445045
 30
0.0
 10
4.142910239910027
 20
-2.661092471445045
 30
0.0
 10
4.162510301077065
 20
-2.661092471445045
 30
0.0
 10
4.174981097319939
 20
-2.648318302226699
 30
0.0
 10
4.174981097319939
 20
-2.630505974665185
 30
0.0
 10
4.174981097319939
 20
-2.612693647103747
 30
0.0
 10
4.162510301077065
 20
-2.600222850860872
 30
0.0
 10
4.142910239910027
 20
-2.600222850860872
 30
0.0
 10
4.142910239910027
 20
-2.600222850860872
 30
0.0
 10
4.106386300609655
 20
-2.600222850860872
 30
0.0
 10
4.106386300609655
 20
-2.600222850860872
 30
0.0
 10
4.106386300609655
 20
-2.600222850860872
 30
0.0
 10
4.106386300609655
 20
-2.661092471445045
 30
0.0
 10
4.106386300609655
 20
-2.661092471445045
 30
0.0
  0
HATCH
  5
E3
330
97
100
AcDbEntity
  8
Layer 1
 62
    30
420
 15234850
100
AcDbHatch
 10
0.0
 20
0.0
 30
0.0
210
0.0
220
0.0
230
1.0
  2
SOLID
 70
     1
 71
     0
 91
        2
 92
        1
 93
        1
 72
     4
 94
        3
 73
     0
 74
     1
 95
       35
 96
       31
 40
0.0
 40
0.0
 40
0.0
 40
0.0
 40
1.0
 40
1.0
 40
1.0
 40
2.0
 40
2.0
 40
2.0
 40
3.0
 40
3.0
 40
3.0
 40
4.0
 40
4.0
 40
4.0
 40
5.0
 40
5.0
 40
5.0
 40
6.0
 40
6.0
 40
6.0
 40
7.0
 40
7.0
 40
7.0
 40
8.0
 40
8.0
 40
8.0
 40
9.0
 40
9.0
 40
9.0
 40
10.0
 40
10.0
 40
10.0
 40
10.0
 10
4.135195898532983
 20
-2.698797398399999
 10
4.135195898532983
 20
-2.698797398399999
 10
4.106386300609655
 20
-2.698797398399999
 10
4.106386300609655
 20
-2.698797398399999
 10
4.106386300609655
 20
-2.698797398399999
 10
4.106386300609655
 20
-2.770068378144186
 10
4.106386300609655
 20
-2.770068378144186
 10
4.106386300609655
 20
-2.770068378144186
 10
4.066893640049051
 20
-2.770068378144186
 10
4.066893640049051
 20
-2.770068378144186
 10
4.066893640049051
 20
-2.770068378144186
 10
4.066893640049051
 20
-2.562214550930422
 10
4.066893640049051
 20
-2.562214550930422
 10
4.066893640049051
 20
-2.562214550930422
 10
4.143809524087348
 20
-2.562214550930422
 10
4.143809524087348
 20
-2.562214550930422
 10
4.190128076596718
 20
-2.562214550930422
 10
4.215958118510646
 20
-2.592497674734735
 10
4.215958118510646
 20
-2.630505974665185
 10
4.215958118510646
 20
-2.658416288411167
 10
4.202306334613215
 20
-2.68217689324226
 10
4.176465457950068
 20
-2.692859955879511
 10
4.176465457950068
 20
-2.692859955879511
 10
4.221007111602932
 20
-2.770068378144186
 10
4.221007111602932
 20
-2.770068378144186
 10
4.221007111602932
 20
-2.770068378144186
 10
4.176465457950068
 20
-2.770068378144186
 10
4.176465457950068
 20
-2.770068378144186
 10
4.176465457950068
 20
-2.770068378144186
 10
4.135195898532983
 20
-2.698797398399999
 10
4.135195898532983
 20
-2.698797398399999
 97
        0
 97
        0
 92
        1
 93
        1
 72
     4
 94
        3
 73
     0
 74
     1
 95
       20
 96
       16
 40
0.0
 40
0.0
 40
0.0
 40
0.0
 40
1.0
 40
1.0
 40
1.0
 40
2.0
 40
2.0
 40
2.0
 40
3.0
 40
3.0
 40
3.0
 40
4.0
 40
4.0
 40
4.0
 40
5.0
 40
5.0
 40
5.0
 40
5.0
 10
4.106386300609655
 20
-2.661092471445045
 10
4.106386300609655
 20
-2.661092471445045
 10
4.142910239910027
 20
-2.661092471445045
 10
4.142910239910027
 20
-2.661092471445045
 10
4.162510301077065
 20
-2.661092471445045
 10
4.174981097319939
 20
-2.648318302226699
 10
4.174981097319939
 20
-2.630505974665185
 10
4.174981097319939
 20
-2.612693647103747
 10
4.162510301077065
 20
-2.600222850860872
 10
4.142910239910027
 20
-2.600222850860872
 10
4.142910239910027
 20
-2.600222850860872
 10
4.106386300609655
 20
-2.600222850860872
 10
4.106386300609655
 20
-2.600222850860872
 10
4.106386300609655
 20
-2.600222850860872
 10
4.106386300609655
 20
-2.661092471445045
 10
4.106386300609655
 20
-2.661092471445045
 97
        0
 97
        0
 75
     2
 76
     1
 98
        0
  0
POLYLINE
  5
E4
330
97
100
AcDbEntity
  8
Layer 1
370
     0
100
AcDb2dPolyline
 66
     1
 10
0.0
 20
0.0
 30
0.0
  0
VERTEX
  5
E5
330
E4
100
AcDbEntity
  8
Layer 1
370
     0
100
AcDbVertex
100
AcDb2dVertex
 10
4.397678530834987
 20
-2.732352616440064
 30
0.0
  0
VERTEX
  5
E6
330
E4
100
AcDbEntity
  8
Layer 1
370
     0
100
AcDbVertex
100
AcDb2dVertex
 10
4.397678530834987
 20
-2.770068378144186
 30
0.0
  0
VERTEX
  5
E7
330
E4
100
AcDbEntity
  8
Layer 1
370
     0
100
AcDbVertex
100
AcDb2dVertex
 10
4.259600487986063
 20
-2.770068378144186
 30
0.0
  0
VERTEX
  5
E8
330
E4
100
AcDbEntity
  8
Layer 1
370
     0
100
AcDbVertex
100
AcDb2dVertex
 10
4.259600487986063
 20
-2.562214550930422
 30
0.0
  0
VERTEX
  5
E9
330
E4
100
AcDbEntity
  8
Layer 1
370
     0
100
AcDbVertex
100
AcDb2dVertex
 10
4.39590163197848
 20
-2.562214550930422
 30
0.0
  0
VERTEX
  5
EA
330
E4
100
AcDbEntity
  8
Layer 1
370
     0
100
AcDbVertex
100
AcDb2dVertex
 10
4.39590163197848
 20
-2.600222850860872
 30
0.0
  0
VERTEX
  5
EB
330
E4
100
AcDbEntity
  8
Layer 1
370
     0
100
AcDbVertex
100
AcDb2dVertex
 10
4.299093148546667
 20
-2.600222850860872
 30
0.0
  0
VERTEX
  5
EC
330
E4
100
AcDbEntity
  8
Layer 1
370
     0
100
AcDbVertex
100
AcDb2dVertex
 10
4.299093148546667
 20
-2.647429852798394
 30
0.0
  0
VERTEX
  5
ED
330
E4
100
AcDbEntity
  8
Layer 1
370
     0
100
AcDbVertex
100
AcDb2dVertex
 10
4.386692095222214
 20
-2.647429852798394
 30
0.0
  0
VERTEX
  5
EE
330
E4
100
AcDbEntity
  8
Layer 1
370
     0
100
AcDbVertex
100
AcDb2dVertex
 10
4.386692095222214
 20
-2.685145614502491
 30
0.0
  0
VERTEX
  5
EF
330
E4
100
AcDbEntity
  8
Layer 1
370
     0
100
AcDbVertex
100
AcDb2dVertex
 10
4.299093148546667
 20
-2.685145614502491
 30
0.0
  0
VERTEX
  5
F0
330
E4
100
AcDbEntity
  8
Layer 1
370
     0
100
AcDbVertex
100
AcDb2dVertex
 10
4.299093148546667
 20
-2.732352616440064
 30
0.0
  0
VERTEX
  5
F1
330
E4
100
AcDbEntity
  8
Layer 1
370
     0
100
AcDbVertex
100
AcDb2dVertex
 10
4.397678530834987
 20
-2.732352616440064
 30
0.0
  0
SEQEND
  5
F2
330
E4
100
AcDbEntity
  8
Layer 1
370
     0
  0
HATCH
  5
F3
330
97
100
AcDbEntity
  8
Layer 1
 62
    30
420
 15234850
100
AcDbHatch
 10
0.0
 20
0.0
 30
0.0
210
0.0
220
0.0
230
1.0
  2
SOLID
 70
     1
 71
     0
 91
        1
 92
        1
 93
       12
 72
     1
 10
4.397678530834987
 20
-2.732352616440064
 11
4.397678530834987
 21
-2.770068378144186
 72
     1
 10
4.397678530834987
 20
-2.770068378144186
 11
4.259600487986063
 21
-2.770068378144186
 72
     1
 10
4.259600487986063
 20
-2.770068378144186
 11
4.259600487986063
 21
-2.562214550930422
 72
     1
 10
4.259600487986063
 20
-2.562214550930422
 11
4.39590163197848
 21
-2.562214550930422
 72
     1
 10
4.39590163197848
 20
-2.562214550930422
 11
4.39590163197848
 21
-2.600222850860872
 72
     1
 10
4.39590163197848
 20
-2.600222850860872
 11
4.299093148546667
 21
-2.600222850860872
 72
     1
 10
4.299093148546667
 20
-2.600222850860872
 11
4.299093148546667
 21
-2.647429852798394
 72
     1
 10
4.299093148546667
 20
-2.647429852798394
 11
4.386692095222214
 21
-2.647429852798394
 72
     1
 10
4.386692095222214
 20
-2.647429852798394
 11
4.386692095222214
 21
-2.685145614502491
 72
     1
 10
4.386692095222214
 20
-2.685145614502491
 11
4.299093148546667
 21
-2.685145614502491
 72
     1
 10
4.299093148546667
 20
-2.685145614502491
 11
4.299093148546667
 21
-2.732352616440064
 72
     1
 10
4.299093148546667
 20
-2.732352616440064
 11
4.397678530834987
 21
-2.732352616440064
 97
        0
 75
     2
 76
     1
 98
        0
  0
SPLINE
  5
F4
330
97
100
AcDbEntity
  8
Layer 1
370
     0
100
AcDbSpline
210
0.0
220
0.0
230
1.0
 70
    11
 71
     3
 72
    47
 73
    43
 74
     0
 42
0.0000000001
 43
0.0000000001
 12
1.0
 22
0.0
 32
0.0
 13
1.0
 23
0.0
 33
0.0
 40
0.0
 40
0.0
 40
0.0
 40
0.0
 40
1.0
 40
1.0
 40
1.0
 40
2.0
 40
2.0
 40
2.0
 40
3.0
 40
3.0
 40
3.0
 40
4.0
 40
4.0
 40
4.0
 40
5.0
 40
5.0
 40
5.0
 40
6.0
 40
6.0
 40
6.0
 40
7.0
 40
7.0
 40
7.0
 40
8.0
 40
8.0
 40
8.0
 40
9.0
 40
9.0
 40
9.0
 40
10.0
 40
10.0
 40
10.0
 40
11.0
 40
11.0
 40
11.0
 40
12.0
 40
12.0
 40
12.0
 40
13.0
 40
13.0
 40
13.0
 40
14.0
 40
14.0
 40
14.0
 40
14.0
 10
4.592476485353144
 20
-2.709794668761863
 30
0.0
 10
4.592476485353144
 20
-2.744238336230208
 30
0.0
 10
4.568423342295672
 20
-2.773633010606293
 30
0.0
 10
4.516752423718572
 20
-2.773633010606293
 30
0.0
 10
4.476078775503437
 20
-2.773633010606293
 30
0.0
 10
4.439251463227568
 20
-2.751952677607151
 30
0.0
 10
4.433314020707004
 20
-2.721962092029192
 30
0.0
 10
4.433314020707004
 20
-2.721962092029192
 30
0.0
 10
4.469545421780973
 20
-2.708006935156239
 30
0.0
 10
4.469545421780973
 20
-2.708006935156239
 30
0.0
 10
4.473402592469559
 20
-2.723749825634867
 30
0.0
 10
4.491518293006544
 20
-2.733544438843865
 30
0.0
 10
4.513187791256465
 20
-2.733544438843865
 30
0.0
 10
4.537240934313988
 20
-2.733544438843865
 30
0.0
 10
4.550307641758687
 20
-2.72404236386122
 30
0.0
 10
4.550307641758687
 20
-2.711279029392017
 30
0.0
 10
4.550307641758687
 20
-2.698797398399999
 30
0.0
 10
4.540209655574168
 20
-2.693455867081411
 30
0.0
 10
4.506361899307699
 20
-2.683357880896892
 30
0.0
 10
4.458558986168302
 20
-2.669110185797535
 30
0.0
 10
4.438958925001139
 20
-2.650994485260551
 30
0.0
 10
4.438958925001139
 20
-2.620407988480717
 30
0.0
 10
4.438958925001139
 20
-2.593093585936635
 30
0.0
 10
4.458851524394655
 20
-2.560426817324747
 30
0.0
 10
4.512299341828212
 20
-2.560426817324747
 30
0.0
 10
4.544077661011796
 20
-2.560426817324747
 30
0.0
 10
4.576441056648187
 20
-2.577350695458007
 30
0.0
 10
4.582378499168625
 20
-2.607048742809613
 30
0.0
 10
4.582378499168625
 20
-2.607048742809613
 30
0.0
 10
4.547338920498456
 20
-2.620115450254363
 30
0.0
 10
4.547338920498456
 20
-2.620115450254363
 30
0.0
 10
4.544662737464528
 20
-2.607048742809613
 30
0.0
 10
4.527738859331293
 20
-2.599919477885376
 30
0.0
 10
4.512602714803759
 20
-2.599626939658972
 30
0.0
 10
4.495971374896852
 20
-2.599323566683501
 30
0.0
 10
4.480824395620149
 20
-2.605271843953131
 30
0.0
 10
4.480824395620149
 20
-2.618923627850589
 30
0.0
 10
4.480824395620149
 20
-2.628729075808678
 30
0.0
 10
4.488549571746236
 20
-2.63495905655557
 30
0.0
 10
4.521205505608956
 20
-2.645057042740063
 30
0.0
 10
4.562182526799638
 20
-2.657527838982939
 30
0.0
 10
4.592476485353144
 20
-2.671190457629513
 30
0.0
 10
4.592476485353144
 20
-2.709794668761863
 30
0.0
  0
HATCH
  5
F5
330
97
100
AcDbEntity
  8
Layer 1
 62
    30
420
 15234850
100
AcDbHatch
 10
0.0
 20
0.0
 30
0.0
210
0.0
220
0.0
230
1.0
  2
SOLID
 70
     1
 71
     0
 91
        1
 92
        1
 93
        1
 72
     4
 94
        3
 73
     0
 74
     1
 95
       47
 96
       43
 40
0.0
 40
0.0
 40
0.0
 40
0.0
 40
1.0
 40
1.0
 40
1.0
 40
2.0
 40
2.0
 40
2.0
 40
3.0
 40
3.0
 40
3.0
 40
4.0
 40
4.0
 40
4.0
 40
5.0
 40
5.0
 40
5.0
 40
6.0
 40
6.0
 40
6.0
 40
7.0
 40
7.0
 40
7.0
 40
8.0
 40
8.0
 40
8.0
 40
9.0
 40
9.0
 40
9.0
 40
10.0
 40
10.0
 40
10.0
 40
11.0
 40
11.0
 40
11.0
 40
12.0
 40
12.0
 40
12.0
 40
13.0
 40
13.0
 40
13.0
 40
14.0
 40
14.0
 40
14.0
 40
14.0
 10
4.592476485353144
 20
-2.709794668761863
 10
4.592476485353144
 20
-2.744238336230208
 10
4.568423342295672
 20
-2.773633010606293
 10
4.516752423718572
 20
-2.773633010606293
 10
4.476078775503437
 20
-2.773633010606293
 10
4.439251463227568
 20
-2.751952677607151
 10
4.433314020707004
 20
-2.721962092029192
 10
4.433314020707004
 20
-2.721962092029192
 10
4.469545421780973
 20
-2.708006935156239
 10
4.469545421780973
 20
-2.708006935156239
 10
4.473402592469559
 20
-2.723749825634867
 10
4.491518293006544
 20
-2.733544438843865
 10
4.513187791256465
 20
-2.733544438843865
 10
4.537240934313988
 20
-2.733544438843865
 10
4.550307641758687
 20
-2.72404236386122
 10
4.550307641758687
 20
-2.711279029392017
 10
4.550307641758687
 20
-2.698797398399999
 10
4.540209655574168
 20
-2.693455867081411
 10
4.506361899307699
 20
-2.683357880896892
 10
4.458558986168302
 20
-2.669110185797535
 10
4.438958925001139
 20
-2.650994485260551
 10
4.438958925001139
 20
-2.620407988480717
 10
4.438958925001139
 20
-2.593093585936635
 10
4.458851524394655
 20
-2.560426817324747
 10
4.512299341828212
 20
-2.560426817324747
 10
4.544077661011796
 20
-2.560426817324747
 10
4.576441056648187
 20
-2.577350695458007
 10
4.582378499168625
 20
-2.607048742809613
 10
4.582378499168625
 20
-2.607048742809613
 10
4.547338920498456
 20
-2.620115450254363
 10
4.547338920498456
 20
-2.620115450254363
 10
4.544662737464528
 20
-2.607048742809613
 10
4.527738859331293
 20
-2.599919477885376
 10
4.512602714803759
 20
-2.599626939658972
 10
4.495971374896852
 20
-2.599323566683501
 10
4.480824395620149
 20
-2.605271843953131
 10
4.480824395620149
 20
-2.618923627850589
 10
4.480824395620149
 20
-2.628729075808678
 10
4.488549571746236
 20
-2.63495905655557
 10
4.521205505608956
 20
-2.645057042740063
 10
4.562182526799638
 20
-2.657527838982939
 10
4.592476485353144
 20
-2.671190457629513
 10
4.592476485353144
 20
-2.709794668761863
 97
        0
 97
        0
 75
     2
 76
     1
 98
        0
  0
ENDBLK
  5
9A
330
97
100
AcDbEntity
  8
0
100
AcDbBlockEnd
  0
BLOCK
  5
F8
330
F6
100
AcDbEntity
  8
0
100
AcDbBlockBegin
  2
block 4
 70
     0
 10
0.0
 20
0.0
 30
0.0
  3
block 4
  1

  0
INSERT
  5
FB
330
F6
100
AcDbEntity
  8
Layer 1
100
AcDbBlockReference
  2
block 5
 10
0.0
 20
0.0
 30
0.0
  0
SPLINE
  5
117
330
F6
100
AcDbEntity
  8
Layer 1
370
     0
100
AcDbSpline
210
0.0
220
0.0
230
1.0
 70
    11
 71
     3
 72
    95
 73
    91
 74
     0
 42
0.0000000001
 43
0.0000000001
 12
1.0
 22
0.0
 32
0.0
 13
1.0
 23
0.0
 33
0.0
 40
0.0
 40
0.0
 40
0.0
 40
0.0
 40
1.0
 40
1.0
 40
1.0
 40
2.0
 40
2.0
 40
2.0
 40
3.0
 40
3.0
 40
3.0
 40
4.0
 40
4.0
 40
4.0
 40
5.0
 40
5.0
 40
5.0
 40
6.0
 40
6.0
 40
6.0
 40
7.0
 40
7.0
 40
7.0
 40
8.0
 40
8.0
 40
8.0
 40
9.0
 40
9.0
 40
9.0
 40
10.0
 40
10.0
 40
10.0
 40
11.0
 40
11.0
 40
11.0
 40
12.0
 40
12.0
 40
12.0
 40
13.0
 40
13.0
 40
13.0
 40
14.0
 40
14.0
 40
14.0
 40
15.0
 40
15.0
 40
15.0
 40
16.0
 40
16.0
 40
16.0
 40
17.0
 40
17.0
 40
17.0
 40
18.0
 40
18.0
 40
18.0
 40
19.0
 40
19.0
 40
19.0
 40
20.0
 40
20.0
 40
20.0
 40
21.0
 40
21.0
 40
21.0
 40
22.0
 40
22.0
 40
22.0
 40
23.0
 40
23.0
 40
23.0
 40
24.0
 40
24.0
 40
24.0
 40
25.0
 40
25.0
 40
25.0
 40
26.0
 40
26.0
 40
26.0
 40
27.0
 40
27.0
 40
27.0
 40
28.0
 40
28.0
 40
28.0
 40
29.0
 40
29.0
 40
29.0
 40
30.0
 40
30.0
 40
30.0
 40
30.0
 10
0.4998147180785079
 20
-2.840012398082384
 30
0.0
 10
0.5148084915106715
 20
-2.838040411722583
 30
0.0
 10
0.5298741722998052
 20
-2.836086364160135
 30
0.0
 10
0.5453375225630326
 20
-2.834242512066794
 30
0.0
 10
0.6204839791054281
 20
-2.825282082818047
 30
0.0
 10
0.7012250459206244
 20
-2.817942552039186
 30
0.0
 10
0.7860332364258384
 20
-2.812286705520667
 30
0.0
 10
0.798919906397916
 20
-2.811426924593181
 30
0.0
 10
0.8118185609294717
 20
-2.81057995709231
 30
0.0
 10
0.824896983853465
 20
-2.809803463438003
 30
0.0
 10
0.8623018835390263
 20
-2.807580333916146
 30
0.0
 10
0.9004759740430472
 20
-2.805707010941483
 30
0.0
 10
0.9393233788895132
 20
-2.804182213171442
 30
0.0
 10
0.9459344977084608
 20
-2.803923381953306
 30
0.0
 10
0.952469351148794
 20
-2.803626110455298
 30
0.0
 10
0.9591196921624537
 20
-2.803386499377135
 30
0.0
 10
1.000246342323559
 20
-2.801911673970987
 30
0.0
 10
1.042191211046467
 20
-2.800903257294496
 30
0.0
 10
1.084662310881729
 20
-2.800252335221204
 30
0.0
 10
1.091288682776407
 20
-2.800149827808102
 30
0.0
 10
1.097802835613973
 20
-2.799973002520498
 30
0.0
 10
1.104458624154669
 20
-2.799890996589991
 30
0.0
 10
1.130060911749663
 20
-2.799580911665316
 30
0.0
 10
1.15587565289934
 20
-2.799419462489671
 30
0.0
 10
1.181885415517121
 20
-2.799419462489671
 30
0.0
 10
1.311790413892128
 20
-2.799419462489671
 30
0.0
 10
1.436891782920952
 20
-2.803376248635838
 30
0.0
 10
1.554234783935638
 20
-2.810678620477473
 30
0.0
 10
1.569711208263786
 20
-2.811642190160708
 30
0.0
 10
1.584870586518061
 20
-2.812737738138367
 30
0.0
 10
1.600070276472429
 20
-2.813815347318698
 30
0.0
 10
1.683488258076346
 20
-2.819736431768661
 30
0.0
 10
1.76255475507863
 20
-2.827366827332222
 30
0.0
 10
1.836261974976386
 20
-2.836502800525952
 30
0.0
 10
1.851292791592426
 20
-2.838365872759242
 30
0.0
 10
1.866283296508376
 20
-2.840236633048537
 30
0.0
 10
1.880853252336616
 20
-2.842222714177599
 30
0.0
 10
1.926449053683516
 20
-2.848437226097581
 30
0.0
 10
1.969586930828756
 20
-2.85527062652424
 30
0.0
 10
2.010274510310246
 20
-2.862611438645748
 30
0.0
 10
1.98167499333638
 20
-2.851785374478343
 30
0.0
 10
1.950655684850188
 20
-2.841533351824435
 30
0.0
 10
1.917451918019879
 20
-2.831922000502446
 30
0.0
 10
1.875757635540936
 20
-2.81984918992306
 30
0.0
 10
1.830617247454787
 20
-2.808796328104184
 30
0.0
 10
1.782470913946529
 20
-2.798900518710802
 30
0.0
 10
1.769952496802565
 20
-2.796326301299031
 30
0.0
 10
1.757071274357524
 20
-2.79390328232153
 30
0.0
 10
1.744156277244833
 20
-2.791487951400086
 30
0.0
 10
1.680823327847103
 20
-2.779649626528226
 30
0.0
 10
1.612886128592916
 20
-2.769764067876142
 30
0.0
 10
1.541208657271277
 20
-2.762091388004667
 30
0.0
 10
1.528149845444672
 20
-2.760694724500985
 30
0.0
 10
1.515123718780311
 20
-2.759274996829365
 30
0.0
 10
1.501825215763827
 20
-2.758026969074737
 30
0.0
 10
1.400999116742418
 20
-2.748562972159081
 30
0.0
 10
1.293506334126227
 20
-2.743437601503425
 30
0.0
 10
1.181885415517121
 20
-2.743437601503425
 30
0.0
 10
1.159536391071987
 20
-2.743437601503425
 30
0.0
 10
1.137355150459787
 20
-2.743645179014973
 30
0.0
 10
1.115356946756176
 20
-2.744048801954123
 30
0.0
 10
1.109637043361406
 20
-2.744153872052569
 30
0.0
 10
1.104040254077808
 20
-2.744383232389408
 30
0.0
 10
1.098346498812829
 20
-2.744515210683807
 30
0.0
 10
1.061853515154199
 20
-2.745359615499334
 30
0.0
 10
1.025812676240106
 20
-2.746665303673833
 30
0.0
 10
0.9904745683144887
 20
-2.748577066928369
 30
0.0
 10
0.9847601124467297
 20
-2.748887151853043
 30
0.0
 10
0.9791458910766171
 20
-2.749271554652245
 30
0.0
 10
0.9734641203711286
 20
-2.749608547772823
 30
0.0
 10
0.9400849431700887
 20
-2.751583096817916
 30
0.0
 10
0.9072832038355171
 20
-2.754011241166027
 30
0.0
 10
0.875143883789355
 20
-2.756892980817156
 30
0.0
 10
0.8639067250057779
 20
-2.757897553465682
 30
0.0
 10
0.852823186484847
 20
-2.758995664128659
 30
0.0
 10
0.8417505430179896
 20
-2.760110432246215
 30
0.0
 10
0.7688800632739811
 20
-2.767439712283779
 30
0.0
 10
0.6995025378697366
 20
-2.776949837535338
 30
0.0
 10
0.6349340893387484
 20
-2.78856008341303
 30
0.0
 10
0.6216464813763246
 20
-2.790949787481243
 30
0.0
 10
0.6087009781121853
 20
-2.793481720585128
 30
0.0
 10
0.5958175766563727
 20
-2.796037999199623
 30
0.0
 10
0.5422487747298419
 20
-2.806661611226092
 30
0.0
 10
0.4921467790132839
 20
-2.818652415874971
 30
0.0
 10
0.4463167340035675
 20
-2.831922000502446
 30
0.0
 10
0.4130552233866006
 20
-2.84155000927904
 30
0.0
 10
0.3819825291353962
 20
-2.851821252072922
 30
0.0
 10
0.3533416109560095
 20
-2.862666536380276
 30
0.0
 10
0.3990801375114188
 20
-2.854426221708688
 30
0.0
 10
0.4479509921163374
 20
-2.846834266424973
 30
0.0
 10
0.4998147180785079
 20
-2.840012398082384
 30
0.0
  0
HATCH
  5
118
330
F6
100
AcDbEntity
  8
Layer 1
 62
    30
420
 15234850
100
AcDbHatch
 10
0.0
 20
0.0
 30
0.0
210
0.0
220
0.0
230
1.0
  2
SOLID
 70
     1
 71
     0
 91
        1
 92
        1
 93
        1
 72
     4
 94
        3
 73
     0
 74
     1
 95
       95
 96
       91
 40
0.0
 40
0.0
 40
0.0
 40
0.0
 40
1.0
 40
1.0
 40
1.0
 40
2.0
 40
2.0
 40
2.0
 40
3.0
 40
3.0
 40
3.0
 40
4.0
 40
4.0
 40
4.0
 40
5.0
 40
5.0
 40
5.0
 40
6.0
 40
6.0
 40
6.0
 40
7.0
 40
7.0
 40
7.0
 40
8.0
 40
8.0
 40
8.0
 40
9.0
 40
9.0
 40
9.0
 40
10.0
 40
10.0
 40
10.0
 40
11.0
 40
11.0
 40
11.0
 40
12.0
 40
12.0
 40
12.0
 40
13.0
 40
13.0
 40
13.0
 40
14.0
 40
14.0
 40
14.0
 40
15.0
 40
15.0
 40
15.0
 40
16.0
 40
16.0
 40
16.0
 40
17.0
 40
17.0
 40
17.0
 40
18.0
 40
18.0
 40
18.0
 40
19.0
 40
19.0
 40
19.0
 40
20.0
 40
20.0
 40
20.0
 40
21.0
 40
21.0
 40
21.0
 40
22.0
 40
22.0
 40
22.0
 40
23.0
 40
23.0
 40
23.0
 40
24.0
 40
24.0
 40
24.0
 40
25.0
 40
25.0
 40
25.0
 40
26.0
 40
26.0
 40
26.0
 40
27.0
 40
27.0
 40
27.0
 40
28.0
 40
28.0
 40
28.0
 40
29.0
 40
29.0
 40
29.0
 40
30.0
 40
30.0
 40
30.0
 40
30.0
 10
0.4998147180785079
 20
-2.840012398082384
 10
0.5148084915106715
 20
-2.838040411722583
 10
0.5298741722998052
 20
-2.836086364160135
 10
0.5453375225630326
 20
-2.834242512066794
 10
0.6204839791054281
 20
-2.825282082818047
 10
0.7012250459206244
 20
-2.817942552039186
 10
0.7860332364258384
 20
-2.812286705520667
 10
0.798919906397916
 20
-2.811426924593181
 10
0.8118185609294717
 20
-2.81057995709231
 10
0.824896983853465
 20
-2.809803463438003
 10
0.8623018835390263
 20
-2.807580333916146
 10
0.9004759740430472
 20
-2.805707010941483
 10
0.9393233788895132
 20
-2.804182213171442
 10
0.9459344977084608
 20
-2.803923381953306
 10
0.952469351148794
 20
-2.803626110455298
 10
0.9591196921624537
 20
-2.803386499377135
 10
1.000246342323559
 20
-2.801911673970987
 10
1.042191211046467
 20
-2.800903257294496
 10
1.084662310881729
 20
-2.800252335221204
 10
1.091288682776407
 20
-2.800149827808102
 10
1.097802835613973
 20
-2.799973002520498
 10
1.104458624154669
 20
-2.799890996589991
 10
1.130060911749663
 20
-2.799580911665316
 10
1.15587565289934
 20
-2.799419462489671
 10
1.181885415517121
 20
-2.799419462489671
 10
1.311790413892128
 20
-2.799419462489671
 10
1.436891782920952
 20
-2.803376248635838
 10
1.554234783935638
 20
-2.810678620477473
 10
1.569711208263786
 20
-2.811642190160708
 10
1.584870586518061
 20
-2.812737738138367
 10
1.600070276472429
 20
-2.813815347318698
 10
1.683488258076346
 20
-2.819736431768661
 10
1.76255475507863
 20
-2.827366827332222
 10
1.836261974976386
 20
-2.836502800525952
 10
1.851292791592426
 20
-2.838365872759242
 10
1.866283296508376
 20
-2.840236633048537
 10
1.880853252336616
 20
-2.842222714177599
 10
1.926449053683516
 20
-2.848437226097581
 10
1.969586930828756
 20
-2.85527062652424
 10
2.010274510310246
 20
-2.862611438645748
 10
1.98167499333638
 20
-2.851785374478343
 10
1.950655684850188
 20
-2.841533351824435
 10
1.917451918019879
 20
-2.831922000502446
 10
1.875757635540936
 20
-2.81984918992306
 10
1.830617247454787
 20
-2.808796328104184
 10
1.782470913946529
 20
-2.798900518710802
 10
1.769952496802565
 20
-2.796326301299031
 10
1.757071274357524
 20
-2.79390328232153
 10
1.744156277244833
 20
-2.791487951400086
 10
1.680823327847103
 20
-2.779649626528226
 10
1.612886128592916
 20
-2.769764067876142
 10
1.541208657271277
 20
-2.762091388004667
 10
1.528149845444672
 20
-2.760694724500985
 10
1.515123718780311
 20
-2.759274996829365
 10
1.501825215763827
 20
-2.758026969074737
 10
1.400999116742418
 20
-2.748562972159081
 10
1.293506334126227
 20
-2.743437601503425
 10
1.181885415517121
 20
-2.743437601503425
 10
1.159536391071987
 20
-2.743437601503425
 10
1.137355150459787
 20
-2.743645179014973
 10
1.115356946756176
 20
-2.744048801954123
 10
1.109637043361406
 20
-2.744153872052569
 10
1.104040254077808
 20
-2.744383232389408
 10
1.098346498812829
 20
-2.744515210683807
 10
1.061853515154199
 20
-2.745359615499334
 10
1.025812676240106
 20
-2.746665303673833
 10
0.9904745683144887
 20
-2.748577066928369
 10
0.9847601124467297
 20
-2.748887151853043
 10
0.9791458910766171
 20
-2.749271554652245
 10
0.9734641203711286
 20
-2.749608547772823
 10
0.9400849431700887
 20
-2.751583096817916
 10
0.9072832038355171
 20
-2.754011241166027
 10
0.875143883789355
 20
-2.756892980817156
 10
0.8639067250057779
 20
-2.757897553465682
 10
0.852823186484847
 20
-2.758995664128659
 10
0.8417505430179896
 20
-2.760110432246215
 10
0.7688800632739811
 20
-2.767439712283779
 10
0.6995025378697366
 20
-2.776949837535338
 10
0.6349340893387484
 20
-2.78856008341303
 10
0.6216464813763246
 20
-2.790949787481243
 10
0.6087009781121853
 20
-2.793481720585128
 10
0.5958175766563727
 20
-2.796037999199623
 10
0.5422487747298419
 20
-2.806661611226092
 10
0.4921467790132839
 20
-2.818652415874971
 10
0.4463167340035675
 20
-2.831922000502446
 10
0.4130552233866006
 20
-2.84155000927904
 10
0.3819825291353962
 20
-2.851821252072922
 10
0.3533416109560095
 20
-2.862666536380276
 10
0.3990801375114188
 20
-2.854426221708688
 10
0.4479509921163374
 20
-2.846834266424973
 10
0.4998147180785079
 20
-2.840012398082384
 97
        0
 97
        0
 75
     2
 76
     1
 98
        0
  0
ENDBLK
  5
F9
330
F6
100
AcDbEntity
  8
0
100
AcDbBlockEnd
  0
BLOCK
  5
FC
330
FA
100
AcDbEntity
  8
0
100
AcDbBlockBegin
  2
block 5
 70
     0
 10
0.0
 20
0.0
 30
0.0
  3
block 5
  1

  0
SPLINE
  5
FE
330
FA
100
AcDbEntity
  8
Layer 1
370
     0
100
AcDbSpline
210
0.0
220
0.0
230
1.0
 70
    11
 71
     3
 72
   173
 73
   169
 74
     0
 42
0.0000000001
 43
0.0000000001
 12
1.0
 22
0.0
 32
0.0
 13
1.0
 23
0.0
 33
0.0
 40
0.0
 40
0.0
 40
0.0
 40
0.0
 40
1.0
 40
1.0
 40
1.0
 40
2.0
 40
2.0
 40
2.0
 40
3.0
 40
3.0
 40
3.0
 40
4.0
 40
4.0
 40
4.0
 40
5.0
 40
5.0
 40
5.0
 40
6.0
 40
6.0
 40
6.0
 40
7.0
 40
7.0
 40
7.0
 40
8.0
 40
8.0
 40
8.0
 40
9.0
 40
9.0
 40
9.0
 40
10.0
 40
10.0
 40
10.0
 40
11.0
 40
11.0
 40
11.0
 40
12.0
 40
12.0
 40
12.0
 40
13.0
 40
13.0
 40
13.0
 40
14.0
 40
14.0
 40
14.0
 40
15.0
 40
15.0
 40
15.0
 40
16.0
 40
16.0
 40
16.0
 40
17.0
 40
17.0
 40
17.0
 40
18.0
 40
18.0
 40
18.0
 40
19.0
 40
19.0
 40
19.0
 40
20.0
 40
20.0
 40
20.0
 40
21.0
 40
21.0
 40
21.0
 40
22.0
 40
22.0
 40
22.0
 40
23.0
 40
23.0
 40
23.0
 40
24.0
 40
24.0
 40
24.0
 40
25.0
 40
25.0
 40
25.0
 40
26.0
 40
26.0
 40
26.0
 40
27.0
 40
27.0
 40
27.0
 40
28.0
 40
28.0
 40
28.0
 40
29.0
 40
29.0
 40
29.0
 40
30.0
 40
30.0
 40
30.0
 40
31.0
 40
31.0
 40
31.0
 40
32.0
 40
32.0
 40
32.0
 40
33.0
 40
33.0
 40
33.0
 40
34.0
 40
34.0
 40
34.0
 40
35.0
 40
35.0
 40
35.0
 40
36.0
 40
36.0
 40
36.0
 40
37.0
 40
37.0
 40
37.0
 40
38.0
 40
38.0
 40
38.0
 40
39.0
 40
39.0
 40
39.0
 40
40.0
 40
40.0
 40
40.0
 40
41.0
 40
41.0
 40
41.0
 40
42.0
 40
42.0
 40
42.0
 40
43.0
 40
43.0
 40
43.0
 40
44.0
 40
44.0
 40
44.0
 40
45.0
 40
45.0
 40
45.0
 40
46.0
 40
46.0
 40
46.0
 40
47.0
 40
47.0
 40
47.0
 40
48.0
 40
48.0
 40
48.0
 40
49.0
 40
49.0
 40
49.0
 40
50.0
 40
50.0
 40
50.0
 40
51.0
 40
51.0
 40
51.0
 40
52.0
 40
52.0
 40
52.0
 40
53.0
 40
53.0
 40
53.0
 40
54.0
 40
54.0
 40
54.0
 40
55.0
 40
55.0
 40
55.0
 40
56.0
 40
56.0
 40
56.0
 40
56.0
 10
0.735452947834915
 20
-2.297671911131273
 30
0.0
 10
0.735452947834915
 20
-2.297671911131273
 30
0.0
 10
1.162761327081246
 20
-2.30825209815349
 30
0.0
 10
1.162761327081246
 20
-2.30825209815349
 30
0.0
 10
1.162761327081246
 20
-2.30825209815349
 30
0.0
 10
1.162761327081246
 20
-2.266258201687176
 30
0.0
 10
1.162761327081246
 20
-2.266258201687176
 30
0.0
 10
1.162761327081246
 20
-2.266258201687176
 30
0.0
 10
0.9877246566633681
 20
-2.261925238677476
 30
0.0
 10
0.9877246566633681
 20
-2.261925238677476
 30
0.0
 10
0.9877246566633681
 20
-2.261925238677476
 30
0.0
 10
1.171904456469595
 20
-2.206251512301694
 30
0.0
 10
1.171904456469595
 20
-2.206251512301694
 30
0.0
 10
1.171904456469595
 20
-2.206251512301694
 30
0.0
 10
1.171904456469595
 20
-2.727165838227089
 30
0.0
 10
1.171904456469595
 20
-2.727165838227089
 30
0.0
 10
1.17525032757918
 20
-2.727156032678421
 30
0.0
 10
1.178533007375083
 20
-2.727074319772757
 30
0.0
 10
1.181885415517121
 20
-2.727074319772757
 30
0.0
 10
1.211547200264312
 20
-2.727074319772757
 30
0.0
 10
1.240861432786169
 20
-2.727490510838809
 30
0.0
 10
1.269892393901791
 20
-2.728199778859764
 30
0.0
 10
1.269892393901791
 20
-2.728199778859764
 30
0.0
 10
1.269892393901791
 20
-2.248630004177193
 30
0.0
 10
1.269892393901791
 20
-2.248630004177193
 30
0.0
 10
1.269892393901791
 20
-2.248630004177193
 30
0.0
 10
1.41400890082563
 20
-2.200920562337766
 30
0.0
 10
1.41400890082563
 20
-2.200920562337766
 30
0.0
 10
1.41400890082563
 20
-2.200920562337766
 30
0.0
 10
1.506200669484492
 20
-2.205373370942412
 30
0.0
 10
1.506200669484492
 20
-2.205373370942412
 30
0.0
 10
1.506200669484492
 20
-2.205373370942412
 30
0.0
 10
1.3379243801265
 20
-2.254199555825595
 30
0.0
 10
1.3379243801265
 20
-2.254199555825595
 30
0.0
 10
1.3379243801265
 20
-2.254199555825595
 30
0.0
 10
1.342690966288817
 20
-2.270713189302657
 30
0.0
 10
1.342690966288817
 20
-2.270713189302657
 30
0.0
 10
1.342690966288817
 20
-2.270713189302657
 30
0.0
 10
1.279034433784773
 20
-2.269137764481937
 30
0.0
 10
1.279034433784773
 20
-2.269137764481937
 30
0.0
 10
1.279034433784773
 20
-2.269137764481937
 30
0.0
 10
1.279034433784773
 20
-2.311131660948225
 30
0.0
 10
1.279034433784773
 20
-2.311131660948225
 30
0.0
 10
1.279034433784773
 20
-2.311131660948225
 30
0.0
 10
1.394536170659004
 20
-2.31399161264561
 30
0.0
 10
1.394536170659004
 20
-2.31399161264561
 30
0.0
 10
1.394536170659004
 20
-2.31399161264561
 30
0.0
 10
1.394536170659004
 20
-2.7336309633213
 30
0.0
 10
1.394536170659004
 20
-2.7336309633213
 30
0.0
 10
1.418183885551141
 20
-2.735062573428068
 30
0.0
 10
1.441494943271992
 20
-2.736729516703134
 30
0.0
 10
1.464527087608253
 20
-2.738618719081539
 30
0.0
 10
1.464527087608253
 20
-2.738618719081539
 30
0.0
 10
1.464527087608253
 20
-2.315723926245179
 30
0.0
 10
1.464527087608253
 20
-2.315723926245179
 30
0.0
 10
1.464527087608253
 20
-2.315723926245179
 30
0.0
 10
1.511224378923177
 20
-2.316880980989026
 30
0.0
 10
1.511224378923177
 20
-2.316880980989026
 30
0.0
 10
1.511224378923177
 20
-2.316880980989026
 30
0.0
 10
1.512318242353343
 20
-2.274913232652541
 30
0.0
 10
1.512318242353343
 20
-2.274913232652541
 30
0.0
 10
1.512318242353343
 20
-2.274913232652541
 30
0.0
 10
1.378436549237234
 20
-2.271597867694355
 30
0.0
 10
1.378436549237234
 20
-2.271597867694355
 30
0.0
 10
1.378436549237234
 20
-2.271597867694355
 30
0.0
 10
1.592295565877154
 20
-2.209530923581345
 30
0.0
 10
1.592295565877154
 20
-2.209530923581345
 30
0.0
 10
1.592295565877154
 20
-2.209530923581345
 30
0.0
 10
1.681498821200383
 20
-2.213839917472089
 30
0.0
 10
1.681498821200383
 20
-2.213839917472089
 30
0.0
 10
1.681498821200383
 20
-2.213839917472089
 30
0.0
 10
1.681498821200383
 20
-2.764397506552743
 30
0.0
 10
1.681498821200383
 20
-2.764397506552743
 30
0.0
 10
1.702786667377609
 20
-2.767791315900265
 30
0.0
 10
1.723791242148612
 20
-2.771318044907679
 30
0.0
 10
1.744156277244833
 20
-2.775124776805089
 30
0.0
 10
1.751347012941096
 20
-2.77646922647922
 30
0.0
 10
1.758375412331538
 20
-2.777876867467007
 30
0.0
 10
1.765487703638402
 20
-2.779251823292573
 30
0.0
 10
1.765487703638402
 20
-2.779251823292573
 30
0.0
 10
1.765487703638402
 20
-2.217897235613464
 30
0.0
 10
1.765487703638402
 20
-2.217897235613464
 30
0.0
 10
1.765487703638402
 20
-2.217897235613464
 30
0.0
 10
1.865663367930892
 20
-2.222735729132713
 30
0.0
 10
1.865663367930892
 20
-2.222735729132713
 30
0.0
 10
1.865663367930892
 20
-2.222735729132713
 30
0.0
 10
1.865663367930892
 20
-2.172657702535149
 30
0.0
 10
1.865663367930892
 20
-2.172657702535149
 30
0.0
 10
1.865663367930892
 20
-2.172657702535149
 30
0.0
 10
1.742542719734792
 20
-2.165926738121255
 30
0.0
 10
1.742542719734792
 20
-2.165926738121255
 30
0.0
 10
1.742542719734792
 20
-2.165926738121255
 30
0.0
 10
1.820113325811172
 20
-2.143414287864832
 30
0.0
 10
1.820113325811172
 20
-2.143414287864832
 30
0.0
 10
1.820113325811172
 20
-2.143414287864832
 30
0.0
 10
1.820113325811172
 20
-2.114290718789486
 30
0.0
 10
1.820113325811172
 20
-2.114290718789486
 30
0.0
 10
1.820113325811172
 20
-2.114290718789486
 30
0.0
 10
1.658067917884586
 20
-2.16130832469451
 30
0.0
 10
1.658067917884586
 20
-2.16130832469451
 30
0.0
 10
1.658067917884586
 20
-2.16130832469451
 30
0.0
 10
1.551298566859663
 20
-2.155471844221034
 30
0.0
 10
1.551298566859663
 20
-2.155471844221034
 30
0.0
 10
1.551298566859663
 20
-2.155471844221034
 30
0.0
 10
1.668183975602751
 20
-2.116776970131746
 30
0.0
 10
1.668183975602751
 20
-2.116776970131746
 30
0.0
 10
1.668183975602751
 20
-2.116776970131746
 30
0.0
 10
1.668183975602751
 20
-2.087169660654985
 30
0.0
 10
1.668183975602751
 20
-2.087169660654985
 30
0.0
 10
1.668183975602751
 20
-2.087169660654985
 30
0.0
 10
1.474669293456272
 20
-2.151282695925222
 30
0.0
 10
1.474669293456272
 20
-2.151282695925222
 30
0.0
 10
1.474669293456272
 20
-2.151282695925222
 30
0.0
 10
1.372278664668203
 20
-2.145684817136208
 30
0.0
 10
1.372278664668203
 20
-2.145684817136208
 30
0.0
 10
1.372278664668203
 20
-2.145684817136208
 30
0.0
 10
1.514039660898814
 20
-2.102833479913405
 30
0.0
 10
1.514039660898814
 20
-2.102833479913405
 30
0.0
 10
1.514039660898814
 20
-2.102833479913405
 30
0.0
 10
1.514039660898814
 20
-2.073754580559782
 30
0.0
 10
1.514039660898814
 20
-2.073754580559782
 30
0.0
 10
1.514039660898814
 20
-2.073754580559782
 30
0.0
 10
1.290613697266571
 20
-2.141220023972045
 30
0.0
 10
1.290613697266571
 20
-2.141220023972045
 30
0.0
 10
1.290613697266571
 20
-2.141220023972045
 30
0.0
 10
1.195576140480688
 20
-2.136024172678806
 30
0.0
 10
1.195576140480688
 20
-2.136024172678806
 30
0.0
 10
1.195576140480688
 20
-2.136024172678806
 30
0.0
 10
1.333840913855321
 20
-2.092328468764372
 30
0.0
 10
1.333840913855321
 20
-2.092328468764372
 30
0.0
 10
1.333840913855321
 20
-2.092328468764372
 30
0.0
 10
1.333840913855321
 20
-2.063256106443216
 30
0.0
 10
1.333840913855321
 20
-2.063256106443216
 30
0.0
 10
1.333840913855321
 20
-2.063256106443216
 30
0.0
 10
1.11685610619832
 20
-2.131720626315112
 30
0.0
 10
1.11685610619832
 20
-2.131720626315112
 30
0.0
 10
1.11685610619832
 20
-2.131720626315112
 30
0.0
 10
0.9996906945651997
 20
-2.125315424018355
 30
0.0
 10
0.9996906945651997
 20
-2.125315424018355
 30
0.0
 10
0.9996906945651997
 20
-2.125315424018355
 30
0.0
 10
1.139957978880729
 20
-2.078220463229337
 30
0.0
 10
1.139957978880729
 20
-2.078220463229337
 30
0.0
 10
1.139957978880729
 20
-2.078220463229337
 30
0.0
 10
1.139957978880729
 20
-2.048674166055472
 30
0.0
 10
1.139957978880729
 20
-2.048674166055472
 30
0.0
 10
1.139957978880729
 20
-2.048674166055472
 30
0.0
 10
0.5731362530616353
 20
-2.239007492409074
 30
0.0
 10
0.5731362530616353
 20
-2.239007492409074
 30
0.0
 10
0.5731362530616353
 20
-2.239007492409074
 30
0.0
 10
0.5773493704764152
 20
-2.251764511237537
 30
0.0
 10
0.5773493704764152
 20
-2.251764511237537
 30
0.0
 10
0.5773493704764152
 20
-2.251764511237537
 30
0.0
 10
0.4991991475226819
 20
-2.249828460126587
 30
0.0
 10
0.4991991475226819
 20
-2.249828460126587
 30
0.0
 10
0.4991991475226819
 20
-2.249828460126587
 30
0.0
 10
0.4981052840925284
 20
-2.291796208463084
 30
0.0
 10
0.4981052840925284
 20
-2.291796208463084
 30
0.0
 10
0.4981052840925284
 20
-2.291796208463084
 30
0.0
 10
0.6374650104027447
 20
-2.295245582586492
 30
0.0
 10
0.6374650104027447
 20
-2.295245582586492
 30
0.0
 10
0.6374650104027447
 20
-2.295245582586492
 30
0.0
 10
0.6374650104027447
 20
-2.771770189652216
 30
0.0
 10
0.6374650104027447
 20
-2.771770189652216
 30
0.0
 10
0.6690497721959774
 20
-2.766127641141439
 30
0.0
 10
0.7017371134626147
 20
-2.760968833032065
 30
0.0
 10
0.735452947834915
 20
-2.756338435045841
 30
0.0
 10
0.735452947834915
 20
-2.756338435045841
 30
0.0
 10
0.735452947834915
 20
-2.297671911131273
 30
0.0
 10
0.735452947834915
 20
-2.297671911131273
 30
0.0
  0
POLYLINE
  5
FF
330
FA
100
AcDbEntity
  8
Layer 1
370
     0
100
AcDb2dPolyline
 66
     1
 10
0.0
 20
0.0
 30
0.0
  0
VERTEX
  5
100
330
FF
100
AcDbEntity
  8
Layer 1
370
     0
100
AcDbVertex
100
AcDb2dVertex
 10
1.269892393901791
 20
-2.193959712282675
 30
0.0
  0
VERTEX
  5
101
330
FF
100
AcDbEntity
  8
Layer 1
370
     0
100
AcDbVertex
100
AcDb2dVertex
 10
1.336187708505311
 20
-2.197161768678332
 30
0.0
  0
VERTEX
  5
102
330
FF
100
AcDbEntity
  8
Layer 1
370
     0
100
AcDbVertex
100
AcDb2dVertex
 10
1.269892393901791
 20
-2.219125108208851
 30
0.0
  0
VERTEX
  5
103
330
FF
100
AcDbEntity
  8
Layer 1
370
     0
100
AcDbVertex
100
AcDb2dVertex
 10
1.269892393901791
 20
-2.193959712282675
 30
0.0
  0
SEQEND
  5
104
330
FF
100
AcDbEntity
  8
Layer 1
370
     0
  0
POLYLINE
  5
105
330
FA
100
AcDbEntity
  8
Layer 1
370
     0
100
AcDb2dPolyline
 66
     1
 10
0.0
 20
0.0
 30
0.0
  0
VERTEX
  5
106
330
105
100
AcDbEntity
  8
Layer 1
370
     0
100
AcDbVertex
100
AcDb2dVertex
 10
1.046406507472082
 20
-2.183164892694991
 30
0.0
  0
VERTEX
  5
107
330
105
100
AcDbEntity
  8
Layer 1
370
     0
100
AcDbVertex
100
AcDb2dVertex
 10
1.137183008605234
 20
-2.187550151964312
 30
0.0
  0
VERTEX
  5
108
330
105
100
AcDbEntity
  8
Layer 1
370
     0
100
AcDbVertex
100
AcDb2dVertex
 10
0.9538530230176496
 20
-2.242907921771613
 30
0.0
  0
VERTEX
  5
109
330
105
100
AcDbEntity
  8
Layer 1
370
     0
100
AcDbVertex
100
AcDb2dVertex
 10
0.9593506673090562
 20
-2.261222507688962
 30
0.0
  0
VERTEX
  5
10A
330
105
100
AcDbEntity
  8
Layer 1
370
     0
100
AcDbVertex
100
AcDb2dVertex
 10
0.8110330275299146
 20
-2.257549784956824
 30
0.0
  0
VERTEX
  5
10B
330
105
100
AcDbEntity
  8
Layer 1
370
     0
100
AcDbVertex
100
AcDb2dVertex
 10
1.046406507472082
 20
-2.183164892694991
 30
0.0
  0
SEQEND
  5
10C
330
105
100
AcDbEntity
  8
Layer 1
370
     0
  0
POLYLINE
  5
10D
330
FA
100
AcDbEntity
  8
Layer 1
370
     0
100
AcDb2dPolyline
 66
     1
 10
0.0
 20
0.0
 30
0.0
  0
VERTEX
  5
10E
330
10D
100
AcDbEntity
  8
Layer 1
370
     0
100
AcDbVertex
100
AcDb2dVertex
 10
0.6199294208524735
 20
-2.252818062967587
 30
0.0
  0
VERTEX
  5
10F
330
10D
100
AcDbEntity
  8
Layer 1
370
     0
100
AcDbVertex
100
AcDb2dVertex
 10
0.926034681421672
 20
-2.150045017781129
 30
0.0
  0
VERTEX
  5
110
330
10D
100
AcDbEntity
  8
Layer 1
370
     0
100
AcDbVertex
100
AcDb2dVertex
 10
0.9247218274044068
 20
-2.177288100521372
 30
0.0
  0
VERTEX
  5
111
330
10D
100
AcDbEntity
  8
Layer 1
370
     0
100
AcDbVertex
100
AcDb2dVertex
 10
0.9661023323257166
 20
-2.179286253440624
 30
0.0
  0
VERTEX
  5
112
330
10D
100
AcDbEntity
  8
Layer 1
370
     0
100
AcDbVertex
100
AcDb2dVertex
 10
0.7775220201744383
 20
-2.238788501821975
 30
0.0
  0
VERTEX
  5
113
330
10D
100
AcDbEntity
  8
Layer 1
370
     0
100
AcDbVertex
100
AcDb2dVertex
 10
0.7829793527657531
 20
-2.256855770011599
 30
0.0
  0
VERTEX
  5
114
330
10D
100
AcDbEntity
  8
Layer 1
370
     0
100
AcDbVertex
100
AcDb2dVertex
 10
0.6199294208524735
 20
-2.252818062967587
 30
0.0
  0
SEQEND
  5
115
330
10D
100
AcDbEntity
  8
Layer 1
370
     0
  0
HATCH
  5
116
330
FA
100
AcDbEntity
  8
Layer 1
 62
   158
420
   795456
100
AcDbHatch
 10
0.0
 20
0.0
 30
0.0
210
0.0
220
0.0
230
1.0
  2
SOLID
 70
     1
 71
     0
 91
        4
 92
        1
 93
        1
 72
     4
 94
        3
 73
     0
 74
     1
 95
      173
 96
      169
 40
0.0
 40
0.0
 40
0.0
 40
0.0
 40
1.0
 40
1.0
 40
1.0
 40
2.0
 40
2.0
 40
2.0
 40
3.0
 40
3.0
 40
3.0
 40
4.0
 40
4.0
 40
4.0
 40
5.0
 40
5.0
 40
5.0
 40
6.0
 40
6.0
 40
6.0
 40
7.0
 40
7.0
 40
7.0
 40
8.0
 40
8.0
 40
8.0
 40
9.0
 40
9.0
 40
9.0
 40
10.0
 40
10.0
 40
10.0
 40
11.0
 40
11.0
 40
11.0
 40
12.0
 40
12.0
 40
12.0
 40
13.0
 40
13.0
 40
13.0
 40
14.0
 40
14.0
 40
14.0
 40
15.0
 40
15.0
 40
15.0
 40
16.0
 40
16.0
 40
16.0
 40
17.0
 40
17.0
 40
17.0
 40
18.0
 40
18.0
 40
18.0
 40
19.0
 40
19.0
 40
19.0
 40
20.0
 40
20.0
 40
20.0
 40
21.0
 40
21.0
 40
21.0
 40
22.0
 40
22.0
 40
22.0
 40
23.0
 40
23.0
 40
23.0
 40
24.0
 40
24.0
 40
24.0
 40
25.0
 40
25.0
 40
25.0
 40
26.0
 40
26.0
 40
26.0
 40
27.0
 40
27.0
 40
27.0
 40
28.0
 40
28.0
 40
28.0
 40
29.0
 40
29.0
 40
29.0
 40
30.0
 40
30.0
 40
30.0
 40
31.0
 40
31.0
 40
31.0
 40
32.0
 40
32.0
 40
32.0
 40
33.0
 40
33.0
 40
33.0
 40
34.0
 40
34.0
 40
34.0
 40
35.0
 40
35.0
 40
35.0
 40
36.0
 40
36.0
 40
36.0
 40
37.0
 40
37.0
 40
37.0
 40
38.0
 40
38.0
 40
38.0
 40
39.0
 40
39.0
 40
39.0
 40
40.0
 40
40.0
 40
40.0
 40
41.0
 40
41.0
 40
41.0
 40
42.0
 40
42.0
 40
42.0
 40
43.0
 40
43.0
 40
43.0
 40
44.0
 40
44.0
 40
44.0
 40
45.0
 40
45.0
 40
45.0
 40
46.0
 40
46.0
 40
46.0
 40
47.0
 40
47.0
 40
47.0
 40
48.0
 40
48.0
 40
48.0
 40
49.0
 40
49.0
 40
49.0
 40
50.0
 40
50.0
 40
50.0
 40
51.0
 40
51.0
 40
51.0
 40
52.0
 40
52.0
 40
52.0
 40
53.0
 40
53.0
 40
53.0
 40
54.0
 40
54.0
 40
54.0
 40
55.0
 40
55.0
 40
55.0
 40
56.0
 40
56.0
 40
56.0
 40
56.0
 10
0.735452947834915
 20
-2.297671911131273
 10
0.735452947834915
 20
-2.297671911131273
 10
1.162761327081246
 20
-2.30825209815349
 10
1.162761327081246
 20
-2.30825209815349
 10
1.162761327081246
 20
-2.30825209815349
 10
1.162761327081246
 20
-2.266258201687176
 10
1.162761327081246
 20
-2.266258201687176
 10
1.162761327081246
 20
-2.266258201687176
 10
0.9877246566633681
 20
-2.261925238677476
 10
0.9877246566633681
 20
-2.261925238677476
 10
0.9877246566633681
 20
-2.261925238677476
 10
1.171904456469595
 20
-2.206251512301694
 10
1.171904456469595
 20
-2.206251512301694
 10
1.171904456469595
 20
-2.206251512301694
 10
1.171904456469595
 20
-2.727165838227089
 10
1.171904456469595
 20
-2.727165838227089
 10
1.17525032757918
 20
-2.727156032678421
 10
1.178533007375083
 20
-2.727074319772757
 10
1.181885415517121
 20
-2.727074319772757
 10
1.211547200264312
 20
-2.727074319772757
 10
1.240861432786169
 20
-2.727490510838809
 10
1.269892393901791
 20
-2.728199778859764
 10
1.269892393901791
 20
-2.728199778859764
 10
1.269892393901791
 20
-2.248630004177193
 10
1.269892393901791
 20
-2.248630004177193
 10
1.269892393901791
 20
-2.248630004177193
 10
1.41400890082563
 20
-2.200920562337766
 10
1.41400890082563
 20
-2.200920562337766
 10
1.41400890082563
 20
-2.200920562337766
 10
1.506200669484492
 20
-2.205373370942412
 10
1.506200669484492
 20
-2.205373370942412
 10
1.506200669484492
 20
-2.205373370942412
 10
1.3379243801265
 20
-2.254199555825595
 10
1.3379243801265
 20
-2.254199555825595
 10
1.3379243801265
 20
-2.254199555825595
 10
1.342690966288817
 20
-2.270713189302657
 10
1.342690966288817
 20
-2.270713189302657
 10
1.342690966288817
 20
-2.270713189302657
 10
1.279034433784773
 20
-2.269137764481937
 10
1.279034433784773
 20
-2.269137764481937
 10
1.279034433784773
 20
-2.269137764481937
 10
1.279034433784773
 20
-2.311131660948225
 10
1.279034433784773
 20
-2.311131660948225
 10
1.279034433784773
 20
-2.311131660948225
 10
1.394536170659004
 20
-2.31399161264561
 10
1.394536170659004
 20
-2.31399161264561
 10
1.394536170659004
 20
-2.31399161264561
 10
1.394536170659004
 20
-2.7336309633213
 10
1.394536170659004
 20
-2.7336309633213
 10
1.418183885551141
 20
-2.735062573428068
 10
1.441494943271992
 20
-2.736729516703134
 10
1.464527087608253
 20
-2.738618719081539
 10
1.464527087608253
 20
-2.738618719081539
 10
1.464527087608253
 20
-2.315723926245179
 10
1.464527087608253
 20
-2.315723926245179
 10
1.464527087608253
 20
-2.315723926245179
 10
1.511224378923177
 20
-2.316880980989026
 10
1.511224378923177
 20
-2.316880980989026
 10
1.511224378923177
 20
-2.316880980989026
 10
1.512318242353343
 20
-2.274913232652541
 10
1.512318242353343
 20
-2.274913232652541
 10
1.512318242353343
 20
-2.274913232652541
 10
1.378436549237234
 20
-2.271597867694355
 10
1.378436549237234
 20
-2.271597867694355
 10
1.378436549237234
 20
-2.271597867694355
 10
1.592295565877154
 20
-2.209530923581345
 10
1.592295565877154
 20
-2.209530923581345
 10
1.592295565877154
 20
-2.209530923581345
 10
1.681498821200383
 20
-2.213839917472089
 10
1.681498821200383
 20
-2.213839917472089
 10
1.681498821200383
 20
-2.213839917472089
 10
1.681498821200383
 20
-2.764397506552743
 10
1.681498821200383
 20
-2.764397506552743
 10
1.702786667377609
 20
-2.767791315900265
 10
1.723791242148612
 20
-2.771318044907679
 10
1.744156277244833
 20
-2.775124776805089
 10
1.751347012941096
 20
-2.77646922647922
 10
1.758375412331538
 20
-2.777876867467007
 10
1.765487703638402
 20
-2.779251823292573
 10
1.765487703638402
 20
-2.779251823292573
 10
1.765487703638402
 20
-2.217897235613464
 10
1.765487703638402
 20
-2.217897235613464
 10
1.765487703638402
 20
-2.217897235613464
 10
1.865663367930892
 20
-2.222735729132713
 10
1.865663367930892
 20
-2.222735729132713
 10
1.865663367930892
 20
-2.222735729132713
 10
1.865663367930892
 20
-2.172657702535149
 10
1.865663367930892
 20
-2.172657702535149
 10
1.865663367930892
 20
-2.172657702535149
 10
1.742542719734792
 20
-2.165926738121255
 10
1.742542719734792
 20
-2.165926738121255
 10
1.742542719734792
 20
-2.165926738121255
 10
1.820113325811172
 20
-2.143414287864832
 10
1.820113325811172
 20
-2.143414287864832
 10
1.820113325811172
 20
-2.143414287864832
 10
1.820113325811172
 20
-2.114290718789486
 10
1.820113325811172
 20
-2.114290718789486
 10
1.820113325811172
 20
-2.114290718789486
 10
1.658067917884586
 20
-2.16130832469451
 10
1.658067917884586
 20
-2.16130832469451
 10
1.658067917884586
 20
-2.16130832469451
 10
1.551298566859663
 20
-2.155471844221034
 10
1.551298566859663
 20
-2.155471844221034
 10
1.551298566859663
 20
-2.155471844221034
 10
1.668183975602751
 20
-2.116776970131746
 10
1.668183975602751
 20
-2.116776970131746
 10
1.668183975602751
 20
-2.116776970131746
 10
1.668183975602751
 20
-2.087169660654985
 10
1.668183975602751
 20
-2.087169660654985
 10
1.668183975602751
 20
-2.087169660654985
 10
1.474669293456272
 20
-2.151282695925222
 10
1.474669293456272
 20
-2.151282695925222
 10
1.474669293456272
 20
-2.151282695925222
 10
1.372278664668203
 20
-2.145684817136208
 10
1.372278664668203
 20
-2.145684817136208
 10
1.372278664668203
 20
-2.145684817136208
 10
1.514039660898814
 20
-2.102833479913405
 10
1.514039660898814
 20
-2.102833479913405
 10
1.514039660898814
 20
-2.102833479913405
 10
1.514039660898814
 20
-2.073754580559782
 10
1.514039660898814
 20
-2.073754580559782
 10
1.514039660898814
 20
-2.073754580559782
 10
1.290613697266571
 20
-2.141220023972045
 10
1.290613697266571
 20
-2.141220023972045
 10
1.290613697266571
 20
-2.141220023972045
 10
1.195576140480688
 20
-2.136024172678806
 10
1.195576140480688
 20
-2.136024172678806
 10
1.195576140480688
 20
-2.136024172678806
 10
1.333840913855321
 20
-2.092328468764372
 10
1.333840913855321
 20
-2.092328468764372
 10
1.333840913855321
 20
-2.092328468764372
 10
1.333840913855321
 20
-2.063256106443216
 10
1.333840913855321
 20
-2.063256106443216
 10
1.333840913855321
 20
-2.063256106443216
 10
1.11685610619832
 20
-2.131720626315112
 10
1.11685610619832
 20
-2.131720626315112
 10
1.11685610619832
 20
-2.131720626315112
 10
0.9996906945651997
 20
-2.125315424018355
 10
0.9996906945651997
 20
-2.125315424018355
 10
0.9996906945651997
 20
-2.125315424018355
 10
1.139957978880729
 20
-2.078220463229337
 10
1.139957978880729
 20
-2.078220463229337
 10
1.139957978880729
 20
-2.078220463229337
 10
1.139957978880729
 20
-2.048674166055472
 10
1.139957978880729
 20
-2.048674166055472
 10
1.139957978880729
 20
-2.048674166055472
 10
0.5731362530616353
 20
-2.239007492409074
 10
0.5731362530616353
 20
-2.239007492409074
 10
0.5731362530616353
 20
-2.239007492409074
 10
0.5773493704764152
 20
-2.251764511237537
 10
0.5773493704764152
 20
-2.251764511237537
 10
0.5773493704764152
 20
-2.251764511237537
 10
0.4991991475226819
 20
-2.249828460126587
 10
0.4991991475226819
 20
-2.249828460126587
 10
0.4991991475226819
 20
-2.249828460126587
 10
0.4981052840925284
 20
-2.291796208463084
 10
0.4981052840925284
 20
-2.291796208463084
 10
0.4981052840925284
 20
-2.291796208463084
 10
0.6374650104027447
 20
-2.295245582586492
 10
0.6374650104027447
 20
-2.295245582586492
 10
0.6374650104027447
 20
-2.295245582586492
 10
0.6374650104027447
 20
-2.771770189652216
 10
0.6374650104027447
 20
-2.771770189652216
 10
0.6690497721959774
 20
-2.766127641141439
 10
0.7017371134626147
 20
-2.760968833032065
 10
0.735452947834915
 20
-2.756338435045841
 10
0.735452947834915
 20
-2.756338435045841
 10
0.735452947834915
 20
-2.297671911131273
 10
0.735452947834915
 20
-2.297671911131273
 97
        0
 97
        0
 92
        1
 93
        3
 72
     1
 10
1.269892393901791
 20
-2.193959712282675
 11
1.336187708505311
 21
-2.197161768678332
 72
     1
 10
1.336187708505311
 20
-2.197161768678332
 11
1.269892393901791
 21
-2.219125108208851
 72
     1
 10
1.269892393901791
 20
-2.219125108208851
 11
1.269892393901791
 21
-2.193959712282675
 97
        0
 92
        1
 93
        5
 72
     1
 10
1.046406507472082
 20
-2.183164892694991
 11
1.137183008605234
 21
-2.187550151964312
 72
     1
 10
1.137183008605234
 20
-2.187550151964312
 11
0.9538530230176496
 21
-2.242907921771613
 72
     1
 10
0.9538530230176496
 20
-2.242907921771613
 11
0.9593506673090562
 21
-2.261222507688962
 72
     1
 10
0.9593506673090562
 20
-2.261222507688962
 11
0.8110330275299146
 21
-2.257549784956824
 72
     1
 10
0.8110330275299146
 20
-2.257549784956824
 11
1.046406507472082
 21
-2.183164892694991
 97
        0
 92
        1
 93
        6
 72
     1
 10
0.6199294208524735
 20
-2.252818062967587
 11
0.926034681421672
 21
-2.150045017781129
 72
     1
 10
0.926034681421672
 20
-2.150045017781129
 11
0.9247218274044068
 21
-2.177288100521372
 72
     1
 10
0.9247218274044068
 20
-2.177288100521372
 11
0.9661023323257166
 21
-2.179286253440624
 72
     1
 10
0.9661023323257166
 20
-2.179286253440624
 11
0.7775220201744383
 21
-2.238788501821975
 72
     1
 10
0.7775220201744383
 20
-2.238788501821975
 11
0.7829793527657531
 21
-2.256855770011599
 72
     1
 10
0.7829793527657531
 20
-2.256855770011599
 11
0.6199294208524735
 21
-2.252818062967587
 97
        0
 75
     2
 76
     1
 98
        0
  0
ENDBLK
  5
FD
330
FA
100
AcDbEntity
  8
0
100
AcDbBlockEnd
  0
ENDSEC
  0
SECTION
  2
ENTITIES
  0
INSERT
  5
42
330
1F
100
AcDbEntity
  8
Layer 1
100
AcDbBlockReference
  2
block 2
 10
0.0
 20
0.0
 30
0.0
  0
INSERT
  5
98
330
1F
100
AcDbEntity
  8
Layer 1
100
AcDbBlockReference
  2
block 3
 10
0.0
 20
0.0
 30
0.0
  0
INSERT
  5
F7
330
1F
100
AcDbEntity
  8
Layer 1
100
AcDbBlockReference
  2
block 4
 10
0.0
 20
0.0
 30
0.0
  0
ENDSEC
  0
SECTION
  2
OBJECTS
  0
DICTIONARY
  5
C
330
0
100
AcDbDictionary
281
     1
  3
ACAD_GROUP
350
D
  3
ACAD_LAYOUT
350
1A
  3
ACAD_MATERIAL
350
3B
  3
ACAD_MLEADERSTYLE
350
11A
  3
ACAD_MLINESTYLE
350
17
  3
ACAD_PLOTSETTINGS
350
19
  3
ACAD_PLOTSTYLENAME
350
E
  3
ACAD_TABLESTYLE
350
119
  3
ACAD_VISUALSTYLE
350
2A
  0
SUN
  5
3F
330
29
100
AcDbSun
 90
        1
290
     0
 63
     7
421
 16777215
 40
1.0
291
     1
 91
  2455826
 92
 54000000
292
     0
 70
     2
 71
   256
280
     1
  0
DICTIONARY
  5
D
102
{ACAD_REACTORS
330
C
102
}
330
C
100
AcDbDictionary
281
     1
  0
DICTIONARY
  5
1A
102
{ACAD_REACTORS
330
C
102
}
330
C
100
AcDbDictionary
281
     1
  3
Layout1
350
1E
  3
Layout2
350
26
  3
Model
350
22
  0
DICTIONARY
  5
3B
102
{ACAD_REACTORS
330
C
102
}
330
C
100
AcDbDictionary
281
     1
  3
ByBlock
350
3D
  3
ByLayer
350
3C
  3
Global
350
3E
  0
DICTIONARY
  5
11A
102
{ACAD_REACTORS
330
C
102
}
330
C
100
AcDbDictionary
281
     1
  0
DICTIONARY
  5
17
102
{ACAD_REACTORS
330
C
102
}
330
C
100
AcDbDictionary
281
     1
  3
Standard
350
18
  0
DICTIONARY
  5
19
102
{ACAD_REACTORS
330
C
102
}
330
C
100
AcDbDictionary
281
     1
  0
ACDBDICTIONARYWDFLT
  5
E
102
{ACAD_REACTORS
330
C
102
}
330
C
100
AcDbDictionary
281
     1
  3
Normal
350
F
100
AcDbDictionaryWithDefault
340
F
  0
DICTIONARY
  5
119
102
{ACAD_REACTORS
330
C
102
}
330
C
100
AcDbDictionary
281
     1
  0
DICTIONARY
  5
2A
102
{ACAD_REACTORS
330
C
102
}
330
C
100
AcDbDictionary
281
     1
  3
2dWireframe
350
2F
  3
3D Hidden
350
31
  3
3dWireframe
350
30
  3
Basic
350
32
  3
Brighten
350
36
  3
ColorChange
350
3A
  3
Conceptual
350
34
  3
Dim
350
35
  3
Facepattern
350
39
  3
Flat
350
2B
  3
FlatWithEdges
350
2C
  3
Gouraud
350
2D
  3
GouraudWithEdges
350
2E
  3
Linepattern
350
38
  3
Realistic
350
33
  3
Thicken
350
37
  0
LAYOUT
  5
1E
102
{ACAD_REACTORS
330
1A
102
}
330
1A
100
AcDbPlotSettings
  1

  2
none_device
  4

  6

 40
0.0
 41
0.0
 42
0.0
 43
0.0
 44
0.0
 45
0.0
 46
0.0
 47
0.0
 48
0.0
 49
0.0
140
0.0
141
0.0
142
1.0
143
1.0
 70
   688
 72
     0
 73
     0
 74
     5
  7

 75
    16
 76
     0
 77
     2
 78
   300
147
1.0
148
0.0
149
0.0
100
AcDbLayout
  1
Layout1
 70
     1
 71
     1
 10
0.0
 20
0.0
 11
12.0
 21
9.0
 12
0.0
 22
0.0
 32
0.0
 14
1.000000000000000E+20
 24
1.000000000000000E+20
 34
1.000000000000000E+20
 15
-1.000000000000000E+20
 25
-1.000000000000000E+20
 35
-1.000000000000000E+20
146
0.0
 13
0.0
 23
0.0
 33
0.0
 16
1.0
 26
0.0
 36
0.0
 17
0.0
 27
1.0
 37
0.0
 76
     0
330
1B
  0
LAYOUT
  5
26
102
{ACAD_REACTORS
330
1A
102
}
330
1A
100
AcDbPlotSettings
  1

  2
none_device
  4

  6

 40
0.0
 41
0.0
 42
0.0
 43
0.0
 44
0.0
 45
0.0
 46
0.0
 47
0.0
 48
0.0
 49
0.0
140
0.0
141
0.0
142
1.0
143
1.0
 70
   688
 72
     0
 73
     0
 74
     5
  7

 75
    16
 76
     0
 77
     2
 78
   300
147
1.0
148
0.0
149
0.0
100
AcDbLayout
  1
Layout2
 70
     1
 71
     2
 10
0.0
 20
0.0
 11
0.0
 21
0.0
 12
0.0
 22
0.0
 32
0.0
 14
0.0
 24
0.0
 34
0.0
 15
0.0
 25
0.0
 35
0.0
146
0.0
 13
0.0
 23
0.0
 33
0.0
 16
1.0
 26
0.0
 36
0.0
 17
0.0
 27
1.0
 37
0.0
 76
     0
330
23
  0
LAYOUT
  5
22
102
{ACAD_REACTORS
330
1A
102
}
330
1A
100
AcDbPlotSettings
  1

  2
none_device
  4

  6

 40
0.0
 41
0.0
 42
0.0
 43
0.0
 44
0.0
 45
0.0
 46
0.0
 47
0.0
 48
0.0
 49
0.0
140
0.0
141
0.0
142
1.0
143
1.0
 70
  1712
 72
     0
 73
     0
 74
     0
  7

 75
     0
 76
     0
 77
     2
 78
   300
147
1.0
148
0.0
149
0.0
100
AcDbLayout
  1
Model
 70
     1
 71
     0
 10
0.0
 20
0.0
 11
12.0
 21
9.0
 12
0.0
 22
0.0
 32
0.0
 14
1.000000000000000E+20
 24
1.000000000000000E+20
 34
1.000000000000000E+20
 15
-1.000000000000000E+20
 25
-1.000000000000000E+20
 35
-1.000000000000000E+20
146
0.0
 13
0.0
 23
0.0
 33
0.0
 16
1.0
 26
0.0
 36
0.0
 17
0.0
 27
1.0
 37
0.0
 76
     0
330
1F
331
29
  0
MATERIAL
  5
3D
102
{ACAD_REACTORS
330
3B
102
}
330
3B
100
AcDbMaterial
  1
ByBlock
 72
     1
 94
      127
  0
MATERIAL
  5
3C
102
{ACAD_REACTORS
330
3B
102
}
330
3B
100
AcDbMaterial
  1
ByLayer
 72
     1
 94
      127
  0
MATERIAL
  5
3E
102
{ACAD_REACTORS
330
3B
102
}
330
3B
100
AcDbMaterial
  1
Global
 72
     1
 94
      127
  0
MLINESTYLE
  5
18
102
{ACAD_REACTORS
330
17
102
}
330
17
100
AcDbMlineStyle
  2
Standard
 70
     0
  3

 62
   256
 51
90.0
 52
90.0
 71
     2
 49
0.5
 62
   256
  6
BYLAYER
 49
-0.5
 62
   256
  6
BYLAYER
  0
ACDBPLACEHOLDER
  5
F
102
{ACAD_REACTORS
330
E
102
}
330
E
  0
VISUALSTYLE
  5
2F
102
{ACAD_REACTORS
330
2A
102
}
330
2A
100
AcDbVisualStyle
  2
2dWireframe
 70
     4
177
     2
291
     0
 71
     0
176
     1
 72
     2
176
     1
 73
     0
176
     1
 90
        0
176
     1
 40
-0.6
176
     1
 41
-30.0
176
     1
 62
     5
 63
     7
421
 16777215
176
     1
 74
     1
176
     1
 91
        4
176
     1
 64
     7
176
     1
 65
   257
176
     1
 75
     1
176
     1
175
     1
176
     1
 42
1.0
176
     1
 92
        0
176
     1
 66
   257
176
     1
 43
1.0
176
     1
 76
     1
176
     1
 77
     6
176
     1
 78
     2
176
     1
 67
     7
176
     1
 79
     5
176
     1
170
     0
176
     1
171
     0
176
     1
290
     0
176
     1
 93
        1
176
     1
 44
0.0
176
     1
173
     0
176
     1
  0
VISUALSTYLE
  5
31
102
{ACAD_REACTORS
330
2A
102
}
330
2A
100
AcDbVisualStyle
  2
3D Hidden
 70
     6
177
     2
291
     0
 71
     1
176
     1
 72
     2
176
     1
 73
     2
176
     1
 90
        0
176
     1
 40
-0.6
176
     1
 41
-30.0
176
     1
 62
     5
 63
     7
421
 16777215
176
     1
 74
     2
176
     1
 91
        2
176
     1
 64
     7
176
     1
 65
   257
176
     1
 75
     2
176
     1
175
     1
176
     1
 42
40.0
176
     1
 92
        0
176
     1
 66
   257
176
     1
 43
1.0
176
     1
 76
     1
176
     1
 77
     6
176
     1
 78
     2
176
     1
 67
     7
176
     1
 79
     3
176
     1
170
     0
176
     1
171
     0
176
     1
290
     0
176
     1
 93
        1
176
     1
 44
0.0
176
     1
173
     0
176
     1
  0
VISUALSTYLE
  5
30
102
{ACAD_REACTORS
330
2A
102
}
330
2A
100
AcDbVisualStyle
  2
3dWireframe
 70
     5
177
     2
291
     0
 71
     0
176
     1
 72
     2
176
     1
 73
     0
176
     1
 90
        0
176
     1
 40
-0.6
176
     1
 41
-30.0
176
     1
 62
     5
 63
     7
421
 16777215
176
     1
 74
     1
176
     1
 91
        4
176
     1
 64
     7
176
     1
 65
   257
176
     1
 75
     1
176
     1
175
     1
176
     1
 42
1.0
176
     1
 92
        0
176
     1
 66
   257
176
     1
 43
1.0
176
     1
 76
     1
176
     1
 77
     6
176
     1
 78
     2
176
     1
 67
     7
176
     1
 79
     5
176
     1
170
     0
176
     1
171
     0
176
     1
290
     0
176
     1
 93
        1
176
     1
 44
0.0
176
     1
173
     0
176
     1
  0
VISUALSTYLE
  5
32
102
{ACAD_REACTORS
330
2A
102
}
330
2A
100
AcDbVisualStyle
  2
Basic
 70
     7
177
     2
291
     1
 71
     1
176
     1
 72
     0
176
     1
 73
     1
176
     1
 90
        0
176
     1
 40
-0.6
176
     1
 41
-30.0
176
     1
 62
     5
 63
     7
421
 16777215
176
     1
 74
     0
176
     1
 91
        4
176
     1
 64
     7
176
     1
 65
   257
176
     1
 75
     1
176
     1
175
     1
176
     1
 42
1.0
176
     1
 92
        8
176
     1
 66
     7
176
     1
 43
1.0
176
     1
 76
     1
176
     1
 77
     6
176
     1
 78
     2
176
     1
 67
     7
176
     1
 79
     5
176
     1
170
     0
176
     1
171
     0
176
     1
290
     0
176
     1
 93
        1
176
     1
 44
0.0
176
     1
173
     0
176
     1
  0
VISUALSTYLE
  5
36
102
{ACAD_REACTORS
330
2A
102
}
330
2A
100
AcDbVisualStyle
  2
Brighten
 70
    12
177
     2
291
     1
 71
     2
176
     1
 72
     2
176
     1
 73
     0
176
     1
 90
        0
176
     1
 40
-0.6
176
     1
 41
-30.0
176
     1
 62
     5
 63
     7
421
 16777215
176
     1
 74
     1
176
     1
 91
        4
176
     1
 64
     7
176
     1
 65
   257
176
     1
 75
     1
176
     1
175
     1
176
     1
 42
1.0
176
     1
 92
        8
176
     1
 66
     7
176
     1
 43
1.0
176
     1
 76
     1
176
     1
 77
     6
176
     1
 78
     2
176
     1
 67
     7
176
     1
 79
     5
176
     1
170
     0
176
     1
171
     0
176
     1
290
     0
176
     1
 93
        1
176
     1
 44
50.0
176
     1
173
     0
176
     1
  0
VISUALSTYLE
  5
3A
102
{ACAD_REACTORS
330
2A
102
}
330
2A
100
AcDbVisualStyle
  2
ColorChange
 70
    16
177
     2
291
     1
 71
     2
176
     1
 72
     2
176
     1
 73
     3
176
     1
 90
        0
176
     1
 40
-0.6
176
     1
 41
-30.0
176
     1
 62
     5
 63
     8
421
  8421504
176
     1
 74
     1
176
     1
 91
        4
176
     1
 64
     7
176
     1
 65
   257
176
     1
 75
     1
176
     1
175
     1
176
     1
 42
1.0
176
     1
 92
        8
176
     1
 66
     8
424
  8421504
176
     1
 43
1.0
176
     1
 76
     1
176
     1
 77
     6
176
     1
 78
     2
176
     1
 67
     7
176
     1
 79
     5
176
     1
170
     0
176
     1
171
     0
176
     1
290
     0
176
     1
 93
        1
176
     1
 44
0.0
176
     1
173
     0
176
     1
  0
VISUALSTYLE
  5
34
102
{ACAD_REACTORS
330
2A
102
}
330
2A
100
AcDbVisualStyle
  2
Conceptual
 70
     9
177
     2
291
     0
 71
     3
176
     1
 72
     2
176
     1
 73
     0
176
     1
 90
        0
176
     1
 40
-0.6
176
     1
 41
-30.0
176
     1
 62
     5
 63
     7
421
 16777215
176
     1
 74
     2
176
     1
 91
        2
176
     1
 64
     7
176
     1
 65
   257
176
     1
 75
     1
176
     1
175
     1
176
     1
 42
40.0
176
     1
 92
        8
176
     1
 66
     7
176
     1
 43
1.0
176
     1
 76
     1
176
     1
 77
     6
176
     1
 78
     2
176
     1
 67
     7
176
     1
 79
     3
176
     1
170
     0
176
     1
171
     0
176
     1
290
     0
176
     1
 93
        1
176
     1
 44
0.0
176
     1
173
     0
176
     1
  0
VISUALSTYLE
  5
35
102
{ACAD_REACTORS
330
2A
102
}
330
2A
100
AcDbVisualStyle
  2
Dim
 70
    11
177
     2
291
     1
 71
     2
176
     1
 72
     2
176
     1
 73
     0
176
     1
 90
        0
176
     1
 40
-0.6
176
     1
 41
-30.0
176
     1
 62
     5
 63
     7
421
 16777215
176
     1
 74
     1
176
     1
 91
        4
176
     1
 64
     7
176
     1
 65
   257
176
     1
 75
     1
176
     1
175
     1
176
     1
 42
1.0
176
     1
 92
        8
176
     1
 66
     7
176
     1
 43
1.0
176
     1
 76
     1
176
     1
 77
     6
176
     1
 78
     2
176
     1
 67
     7
176
     1
 79
     5
176
     1
170
     0
176
     1
171
     0
176
     1
290
     0
176
     1
 93
        1
176
     1
 44
-50.0
176
     1
173
     0
176
     1
  0
VISUALSTYLE
  5
39
102
{ACAD_REACTORS
330
2A
102
}
330
2A
100
AcDbVisualStyle
  2
Facepattern
 70
    15
177
     2
291
     1
 71
     2
176
     1
 72
     2
176
     1
 73
     0
176
     1
 90
        0
176
     1
 40
-0.6
176
     1
 41
-30.0
176
     1
 62
     5
 63
     7
421
 16777215
176
     1
 74
     1
176
     1
 91
        4
176
     1
 64
     7
176
     1
 65
   257
176
     1
 75
     1
176
     1
175
     1
176
     1
 42
1.0
176
     1
 92
        8
176
     1
 66
     7
176
     1
 43
1.0
176
     1
 76
     1
176
     1
 77
     6
176
     1
 78
     2
176
     1
 67
     7
176
     1
 79
     5
176
     1
170
     0
176
     1
171
     0
176
     1
290
     0
176
     1
 93
        1
176
     1
 44
0.0
176
     1
173
     0
176
     1
  0
VISUALSTYLE
  5
2B
102
{ACAD_REACTORS
330
2A
102
}
330
2A
100
AcDbVisualStyle
  2
Flat
 70
     0
177
     2
291
     1
 71
     2
176
     1
 72
     1
176
     1
 73
     1
176
     1
 90
        2
176
     1
 40
-0.6
176
     1
 41
30.0
176
     1
 62
     5
 63
     7
421
 16777215
176
     1
 74
     0
176
     1
 91
        4
176
     1
 64
     7
176
     1
 65
   257
176
     1
 75
     1
176
     1
175
     1
176
     1
 42
1.0
176
     1
 92
        8
176
     1
 66
     7
176
     1
 43
1.0
176
     1
 76
     1
176
     1
 77
     6
176
     1
 78
     2
176
     1
 67
     7
176
     1
 79
     5
176
     1
170
     0
176
     1
171
     0
176
     1
290
     0
176
     1
 93
       13
176
     1
 44
0.0
176
     1
173
     0
176
     1
  0
VISUALSTYLE
  5
2C
102
{ACAD_REACTORS
330
2A
102
}
330
2A
100
AcDbVisualStyle
  2
FlatWithEdges
 70
     1
177
     2
291
     1
 71
     2
176
     1
 72
     1
176
     1
 73
     1
176
     1
 90
        2
176
     1
 40
-0.6
176
     1
 41
30.0
176
     1
 62
     5
 63
     7
421
 16777215
176
     1
 74
     1
176
     1
 91
        4
176
     1
 64
     7
176
     1
 65
   257
176
     1
 75
     1
176
     1
175
     1
176
     1
 42
1.0
176
     1
 92
        0
176
     1
 66
   257
176
     1
 43
1.0
176
     1
 76
     1
176
     1
 77
     6
176
     1
 78
     2
176
     1
 67
     7
176
     1
 79
     5
176
     1
170
     0
176
     1
171
     0
176
     1
290
     0
176
     1
 93
       13
176
     1
 44
0.0
176
     1
173
     0
176
     1
  0
VISUALSTYLE
  5
2D
102
{ACAD_REACTORS
330
2A
102
}
330
2A
100
AcDbVisualStyle
  2
Gouraud
 70
     2
177
     2
291
     1
 71
     2
176
     1
 72
     2
176
     1
 73
     1
176
     1
 90
        2
176
     1
 40
-0.6
176
     1
 41
30.0
176
     1
 62
     5
 63
     7
421
 16777215
176
     1
 74
     0
176
     1
 91
        4
176
     1
 64
     7
176
     1
 65
   257
176
     1
 75
     1
176
     1
175
     1
176
     1
 42
1.0
176
     1
 92
        0
176
     1
 66
     7
176
     1
 43
1.0
176
     1
 76
     1
176
     1
 77
     6
176
     1
 78
     2
176
     1
 67
     7
176
     1
 79
     5
176
     1
170
     0
176
     1
171
     0
176
     1
290
     0
176
     1
 93
       13
176
     1
 44
0.0
176
     1
173
     0
176
     1
  0
VISUALSTYLE
  5
2E
102
{ACAD_REACTORS
330
2A
102
}
330
2A
100
AcDbVisualStyle
  2
GouraudWithEdges
 70
     3
177
     2
291
     1
 71
     2
176
     1
 72
     2
176
     1
 73
     1
176
     1
 90
        2
176
     1
 40
-0.6
176
     1
 41
30.0
176
     1
 62
     5
 63
     7
421
 16777215
176
     1
 74
     1
176
     1
 91
        4
176
     1
 64
     7
176
     1
 65
   257
176
     1
 75
     1
176
     1
175
     1
176
     1
 42
1.0
176
     1
 92
        0
176
     1
 66
   257
176
     1
 43
1.0
176
     1
 76
     1
176
     1
 77
     6
176
     1
 78
     2
176
     1
 67
     7
176
     1
 79
     5
176
     1
170
     0
176
     1
171
     0
176
     1
290
     0
176
     1
 93
       13
176
     1
 44
0.0
176
     1
173
     0
176
     1
  0
VISUALSTYLE
  5
38
102
{ACAD_REACTORS
330
2A
102
}
330
2A
100
AcDbVisualStyle
  2
Linepattern
 70
    14
177
     2
291
     1
 71
     2
176
     1
 72
     2
176
     1
 73
     0
176
     1
 90
        0
176
     1
 40
-0.6
176
     1
 41
-30.0
176
     1
 62
     5
 63
     7
421
 16777215
176
     1
 74
     1
176
     1
 91
        4
176
     1
 64
     7
176
     1
 65
   257
176
     1
 75
     7
176
     1
175
     7
176
     1
 42
1.0
176
     1
 92
        8
176
     1
 66
     7
176
     1
 43
1.0
176
     1
 76
     1
176
     1
 77
     6
176
     1
 78
     2
176
     1
 67
     7
176
     1
 79
     5
176
     1
170
     0
176
     1
171
     0
176
     1
290
     0
176
     1
 93
        1
176
     1
 44
0.0
176
     1
173
     0
176
     1
  0
VISUALSTYLE
  5
33
102
{ACAD_REACTORS
330
2A
102
}
330
2A
100
AcDbVisualStyle
  2
Realistic
 70
     8
177
     2
291
     0
 71
     2
176
     1
 72
     2
176
     1
 73
     0
176
     1
 90
        0
176
     1
 40
-0.6
176
     1
 41
-30.0
176
     1
 62
     5
 63
     7
421
 16777215
176
     1
 74
     1
176
     1
 91
        0
176
     1
 64
     7
176
     1
 65
   257
176
     1
 75
     1
176
     1
175
     1
176
     1
 42
1.0
176
     1
 92
        8
176
     1
 66
     8
424
  7895160
176
     1
 43
1.0
176
     1
 76
     1
176
     1
 77
     6
176
     1
 78
     2
176
     1
 67
     7
176
     1
 79
     5
176
     1
170
     0
176
     1
171
     0
176
     1
290
     0
176
     1
 93
       13
176
     1
 44
0.0
176
     1
173
     0
176
     1
  0
VISUALSTYLE
  5
37
102
{ACAD_REACTORS
330
2A
102
}
330
2A
100
AcDbVisualStyle
  2
Thicken
 70
    13
177
     2
291
     1
 71
     2
176
     1
 72
     2
176
     1
 73
     0
176
     1
 90
        0
176
     1
 40
-0.6
176
     1
 41
-30.0
176
     1
 62
     5
 63
     7
421
 16777215
176
     1
 74
     1
176
     1
 91
        4
176
     1
 64
     7
176
     1
 65
   257
176
     1
 75
     1
176
     1
175
     1
176
     1
 42
1.0
176
     1
 92
       12
176
     1
 66
     7
176
     1
 43
1.0
176
     1
 76
     1
176
     1
 77
     6
176
     1
 78
     2
176
     1
 67
     7
176
     1
 79
     5
176
     1
170
     0
176
     1
171
     0
176
     1
290
     0
176
     1
 93
        1
176
     1
 44
0.0
176
     1
173
     0
176
     1
  0
ENDSEC
  0
EOF
