  0
SECTION
  2
HEADER
  9
$ACADVER
  1
AC1024
  9
$ACADMAINTVER
 70
     6
  9
$DWGCODEPAGE
  3
ANSI_1252
  9
$INSBASE
 10
0.0
 20
0.0
 30
0.0
  9
$EXTMIN
 10
1.000000000000000E+20
 20
1.000000000000000E+20
 30
1.000000000000000E+20
  9
$EXTMAX
 10
-1.000000000000000E+20
 20
-1.000000000000000E+20
 30
-1.000000000000000E+20
  9
$LIMMIN
 10
0.0
 20
0.0
  9
$LIMMAX
 10
12.0
 20
9.0
  9
$ORTHOMODE
 70
     0
  9
$REGENMODE
 70
     1
  9
$FILLMODE
 70
     1
  9
$QTEXTMODE
 70
     0
  9
$MIRRTEXT
 70
     1
  9
$LTSCALE
 40
1.0
  9
$ATTMODE
 70
     1
  9
$TEXTSIZE
 40
0.2
  9
$TRACEWID
 40
0.05
  9
$TEXTSTYLE
  7
Standard
  9
$CLAYER
  8
0
  9
$CELTYPE
  6
ByLayer
  9
$CECOLOR
 62
   256
  9
$CELTSCALE
 40
1.0
  9
$DISPSILH
 70
     0
  9
$DIMSCALE
 40
1.0
  9
$DIMASZ
 40
0.18
  9
$DIMEXO
 40
0.0625
  9
$DIMDLI
 40
0.38
  9
$DIMRND
 40
0.0
  9
$DIMDLE
 40
0.0
  9
$DIMEXE
 40
0.18
  9
$DIMTP
 40
0.0
  9
$DIMTM
 40
0.0
  9
$DIMTXT
 40
0.18
  9
$DIMCEN
 40
0.09
  9
$DIMTSZ
 40
0.0
  9
$DIMTOL
 70
     0
  9
$DIMLIM
 70
     0
  9
$DIMTIH
 70
     1
  9
$DIMTOH
 70
     1
  9
$DIMSE1
 70
     0
  9
$DIMSE2
 70
     0
  9
$DIMTAD
 70
     0
  9
$DIMZIN
 70
     0
  9
$DIMBLK
  1

  9
$DIMASO
 70
     1
  9
$DIMSHO
 70
     1
  9
$DIMPOST
  1

  9
$DIMAPOST
  1

  9
$DIMALT
 70
     0
  9
$DIMALTD
 70
     2
  9
$DIMALTF
 40
25.4
  9
$DIMLFAC
 40
1.0
  9
$DIMTOFL
 70
     0
  9
$DIMTVP
 40
0.0
  9
$DIMTIX
 70
     0
  9
$DIMSOXD
 70
     0
  9
$DIMSAH
 70
     0
  9
$DIMBLK1
  1

  9
$DIMBLK2
  1

  9
$DIMSTYLE
  2
Standard
  9
$DIMCLRD
 70
     0
  9
$DIMCLRE
 70
     0
  9
$DIMCLRT
 70
     0
  9
$DIMTFAC
 40
1.0
  9
$DIMGAP
 40
0.09
  9
$DIMJUST
 70
     0
  9
$DIMSD1
 70
     0
  9
$DIMSD2
 70
     0
  9
$DIMTOLJ
 70
     1
  9
$DIMTZIN
 70
     0
  9
$DIMALTZ
 70
     0
  9
$DIMALTTZ
 70
     0
  9
$DIMUPT
 70
     0
  9
$DIMDEC
 70
     4
  9
$DIMTDEC
 70
     4
  9
$DIMALTU
 70
     2
  9
$DIMALTTD
 70
     2
  9
$DIMTXSTY
  7
Standard
  9
$DIMAUNIT
 70
     0
  9
$DIMADEC
 70
     0
  9
$DIMALTRND
 40
0.0
  9
$DIMAZIN
 70
     0
  9
$DIMDSEP
 70
    46
  9
$DIMATFIT
 70
     3
  9
$DIMFRAC
 70
     0
  9
$DIMLDRBLK
  1

  9
$DIMLUNIT
 70
     2
  9
$DIMLWD
 70
    -2
  9
$DIMLWE
 70
    -2
  9
$DIMTMOVE
 70
     0
  9
$DIMFXL
 40
1.0
  9
$DIMFXLON
 70
     0
  9
$DIMJOGANG
 40
0.7853981633974483
  9
$DIMTFILL
 70
     0
  9
$DIMTFILLCLR
 70
     0
  9
$DIMARCSYM
 70
     0
  9
$DIMLTYPE
  6

  9
$DIMLTEX1
  6

  9
$DIMLTEX2
  6

  9
$DIMTXTDIRECTION
 70
     0
  9
$LUNITS
 70
     2
  9
$LUPREC
 70
     4
  9
$SKETCHINC
 40
0.1
  9
$FILLETRAD
 40
0.5
  9
$AUNITS
 70
     0
  9
$AUPREC
 70
     0
  9
$MENU
  1
.
  9
$ELEVATION
 40
0.0
  9
$PELEVATION
 40
0.0
  9
$THICKNESS
 40
0.0
  9
$LIMCHECK
 70
     0
  9
$CHAMFERA
 40
0.5
  9
$CHAMFERB
 40
0.5
  9
$CHAMFERC
 40
1.0
  9
$CHAMFERD
 40
0.0
  9
$SKPOLY
 70
     0
  9
$TDCREATE
 40
2459493.004427604
  9
$TDUCREATE
 40
2459492.671094271
  9
$TDUPDATE
 40
2459493.004428206
  9
$TDUUPDATE
 40
2459492.671094873
  9
$TDINDWG
 40
0.0000000116
  9
$TDUSRTIMER
 40
0.0000000116
  9
$USRTIMER
 70
     1
  9
$ANGBASE
 50
0.0
  9
$ANGDIR
 70
     0
  9
$PDMODE
 70
     0
  9
$PDSIZE
 40
0.0
  9
$PLINEWID
 40
0.0
  9
$SPLFRAME
 70
     0
  9
$SPLINETYPE
 70
     6
  9
$SPLINESEGS
 70
     8
  9
$HANDSEED
  5
11F
  9
$SURFTAB1
 70
     6
  9
$SURFTAB2
 70
     6
  9
$SURFTYPE
 70
     6
  9
$SURFU
 70
     6
  9
$SURFV
 70
     6
  9
$UCSBASE
  2

  9
$UCSNAME
  2

  9
$UCSORG
 10
0.0
 20
0.0
 30
0.0
  9
$UCSXDIR
 10
1.0
 20
0.0
 30
0.0
  9
$UCSYDIR
 10
0.0
 20
1.0
 30
0.0
  9
$UCSORTHOREF
  2

  9
$UCSORTHOVIEW
 70
     0
  9
$UCSORGTOP
 10
0.0
 20
0.0
 30
0.0
  9
$UCSORGBOTTOM
 10
0.0
 20
0.0
 30
0.0
  9
$UCSORGLEFT
 10
0.0
 20
0.0
 30
0.0
  9
$UCSORGRIGHT
 10
0.0
 20
0.0
 30
0.0
  9
$UCSORGFRONT
 10
0.0
 20
0.0
 30
0.0
  9
$UCSORGBACK
 10
0.0
 20
0.0
 30
0.0
  9
$PUCSBASE
  2

  9
$PUCSNAME
  2

  9
$PUCSORG
 10
0.0
 20
0.0
 30
0.0
  9
$PUCSXDIR
 10
1.0
 20
0.0
 30
0.0
  9
$PUCSYDIR
 10
0.0
 20
1.0
 30
0.0
  9
$PUCSORTHOREF
  2

  9
$PUCSORTHOVIEW
 70
     0
  9
$PUCSORGTOP
 10
0.0
 20
0.0
 30
0.0
  9
$PUCSORGBOTTOM
 10
0.0
 20
0.0
 30
0.0
  9
$PUCSORGLEFT
 10
0.0
 20
0.0
 30
0.0
  9
$PUCSORGRIGHT
 10
0.0
 20
0.0
 30
0.0
  9
$PUCSORGFRONT
 10
0.0
 20
0.0
 30
0.0
  9
$PUCSORGBACK
 10
0.0
 20
0.0
 30
0.0
  9
$USERI1
 70
     0
  9
$USERI2
 70
     0
  9
$USERI3
 70
     0
  9
$USERI4
 70
     0
  9
$USERI5
 70
     0
  9
$USERR1
 40
0.0
  9
$USERR2
 40
0.0
  9
$USERR3
 40
0.0
  9
$USERR4
 40
0.0
  9
$USERR5
 40
0.0
  9
$WORLDVIEW
 70
     1
  9
$SHADEDGE
 70
     3
  9
$SHADEDIF
 70
    70
  9
$TILEMODE
 70
     1
  9
$MAXACTVP
 70
    64
  9
$PINSBASE
 10
0.0
 20
0.0
 30
0.0
  9
$PLIMCHECK
 70
     0
  9
$PEXTMIN
 10
1.000000000000000E+20
 20
1.000000000000000E+20
 30
1.000000000000000E+20
  9
$PEXTMAX
 10
-1.000000000000000E+20
 20
-1.000000000000000E+20
 30
-1.000000000000000E+20
  9
$PLIMMIN
 10
0.0
 20
0.0
  9
$PLIMMAX
 10
12.0
 20
9.0
  9
$UNITMODE
 70
     0
  9
$VISRETAIN
 70
     1
  9
$PLINEGEN
 70
     0
  9
$PSLTSCALE
 70
     1
  9
$TREEDEPTH
 70
  3020
  9
$CMLSTYLE
  2
Standard
  9
$CMLJUST
 70
     0
  9
$CMLSCALE
 40
1.0
  9
$PROXYGRAPHICS
 70
     1
  9
$MEASUREMENT
 70
     0
  9
$CELWEIGHT
370
    -1
  9
$ENDCAPS
280
     0
  9
$JOINSTYLE
280
     0
  9
$LWDISPLAY
290
     1
  9
$INSUNITS
 70
     1
  9
$HYPERLINKBASE
  1

  9
$STYLESHEET
  1

  9
$XEDIT
290
     1
  9
$CEPSNTYPE
380
     0
  9
$PSTYLEMODE
290
     1
  9
$FINGERPRINTGUID
  2
{E9CB850A-7256-4EEA-B9F0-40A16C44B0A2}
  9
$VERSIONGUID
  2
{FAEB1C32-E019-11D5-929B-00C0DF256EC4}
  9
$EXTNAMES
290
     1
  9
$PSVPSCALE
 40
0.0
  9
$OLESTARTUP
290
     0
  9
$SORTENTS
280
   127
  9
$INDEXCTL
280
     0
  9
$HIDETEXT
280
     1
  9
$XCLIPFRAME
280
     2
  9
$HALOGAP
280
     0
  9
$OBSCOLOR
 70
   257
  9
$OBSLTYPE
280
     0
  9
$INTERSECTIONDISPLAY
280
     0
  9
$INTERSECTIONCOLOR
 70
   257
  9
$DIMASSOC
280
     2
  9
$PROJECTNAME
  1

  9
$CAMERADISPLAY
290
     0
  9
$LENSLENGTH
 40
50.0
  9
$CAMERAHEIGHT
 40
0.0
  9
$STEPSPERSEC
 40
2.0
  9
$STEPSIZE
 40
6.0
  9
$3DDWFPREC
 40
2.0
  9
$PSOLWIDTH
 40
0.25
  9
$PSOLHEIGHT
 40
4.0
  9
$LOFTANG1
 40
1.570796326794897
  9
$LOFTANG2
 40
1.570796326794897
  9
$LOFTMAG1
 40
0.0
  9
$LOFTMAG2
 40
0.0
  9
$LOFTPARAM
 70
     7
  9
$LOFTNORMALS
280
     1
  9
$LATITUDE
 40
37.795
  9
$LONGITUDE
 40
-122.394
  9
$NORTHDIRECTION
 40
0.0
  9
$TIMEZONE
 70
 -8000
  9
$LIGHTGLYPHDISPLAY
280
     1
  9
$TILEMODELIGHTSYNCH
280
     1
  9
$CMATERIAL
347
3C
  9
$SOLIDHIST
280
     1
  9
$SHOWHIST
280
     1
  9
$DWFFRAME
280
     2
  9
$DGNFRAME
280
     2
  9
$REALWORLDSCALE
290
     1
  9
$INTERFERECOLOR
 62
   256
  9
$CSHADOW
280
     0
  9
$SHADOWPLANELOCATION
 40
0.0
  0
ENDSEC
  0
SECTION
  2
CLASSES
  0
CLASS
  1
ACDBDICTIONARYWDFLT
  2
AcDbDictionaryWithDefault
  3
ObjectDBX Classes
 90
        0
 91
        4
280
     0
281
     0
  0
CLASS
  1
VISUALSTYLE
  2
AcDbVisualStyle
  3
ObjectDBX Classes
 90
     4095
 91
        4
280
     0
281
     0
  0
CLASS
  1
MATERIAL
  2
AcDbMaterial
  3
ObjectDBX Classes
 90
     1153
 91
        4
280
     0
281
     0
  0
CLASS
  1
SUN
  2
AcDbSun
  3
SCENEOE
 90
     1024
 91
        4
280
     0
281
     0
  0
ENDSEC
  0
SECTION
  2
TABLES
  0
TABLE
  2
VPORT
  5
8
330
0
100
AcDbSymbolTable
 70
     1
  0
VPORT
  5
29
330
8
100
AcDbSymbolTableRecord
100
AcDbViewportTableRecord
  2
*Active
 70
     0
 10
0.0
 20
0.0
 11
1.0
 21
1.0
 12
0.0
 22
0.0
 13
0.0
 23
0.0
 14
0.5
 24
0.5
 15
0.5
 25
0.5
 16
0.0
 26
0.0
 36
1.0
 17
2.5
 27
-2.5
 37
0.0
 40
5.0
 41
1.0
 42
50.0
 43
0.0
 44
0.0
 50
0.0
 51
0.0
 71
     0
 72
   100
 73
     1
 74
     3
 75
     0
 76
     0
 77
     0
 78
     0
281
     0
 65
     1
110
0.0
120
0.0
130
0.0
111
1.0
121
0.0
131
0.0
112
0.0
122
1.0
132
0.0
 79
     0
146
0.0
 60
     3
 61
     5
292
     1
282
     1
141
0.0
142
0.0
 63
   250
361
3F
  0
ENDTAB
  0
TABLE
  2
LTYPE
  5
5
330
0
100
AcDbSymbolTable
 70
     1
  0
LTYPE
  5
14
330
5
100
AcDbSymbolTableRecord
100
AcDbLinetypeTableRecord
  2
ByBlock
 70
     0
  3

 72
    65
 73
     0
 40
0.0
  0
LTYPE
  5
15
330
5
100
AcDbSymbolTableRecord
100
AcDbLinetypeTableRecord
  2
ByLayer
 70
     0
  3

 72
    65
 73
     0
 40
0.0
  0
LTYPE
  5
16
330
5
100
AcDbSymbolTableRecord
100
AcDbLinetypeTableRecord
  2
Continuous
 70
     0
  3
Solid line
 72
    65
 73
     0
 40
0.0
  0
ENDTAB
  0
TABLE
  2
LAYER
  5
2
330
0
100
AcDbSymbolTable
 70
     2
  0
LAYER
  5
10
330
2
100
AcDbSymbolTableRecord
100
AcDbLayerTableRecord
  2
0
 70
     0
 62
     7
  6
Continuous
370
    -3
390
F
347
3E
  0
LAYER
  5
40
330
2
100
AcDbSymbolTableRecord
100
AcDbLayerTableRecord
  2
Layer 1
 70
     0
 62
     7
  6
Continuous
370
    -3
390
F
347
3E
  0
ENDTAB
  0
TABLE
  2
STYLE
  5
3
330
0
100
AcDbSymbolTable
 70
     1
  0
STYLE
  5
11
330
3
100
AcDbSymbolTableRecord
100
AcDbTextStyleTableRecord
  2
Standard
 70
     0
 40
0.0
 41
1.0
 50
0.0
 71
     0
 42
0.2
  3
txt
  4

  0
ENDTAB
  0
TABLE
  2
VIEW
  5
6
330
0
100
AcDbSymbolTable
 70
     0
  0
ENDTAB
  0
TABLE
  2
UCS
  5
7
330
0
100
AcDbSymbolTable
 70
     0
  0
ENDTAB
  0
TABLE
  2
APPID
  5
9
330
0
100
AcDbSymbolTable
 70
     1
  0
APPID
  5
12
330
9
100
AcDbSymbolTableRecord
100
AcDbRegAppTableRecord
  2
ACAD
 70
     0
  0
ENDTAB
  0
TABLE
  2
DIMSTYLE
  5
A
330
0
100
AcDbSymbolTable
 70
     1
100
AcDbDimStyleTable
  0
DIMSTYLE
105
27
330
A
100
AcDbSymbolTableRecord
100
AcDbDimStyleTableRecord
  2
Standard
 70
     0
178
     0
340
11
  0
ENDTAB
  0
TABLE
  2
BLOCK_RECORD
  5
1
330
0
100
AcDbSymbolTable
 70
     6
  0
BLOCK_RECORD
  5
1F
330
1
100
AcDbSymbolTableRecord
100
AcDbBlockTableRecord
  2
*Model_Space
340
22
 70
     0
280
     1
281
     0
  0
BLOCK_RECORD
  5
1B
330
1
100
AcDbSymbolTableRecord
100
AcDbBlockTableRecord
  2
*Paper_Space
340
1E
 70
     0
280
     1
281
     0
  0
BLOCK_RECORD
  5
23
330
1
100
AcDbSymbolTableRecord
100
AcDbBlockTableRecord
  2
*Paper_Space0
340
26
 70
     0
280
     1
281
     0
  0
BLOCK_RECORD
  5
41
330
1
100
AcDbSymbolTableRecord
100
AcDbBlockTableRecord
  2
block 2
340
0
102
{BLKREFS
331
42
102
}
 70
     0
280
     1
281
     0
  0
BLOCK_RECORD
  5
45
330
1
100
AcDbSymbolTableRecord
100
AcDbBlockTableRecord
  2
block 3
340
0
102
{BLKREFS
331
46
102
}
 70
     0
280
     1
281
     0
  0
BLOCK_RECORD
  5
9B
330
1
100
AcDbSymbolTableRecord
100
AcDbBlockTableRecord
  2
block 4
340
0
102
{BLKREFS
331
9C
102
}
 70
     0
280
     1
281
     0
  0
BLOCK_RECORD
  5
FA
330
1
100
AcDbSymbolTableRecord
100
AcDbBlockTableRecord
  2
block 5
340
0
102
{BLKREFS
331
FB
102
}
 70
     0
280
     1
281
     0
  0
BLOCK_RECORD
  5
FE
330
1
100
AcDbSymbolTableRecord
100
AcDbBlockTableRecord
  2
block 6
340
0
102
{BLKREFS
331
FF
102
}
 70
     0
280
     1
281
     0
  0
ENDTAB
  0
ENDSEC
  0
SECTION
  2
BLOCKS
  0
BLOCK
  5
20
330
1F
100
AcDbEntity
  8
0
100
AcDbBlockBegin
  2
*Model_Space
 70
     0
 10
0.0
 20
0.0
 30
0.0
  3
*Model_Space
  1

  0
ENDBLK
  5
21
330
1F
100
AcDbEntity
  8
0
100
AcDbBlockEnd
  0
BLOCK
  5
1C
330
1B
100
AcDbEntity
 67
     1
  8
0
100
AcDbBlockBegin
  2
*Paper_Space
 70
     0
 10
0.0
 20
0.0
 30
0.0
  3
*Paper_Space
  1

  0
ENDBLK
  5
1D
330
1B
100
AcDbEntity
 67
     1
  8
0
100
AcDbBlockEnd
  0
BLOCK
  5
24
330
23
100
AcDbEntity
  8
0
100
AcDbBlockBegin
  2
*Paper_Space0
 70
     0
 10
0.0
 20
0.0
 30
0.0
  3
*Paper_Space0
  1

  0
ENDBLK
  5
25
330
23
100
AcDbEntity
  8
0
100
AcDbBlockEnd
  0
BLOCK
  5
43
330
41
100
AcDbEntity
  8
0
100
AcDbBlockBegin
  2
block 2
 70
     0
 10
0.0
 20
0.0
 30
0.0
  3
block 2
  1

  0
INSERT
  5
46
330
41
100
AcDbEntity
  8
Layer 1
100
AcDbBlockReference
  2
block 3
 10
0.0
 20
0.0
 30
0.0
  0
INSERT
  5
9C
330
41
100
AcDbEntity
  8
Layer 1
100
AcDbBlockReference
  2
block 4
 10
0.0
 20
0.0
 30
0.0
  0
INSERT
  5
FB
330
41
100
AcDbEntity
  8
Layer 1
100
AcDbBlockReference
  2
block 5
 10
0.0
 20
0.0
 30
0.0
  0
ENDBLK
  5
44
330
41
100
AcDbEntity
  8
0
100
AcDbBlockEnd
  0
BLOCK
  5
47
330
45
100
AcDbEntity
  8
0
100
AcDbBlockBegin
  2
block 3
 70
     0
 10
0.0
 20
0.0
 30
0.0
  3
block 3
  1

  0
SPLINE
  5
49
330
45
100
AcDbEntity
  8
Layer 1
370
     0
100
AcDbSpline
210
0.0
220
0.0
230
1.0
 70
    11
 71
     3
 72
    47
 73
    43
 74
     0
 42
0.0000000001
 43
0.0000000001
 12
1.0
 22
0.0
 32
0.0
 13
1.0
 23
0.0
 33
0.0
 40
0.0
 40
0.0
 40
0.0
 40
0.0
 40
1.0
 40
1.0
 40
1.0
 40
2.0
 40
2.0
 40
2.0
 40
3.0
 40
3.0
 40
3.0
 40
4.0
 40
4.0
 40
4.0
 40
5.0
 40
5.0
 40
5.0
 40
6.0
 40
6.0
 40
6.0
 40
7.0
 40
7.0
 40
7.0
 40
8.0
 40
8.0
 40
8.0
 40
9.0
 40
9.0
 40
9.0
 40
10.0
 40
10.0
 40
10.0
 40
11.0
 40
11.0
 40
11.0
 40
12.0
 40
12.0
 40
12.0
 40
13.0
 40
13.0
 40
13.0
 40
14.0
 40
14.0
 40
14.0
 40
14.0
 10
0.7850192388082683
 20
-3.094131079538581
 30
0.0
 10
0.7850192388082683
 20
-3.161745817786014
 30
0.0
 10
0.7378115759597423
 20
-3.219449554993465
 30
0.0
 10
0.6363894685885675
 20
-3.219449554993465
 30
0.0
 10
0.556537534177917
 20
-3.219449554993465
 30
0.0
 10
0.484263356607951
 20
-3.176901331467434
 30
0.0
 10
0.4726041846874725
 20
-3.118027447622302
 30
0.0
 10
0.4726041846874725
 20
-3.118027447622302
 30
0.0
 10
0.5437152646958339
 20
-3.090634737777666
 30
0.0
 10
0.5437152646958339
 20
-3.090634737777666
 30
0.0
 10
0.5512930215365436
 20
-3.121523789383193
 30
0.0
 10
0.5868415124645909
 20
-3.14076776722052
 30
0.0
 10
0.6293967850667236
 20
-3.14076776722052
 30
0.0
 10
0.6766044479152621
 20
-3.14076776722052
 30
0.0
 10
0.7022560359555428
 20
-3.122115911778185
 30
0.0
 10
0.7022560359555428
 20
-3.097049397056758
 30
0.0
 10
0.7022560359555428
 20
-3.072575004730349
 30
0.0
 10
0.6824340338755139
 20
-3.062071881295322
 30
0.0
 10
0.6159894422657872
 20
-3.042263977367535
 30
0.0
 10
0.522145091735322
 20
-3.014279145127931
 30
0.0
 10
0.4836782832890852
 20
-2.978723605123731
 30
0.0
 10
0.4836782832890852
 20
-2.918693672793122
 30
0.0
 10
0.4836782832890852
 20
-2.865064301589352
 30
0.0
 10
0.5227301650541878
 20
-2.800960003255088
 30
0.0
 10
0.6276486141862784
 20
-2.800960003255088
 30
0.0
 10
0.690011790716211
 20
-2.800960003255088
 30
0.0
 10
0.7535451138838627
 20
-2.834175249983824
 30
0.0
 10
0.7652042858043538
 20
-2.892457011433963
 30
0.0
 10
0.7652042858043538
 20
-2.892457011433963
 30
0.0
 10
0.6964264499953161
 20
-2.918101550398129
 30
0.0
 10
0.6964264499953161
 20
-2.918101550398129
 30
0.0
 10
0.69118193735393
 20
-2.892457011433963
 30
0.0
 10
0.6579525924729397
 20
-2.8784716443903
 30
0.0
 10
0.6282266384290046
 20
-2.877893620147562
 30
0.0
 10
0.595589415943007
 20
-2.877301497752569
 30
0.0
 10
0.5658634618990719
 20
-2.888960669673073
 30
0.0
 10
0.5658634618990719
 20
-2.915775355274945
 30
0.0
 10
0.5658634618990719
 20
-2.935005234959994
 30
0.0
 10
0.5810189755804787
 20
-2.947256529275465
 30
0.0
 10
0.6451303229908691
 20
-2.967064433203253
 30
0.0
 10
0.7255673307203728
 20
-2.991552923681966
 30
0.0
 10
0.7850192388082683
 20
-3.018367609283839
 30
0.0
 10
0.7850192388082683
 20
-3.094131079538581
 30
0.0
  0
HATCH
  5
4A
330
45
100
AcDbEntity
  8
Layer 1
 62
   158
420
   795456
100
AcDbHatch
 10
0.0
 20
0.0
 30
0.0
210
0.0
220
0.0
230
1.0
  2
SOLID
 70
     1
 71
     0
 91
        1
 92
        1
 93
        1
 72
     4
 94
        3
 73
     0
 74
     1
 95
       47
 96
       43
 40
0.0
 40
0.0
 40
0.0
 40
0.0
 40
1.0
 40
1.0
 40
1.0
 40
2.0
 40
2.0
 40
2.0
 40
3.0
 40
3.0
 40
3.0
 40
4.0
 40
4.0
 40
4.0
 40
5.0
 40
5.0
 40
5.0
 40
6.0
 40
6.0
 40
6.0
 40
7.0
 40
7.0
 40
7.0
 40
8.0
 40
8.0
 40
8.0
 40
9.0
 40
9.0
 40
9.0
 40
10.0
 40
10.0
 40
10.0
 40
11.0
 40
11.0
 40
11.0
 40
12.0
 40
12.0
 40
12.0
 40
13.0
 40
13.0
 40
13.0
 40
14.0
 40
14.0
 40
14.0
 40
14.0
 10
0.7850192388082683
 20
-3.094131079538581
 10
0.7850192388082683
 20
-3.161745817786014
 10
0.7378115759597423
 20
-3.219449554993465
 10
0.6363894685885675
 20
-3.219449554993465
 10
0.556537534177917
 20
-3.219449554993465
 10
0.484263356607951
 20
-3.176901331467434
 10
0.4726041846874725
 20
-3.118027447622302
 10
0.4726041846874725
 20
-3.118027447622302
 10
0.5437152646958339
 20
-3.090634737777666
 10
0.5437152646958339
 20
-3.090634737777666
 10
0.5512930215365436
 20
-3.121523789383193
 10
0.5868415124645909
 20
-3.14076776722052
 10
0.6293967850667236
 20
-3.14076776722052
 10
0.6766044479152621
 20
-3.14076776722052
 10
0.7022560359555428
 20
-3.122115911778185
 10
0.7022560359555428
 20
-3.097049397056758
 10
0.7022560359555428
 20
-3.072575004730349
 10
0.6824340338755139
 20
-3.062071881295322
 10
0.6159894422657872
 20
-3.042263977367535
 10
0.522145091735322
 20
-3.014279145127931
 10
0.4836782832890852
 20
-2.978723605123731
 10
0.4836782832890852
 20
-2.918693672793122
 10
0.4836782832890852
 20
-2.865064301589352
 10
0.5227301650541878
 20
-2.800960003255088
 10
0.6276486141862784
 20
-2.800960003255088
 10
0.690011790716211
 20
-2.800960003255088
 10
0.7535451138838627
 20
-2.834175249983824
 10
0.7652042858043538
 20
-2.892457011433963
 10
0.7652042858043538
 20
-2.892457011433963
 10
0.6964264499953161
 20
-2.918101550398129
 10
0.6964264499953161
 20
-2.918101550398129
 10
0.69118193735393
 20
-2.892457011433963
 10
0.6579525924729397
 20
-2.8784716443903
 10
0.6282266384290046
 20
-2.877893620147562
 10
0.595589415943007
 20
-2.877301497752569
 10
0.5658634618990719
 20
-2.888960669673073
 10
0.5658634618990719
 20
-2.915775355274945
 10
0.5658634618990719
 20
-2.935005234959994
 10
0.5810189755804787
 20
-2.947256529275465
 10
0.6451303229908691
 20
-2.967064433203253
 10
0.7255673307203728
 20
-2.991552923681966
 10
0.7850192388082683
 20
-3.018367609283839
 10
0.7850192388082683
 20
-3.094131079538581
 97
        0
 97
        0
 75
     2
 76
     1
 98
        0
  0
SPLINE
  5
4B
330
45
100
AcDbEntity
  8
Layer 1
370
     0
100
AcDbSpline
210
0.0
220
0.0
230
1.0
 70
    11
 71
     3
 72
    17
 73
    13
 74
     0
 42
0.0000000001
 43
0.0000000001
 12
1.0
 22
0.0
 32
0.0
 13
1.0
 23
0.0
 33
0.0
 40
0.0
 40
0.0
 40
0.0
 40
0.0
 40
1.0
 40
1.0
 40
1.0
 40
2.0
 40
2.0
 40
2.0
 40
3.0
 40
3.0
 40
3.0
 40
4.0
 40
4.0
 40
4.0
 40
4.0
 10
1.233284088123507
 20
-3.009034632486545
 30
0.0
 10
1.233284088123507
 20
-3.126190277781865
 30
0.0
 10
1.152854129470092
 20
-3.217123359870255
 30
0.0
 10
1.035691435098657
 20
-3.217123359870255
 30
0.0
 10
0.9185357898033493
 20
-3.217123359870255
 30
0.0
 10
0.8375207578311068
 20
-3.126190277781865
 30
0.0
 10
0.8375207578311068
 20
-3.009034632486545
 30
0.0
 10
0.8375207578311068
 20
-2.891878987191224
 30
0.0
 10
0.9185357898033493
 20
-2.800960003255088
 30
0.0
 10
1.035691435098657
 20
-2.800960003255088
 30
0.0
 10
1.152854129470092
 20
-2.800960003255088
 30
0.0
 10
1.233284088123507
 20
-2.891878987191224
 30
0.0
 10
1.233284088123507
 20
-3.009034632486545
 30
0.0
  0
SPLINE
  5
4C
330
45
100
AcDbEntity
  8
Layer 1
370
     0
100
AcDbSpline
210
0.0
220
0.0
230
1.0
 70
    11
 71
     3
 72
    17
 73
    13
 74
     0
 42
0.0000000001
 43
0.0000000001
 12
1.0
 22
0.0
 32
0.0
 13
1.0
 23
0.0
 33
0.0
 40
0.0
 40
0.0
 40
0.0
 40
0.0
 40
1.0
 40
1.0
 40
1.0
 40
2.0
 40
2.0
 40
2.0
 40
3.0
 40
3.0
 40
3.0
 40
4.0
 40
4.0
 40
4.0
 40
4.0
 10
1.154017227031697
 20
-3.009034632486545
 30
0.0
 10
1.154017227031697
 20
-2.934427210717255
 30
0.0
 10
1.109720832625221
 20
-2.8784716443903
 30
0.0
 10
1.035691435098657
 20
-2.8784716443903
 30
0.0
 10
0.9610840133293802
 20
-2.8784716443903
 30
0.0
 10
0.9167876189229042
 20
-2.934427210717255
 30
0.0
 10
0.9167876189229042
 20
-3.009034632486545
 30
0.0
 10
0.9167876189229042
 20
-3.083064030013095
 30
0.0
 10
0.9610840133293802
 20
-3.13901959634005
 30
0.0
 10
1.035691435098657
 20
-3.13901959634005
 30
0.0
 10
1.109720832625221
 20
-3.13901959634005
 30
0.0
 10
1.154017227031697
 20
-3.083064030013095
 30
0.0
 10
1.154017227031697
 20
-3.009034632486545
 30
0.0
  0
HATCH
  5
4D
330
45
100
AcDbEntity
  8
Layer 1
 62
   158
420
   795456
100
AcDbHatch
 10
0.0
 20
0.0
 30
0.0
210
0.0
220
0.0
230
1.0
  2
SOLID
 70
     1
 71
     0
 91
        2
 92
        1
 93
        1
 72
     4
 94
        3
 73
     0
 74
     1
 95
       17
 96
       13
 40
0.0
 40
0.0
 40
0.0
 40
0.0
 40
1.0
 40
1.0
 40
1.0
 40
2.0
 40
2.0
 40
2.0
 40
3.0
 40
3.0
 40
3.0
 40
4.0
 40
4.0
 40
4.0
 40
4.0
 10
1.233284088123507
 20
-3.009034632486545
 10
1.233284088123507
 20
-3.126190277781865
 10
1.152854129470092
 20
-3.217123359870255
 10
1.035691435098657
 20
-3.217123359870255
 10
0.9185357898033493
 20
-3.217123359870255
 10
0.8375207578311068
 20
-3.126190277781865
 10
0.8375207578311068
 20
-3.009034632486545
 10
0.8375207578311068
 20
-2.891878987191224
 10
0.9185357898033493
 20
-2.800960003255088
 10
1.035691435098657
 20
-2.800960003255088
 10
1.152854129470092
 20
-2.800960003255088
 10
1.233284088123507
 20
-2.891878987191224
 10
1.233284088123507
 20
-3.009034632486545
 97
        0
 97
        0
 92
        1
 93
        1
 72
     4
 94
        3
 73
     0
 74
     1
 95
       17
 96
       13
 40
0.0
 40
0.0
 40
0.0
 40
0.0
 40
1.0
 40
1.0
 40
1.0
 40
2.0
 40
2.0
 40
2.0
 40
3.0
 40
3.0
 40
3.0
 40
4.0
 40
4.0
 40
4.0
 40
4.0
 10
1.154017227031697
 20
-3.009034632486545
 10
1.154017227031697
 20
-2.934427210717255
 10
1.109720832625221
 20
-2.8784716443903
 10
1.035691435098657
 20
-2.8784716443903
 10
0.9610840133293802
 20
-2.8784716443903
 10
0.9167876189229042
 20
-2.934427210717255
 10
0.9167876189229042
 20
-3.009034632486545
 10
0.9167876189229042
 20
-3.083064030013095
 10
0.9610840133293802
 20
-3.13901959634005
 10
1.035691435098657
 20
-3.13901959634005
 10
1.109720832625221
 20
-3.13901959634005
 10
1.154017227031697
 20
-3.083064030013095
 10
1.154017227031697
 20
-3.009034632486545
 97
        0
 97
        0
 75
     2
 76
     1
 98
        0
  0
POLYLINE
  5
4E
330
45
100
AcDbEntity
  8
Layer 1
370
     0
100
AcDb2dPolyline
 66
     1
 10
0.0
 20
0.0
 30
0.0
  0
VERTEX
  5
4F
330
4E
100
AcDbEntity
  8
Layer 1
370
     0
100
AcDbVertex
100
AcDb2dVertex
 10
1.550992998418602
 20
-3.138427473945082
 30
0.0
  0
VERTEX
  5
50
330
4E
100
AcDbEntity
  8
Layer 1
370
     0
100
AcDbVertex
100
AcDb2dVertex
 10
1.550992998418602
 20
-3.212456871471608
 30
0.0
  0
VERTEX
  5
51
330
4E
100
AcDbEntity
  8
Layer 1
370
     0
100
AcDbVertex
100
AcDb2dVertex
 10
1.3061856334691
 20
-3.212456871471608
 30
0.0
  0
VERTEX
  5
52
330
4E
100
AcDbEntity
  8
Layer 1
370
     0
100
AcDbVertex
100
AcDb2dVertex
 10
1.3061856334691
 20
-2.804456345016004
 30
0.0
  0
VERTEX
  5
53
330
4E
100
AcDbEntity
  8
Layer 1
370
     0
100
AcDbVertex
100
AcDb2dVertex
 10
1.38370432368044
 20
-2.804456345016004
 30
0.0
  0
VERTEX
  5
54
330
4E
100
AcDbEntity
  8
Layer 1
370
     0
100
AcDbVertex
100
AcDb2dVertex
 10
1.38370432368044
 20
-3.138427473945082
 30
0.0
  0
VERTEX
  5
55
330
4E
100
AcDbEntity
  8
Layer 1
370
     0
100
AcDbVertex
100
AcDb2dVertex
 10
1.550992998418602
 20
-3.138427473945082
 30
0.0
  0
SEQEND
  5
56
330
4E
100
AcDbEntity
  8
Layer 1
370
     0
  0
HATCH
  5
57
330
45
100
AcDbEntity
  8
Layer 1
 62
   158
420
   795456
100
AcDbHatch
 10
0.0
 20
0.0
 30
0.0
210
0.0
220
0.0
230
1.0
  2
SOLID
 70
     1
 71
     0
 91
        1
 92
        1
 93
        6
 72
     1
 10
1.550992998418602
 20
-3.138427473945082
 11
1.550992998418602
 21
-3.212456871471608
 72
     1
 10
1.550992998418602
 20
-3.212456871471608
 11
1.3061856334691
 21
-3.212456871471608
 72
     1
 10
1.3061856334691
 20
-3.212456871471608
 11
1.3061856334691
 21
-2.804456345016004
 72
     1
 10
1.3061856334691
 20
-2.804456345016004
 11
1.38370432368044
 21
-2.804456345016004
 72
     1
 10
1.38370432368044
 20
-2.804456345016004
 11
1.38370432368044
 21
-3.138427473945082
 72
     1
 10
1.38370432368044
 20
-3.138427473945082
 11
1.550992998418602
 21
-3.138427473945082
 97
        0
 75
     2
 76
     1
 98
        0
  0
POLYLINE
  5
58
330
45
100
AcDbEntity
  8
Layer 1
370
     0
100
AcDb2dPolyline
 66
     1
 10
0.0
 20
0.0
 30
0.0
  0
VERTEX
  5
59
330
58
100
AcDbEntity
  8
Layer 1
370
     0
100
AcDbVertex
100
AcDb2dVertex
 10
1.861103004644582
 20
-3.12036774089774
 30
0.0
  0
VERTEX
  5
5A
330
58
100
AcDbEntity
  8
Layer 1
370
     0
100
AcDbVertex
100
AcDb2dVertex
 10
1.722962259707654
 20
-3.12036774089774
 30
0.0
  0
VERTEX
  5
5B
330
58
100
AcDbEntity
  8
Layer 1
370
     0
100
AcDbVertex
100
AcDb2dVertex
 10
1.691488134783248
 20
-3.212456871471608
 30
0.0
  0
VERTEX
  5
5C
330
58
100
AcDbEntity
  8
Layer 1
370
     0
100
AcDbVertex
100
AcDb2dVertex
 10
1.603473370213047
 20
-3.212456871471608
 30
0.0
  0
VERTEX
  5
5D
330
58
100
AcDbEntity
  8
Layer 1
370
     0
100
AcDbVertex
100
AcDb2dVertex
 10
1.752688213751602
 20
-2.804456345016004
 30
0.0
  0
VERTEX
  5
5E
330
58
100
AcDbEntity
  8
Layer 1
370
     0
100
AcDbVertex
100
AcDb2dVertex
 10
1.831955074843373
 20
-2.804456345016004
 30
0.0
  0
VERTEX
  5
5F
330
58
100
AcDbEntity
  8
Layer 1
370
     0
100
AcDbVertex
100
AcDb2dVertex
 10
1.98116991838194
 20
-3.212456871471608
 30
0.0
  0
VERTEX
  5
60
330
58
100
AcDbEntity
  8
Layer 1
370
     0
100
AcDbVertex
100
AcDb2dVertex
 10
1.893162202887867
 20
-3.212456871471608
 30
0.0
  0
VERTEX
  5
61
330
58
100
AcDbEntity
  8
Layer 1
370
     0
100
AcDbVertex
100
AcDb2dVertex
 10
1.861103004644582
 20
-3.12036774089774
 30
0.0
  0
SEQEND
  5
62
330
58
100
AcDbEntity
  8
Layer 1
370
     0
  0
POLYLINE
  5
63
330
45
100
AcDbEntity
  8
Layer 1
370
     0
100
AcDb2dPolyline
 66
     1
 10
0.0
 20
0.0
 30
0.0
  0
VERTEX
  5
64
330
63
100
AcDbEntity
  8
Layer 1
370
     0
100
AcDbVertex
100
AcDb2dVertex
 10
1.835458465680416
 20
-3.046338343371164
 30
0.0
  0
VERTEX
  5
65
330
63
100
AcDbEntity
  8
Layer 1
370
     0
100
AcDbVertex
100
AcDb2dVertex
 10
1.792325168835557
 20
-2.921019867916332
 30
0.0
  0
VERTEX
  5
66
330
63
100
AcDbEntity
  8
Layer 1
370
     0
100
AcDbVertex
100
AcDb2dVertex
 10
1.749191871990661
 20
-3.046338343371164
 30
0.0
  0
VERTEX
  5
67
330
63
100
AcDbEntity
  8
Layer 1
370
     0
100
AcDbVertex
100
AcDb2dVertex
 10
1.835458465680416
 20
-3.046338343371164
 30
0.0
  0
SEQEND
  5
68
330
63
100
AcDbEntity
  8
Layer 1
370
     0
  0
HATCH
  5
69
330
45
100
AcDbEntity
  8
Layer 1
 62
   158
420
   795456
100
AcDbHatch
 10
0.0
 20
0.0
 30
0.0
210
0.0
220
0.0
230
1.0
  2
SOLID
 70
     1
 71
     0
 91
        2
 92
        1
 93
        8
 72
     1
 10
1.861103004644582
 20
-3.12036774089774
 11
1.722962259707654
 21
-3.12036774089774
 72
     1
 10
1.722962259707654
 20
-3.12036774089774
 11
1.691488134783248
 21
-3.212456871471608
 72
     1
 10
1.691488134783248
 20
-3.212456871471608
 11
1.603473370213047
 21
-3.212456871471608
 72
     1
 10
1.603473370213047
 20
-3.212456871471608
 11
1.752688213751602
 21
-2.804456345016004
 72
     1
 10
1.752688213751602
 20
-2.804456345016004
 11
1.831955074843373
 21
-2.804456345016004
 72
     1
 10
1.831955074843373
 20
-2.804456345016004
 11
1.98116991838194
 21
-3.212456871471608
 72
     1
 10
1.98116991838194
 20
-3.212456871471608
 11
1.893162202887867
 21
-3.212456871471608
 72
     1
 10
1.893162202887867
 20
-3.212456871471608
 11
1.861103004644582
 21
-3.12036774089774
 97
        0
 92
        1
 93
        3
 72
     1
 10
1.835458465680416
 20
-3.046338343371164
 11
1.792325168835557
 21
-2.921019867916332
 72
     1
 10
1.792325168835557
 20
-2.921019867916332
 11
1.749191871990661
 21
-3.046338343371164
 72
     1
 10
1.749191871990661
 20
-3.046338343371164
 11
1.835458465680416
 21
-3.046338343371164
 97
        0
 75
     2
 76
     1
 98
        0
  0
SPLINE
  5
6A
330
45
100
AcDbEntity
  8
Layer 1
370
     0
100
AcDbSpline
210
0.0
220
0.0
230
1.0
 70
    11
 71
     3
 72
    35
 73
    31
 74
     0
 42
0.0000000001
 43
0.0000000001
 12
1.0
 22
0.0
 32
0.0
 13
1.0
 23
0.0
 33
0.0
 40
0.0
 40
0.0
 40
0.0
 40
0.0
 40
1.0
 40
1.0
 40
1.0
 40
2.0
 40
2.0
 40
2.0
 40
3.0
 40
3.0
 40
3.0
 40
4.0
 40
4.0
 40
4.0
 40
5.0
 40
5.0
 40
5.0
 40
6.0
 40
6.0
 40
6.0
 40
7.0
 40
7.0
 40
7.0
 40
8.0
 40
8.0
 40
8.0
 40
9.0
 40
9.0
 40
9.0
 40
10.0
 40
10.0
 40
10.0
 40
10.0
 10
2.176471621664228
 20
-3.072575004730349
 30
0.0
 10
2.176471621664228
 20
-3.072575004730349
 30
0.0
 10
2.119930982018407
 20
-3.072575004730349
 30
0.0
 10
2.119930982018407
 20
-3.072575004730349
 30
0.0
 10
2.119930982018407
 20
-3.072575004730349
 30
0.0
 10
2.119930982018407
 20
-3.212456871471608
 30
0.0
 10
2.119930982018407
 20
-3.212456871471608
 30
0.0
 10
2.119930982018407
 20
-3.212456871471608
 30
0.0
 10
2.04241229180708
 20
-3.212456871471608
 30
0.0
 10
2.04241229180708
 20
-3.212456871471608
 30
0.0
 10
2.04241229180708
 20
-3.212456871471608
 30
0.0
 10
2.04241229180708
 20
-2.804456345016004
 30
0.0
 10
2.04241229180708
 20
-2.804456345016004
 30
0.0
 10
2.04241229180708
 20
-2.804456345016004
 30
0.0
 10
2.193375306226092
 20
-2.804456345016004
 30
0.0
 10
2.193375306226092
 20
-2.804456345016004
 30
0.0
 10
2.284301339238381
 20
-2.804456345016004
 30
0.0
 10
2.335012392923975
 20
-2.86389415495162
 30
0.0
 10
2.335012392923975
 20
-2.93850157672091
 30
0.0
 10
2.335012392923975
 20
-2.993301094562387
 30
0.0
 10
2.308197707322089
 20
-3.039923684092072
 30
0.0
 10
2.257486653636495
 20
-3.060915832809845
 30
0.0
 10
2.257486653636495
 20
-3.060915832809845
 30
0.0
 10
2.344923393964008
 20
-3.212456871471608
 30
0.0
 10
2.344923393964008
 20
-3.212456871471608
 30
0.0
 10
2.344923393964008
 20
-3.212456871471608
 30
0.0
 10
2.257486653636495
 20
-3.212456871471608
 30
0.0
 10
2.257486653636495
 20
-3.212456871471608
 30
0.0
 10
2.257486653636495
 20
-3.212456871471608
 30
0.0
 10
2.176471621664228
 20
-3.072575004730349
 30
0.0
 10
2.176471621664228
 20
-3.072575004730349
 30
0.0
  0
SPLINE
  5
6B
330
45
100
AcDbEntity
  8
Layer 1
370
     0
100
AcDbSpline
210
0.0
220
0.0
230
1.0
 70
    11
 71
     3
 72
    20
 73
    16
 74
     0
 42
0.0000000001
 43
0.0000000001
 12
1.0
 22
0.0
 32
0.0
 13
1.0
 23
0.0
 33
0.0
 40
0.0
 40
0.0
 40
0.0
 40
0.0
 40
1.0
 40
1.0
 40
1.0
 40
2.0
 40
2.0
 40
2.0
 40
3.0
 40
3.0
 40
3.0
 40
4.0
 40
4.0
 40
4.0
 40
5.0
 40
5.0
 40
5.0
 40
5.0
 10
2.119930982018407
 20
-2.998545607203798
 30
0.0
 10
2.119930982018407
 20
-2.998545607203798
 30
0.0
 10
2.191627135345647
 20
-2.998545607203798
 30
0.0
 10
2.191627135345647
 20
-2.998545607203798
 30
0.0
 10
2.230093943791871
 20
-2.998545607203798
 30
0.0
 10
2.25457538519442
 20
-2.973479092482345
 30
0.0
 10
2.25457538519442
 20
-2.93850157672091
 30
0.0
 10
2.25457538519442
 20
-2.903538159111728
 30
0.0
 10
2.230093943791871
 20
-2.879049668633039
 30
0.0
 10
2.191627135345647
 20
-2.879049668633039
 30
0.0
 10
2.191627135345647
 20
-2.879049668633039
 30
0.0
 10
2.119930982018407
 20
-2.879049668633039
 30
0.0
 10
2.119930982018407
 20
-2.879049668633039
 30
0.0
 10
2.119930982018407
 20
-2.879049668633039
 30
0.0
 10
2.119930982018407
 20
-2.998545607203798
 30
0.0
 10
2.119930982018407
 20
-2.998545607203798
 30
0.0
  0
HATCH
  5
6C
330
45
100
AcDbEntity
  8
Layer 1
 62
   158
420
   795456
100
AcDbHatch
 10
0.0
 20
0.0
 30
0.0
210
0.0
220
0.0
230
1.0
  2
SOLID
 70
     1
 71
     0
 91
        2
 92
        1
 93
        1
 72
     4
 94
        3
 73
     0
 74
     1
 95
       35
 96
       31
 40
0.0
 40
0.0
 40
0.0
 40
0.0
 40
1.0
 40
1.0
 40
1.0
 40
2.0
 40
2.0
 40
2.0
 40
3.0
 40
3.0
 40
3.0
 40
4.0
 40
4.0
 40
4.0
 40
5.0
 40
5.0
 40
5.0
 40
6.0
 40
6.0
 40
6.0
 40
7.0
 40
7.0
 40
7.0
 40
8.0
 40
8.0
 40
8.0
 40
9.0
 40
9.0
 40
9.0
 40
10.0
 40
10.0
 40
10.0
 40
10.0
 10
2.176471621664228
 20
-3.072575004730349
 10
2.176471621664228
 20
-3.072575004730349
 10
2.119930982018407
 20
-3.072575004730349
 10
2.119930982018407
 20
-3.072575004730349
 10
2.119930982018407
 20
-3.072575004730349
 10
2.119930982018407
 20
-3.212456871471608
 10
2.119930982018407
 20
-3.212456871471608
 10
2.119930982018407
 20
-3.212456871471608
 10
2.04241229180708
 20
-3.212456871471608
 10
2.04241229180708
 20
-3.212456871471608
 10
2.04241229180708
 20
-3.212456871471608
 10
2.04241229180708
 20
-2.804456345016004
 10
2.04241229180708
 20
-2.804456345016004
 10
2.04241229180708
 20
-2.804456345016004
 10
2.193375306226092
 20
-2.804456345016004
 10
2.193375306226092
 20
-2.804456345016004
 10
2.284301339238381
 20
-2.804456345016004
 10
2.335012392923975
 20
-2.86389415495162
 10
2.335012392923975
 20
-2.93850157672091
 10
2.335012392923975
 20
-2.993301094562387
 10
2.308197707322089
 20
-3.039923684092072
 10
2.257486653636495
 20
-3.060915832809845
 10
2.257486653636495
 20
-3.060915832809845
 10
2.344923393964008
 20
-3.212456871471608
 10
2.344923393964008
 20
-3.212456871471608
 10
2.344923393964008
 20
-3.212456871471608
 10
2.257486653636495
 20
-3.212456871471608
 10
2.257486653636495
 20
-3.212456871471608
 10
2.257486653636495
 20
-3.212456871471608
 10
2.176471621664228
 20
-3.072575004730349
 10
2.176471621664228
 20
-3.072575004730349
 97
        0
 97
        0
 92
        1
 93
        1
 72
     4
 94
        3
 73
     0
 74
     1
 95
       20
 96
       16
 40
0.0
 40
0.0
 40
0.0
 40
0.0
 40
1.0
 40
1.0
 40
1.0
 40
2.0
 40
2.0
 40
2.0
 40
3.0
 40
3.0
 40
3.0
 40
4.0
 40
4.0
 40
4.0
 40
5.0
 40
5.0
 40
5.0
 40
5.0
 10
2.119930982018407
 20
-2.998545607203798
 10
2.119930982018407
 20
-2.998545607203798
 10
2.191627135345647
 20
-2.998545607203798
 10
2.191627135345647
 20
-2.998545607203798
 10
2.230093943791871
 20
-2.998545607203798
 10
2.25457538519442
 20
-2.973479092482345
 10
2.25457538519442
 20
-2.93850157672091
 10
2.25457538519442
 20
-2.903538159111728
 10
2.230093943791871
 20
-2.879049668633039
 10
2.191627135345647
 20
-2.879049668633039
 10
2.191627135345647
 20
-2.879049668633039
 10
2.119930982018407
 20
-2.879049668633039
 10
2.119930982018407
 20
-2.879049668633039
 10
2.119930982018407
 20
-2.879049668633039
 10
2.119930982018407
 20
-2.998545607203798
 10
2.119930982018407
 20
-2.998545607203798
 97
        0
 97
        0
 75
     2
 76
     1
 98
        0
  0
SPLINE
  5
6D
330
45
100
AcDbEntity
  8
Layer 1
370
     0
100
AcDbSpline
210
0.0
220
0.0
230
1.0
 70
    11
 71
     3
 72
    26
 73
    22
 74
     0
 42
0.0000000001
 43
0.0000000001
 12
1.0
 22
0.0
 32
0.0
 13
1.0
 23
0.0
 33
0.0
 40
0.0
 40
0.0
 40
0.0
 40
0.0
 40
1.0
 40
1.0
 40
1.0
 40
2.0
 40
2.0
 40
2.0
 40
3.0
 40
3.0
 40
3.0
 40
4.0
 40
4.0
 40
4.0
 40
5.0
 40
5.0
 40
5.0
 40
6.0
 40
6.0
 40
6.0
 40
7.0
 40
7.0
 40
7.0
 40
7.0
 10
2.876536519450762
 20
-2.93850157672091
 30
0.0
 10
2.876536519450762
 20
-3.013108998490199
 30
0.0
 10
2.825839563917447
 20
-3.072575004730349
 30
0.0
 10
2.734906481829057
 20
-3.072575004730349
 30
0.0
 10
2.734906481829057
 20
-3.072575004730349
 30
0.0
 10
2.661469206697474
 20
-3.072575004730349
 30
0.0
 10
2.661469206697474
 20
-3.072575004730349
 30
0.0
 10
2.661469206697474
 20
-3.072575004730349
 30
0.0
 10
2.661469206697474
 20
-3.212456871471608
 30
0.0
 10
2.661469206697474
 20
-3.212456871471608
 30
0.0
 10
2.661469206697474
 20
-3.212456871471608
 30
0.0
 10
2.583943467409982
 20
-3.212456871471608
 30
0.0
 10
2.583943467409982
 20
-3.212456871471608
 30
0.0
 10
2.583943467409982
 20
-3.212456871471608
 30
0.0
 10
2.583943467409982
 20
-2.804456345016004
 30
0.0
 10
2.583943467409982
 20
-2.804456345016004
 30
0.0
 10
2.583943467409982
 20
-2.804456345016004
 30
0.0
 10
2.734906481829057
 20
-2.804456345016004
 30
0.0
 10
2.734906481829057
 20
-2.804456345016004
 30
0.0
 10
2.825839563917447
 20
-2.804456345016004
 30
0.0
 10
2.876536519450762
 20
-2.86389415495162
 30
0.0
 10
2.876536519450762
 20
-2.93850157672091
 30
0.0
  0
SPLINE
  5
6E
330
45
100
AcDbEntity
  8
Layer 1
370
     0
100
AcDbSpline
210
0.0
220
0.0
230
1.0
 70
    11
 71
     3
 72
    20
 73
    16
 74
     0
 42
0.0000000001
 43
0.0000000001
 12
1.0
 22
0.0
 32
0.0
 13
1.0
 23
0.0
 33
0.0
 40
0.0
 40
0.0
 40
0.0
 40
0.0
 40
1.0
 40
1.0
 40
1.0
 40
2.0
 40
2.0
 40
2.0
 40
3.0
 40
3.0
 40
3.0
 40
4.0
 40
4.0
 40
4.0
 40
5.0
 40
5.0
 40
5.0
 40
5.0
 10
2.796684585040111
 20
-2.93850157672091
 30
0.0
 10
2.796684585040111
 20
-2.903538159111728
 30
0.0
 10
2.771632168470963
 20
-2.879049668633039
 30
0.0
 10
2.733158310948561
 20
-2.879049668633039
 30
0.0
 10
2.733158310948561
 20
-2.879049668633039
 30
0.0
 10
2.661469206697474
 20
-2.879049668633039
 30
0.0
 10
2.661469206697474
 20
-2.879049668633039
 30
0.0
 10
2.661469206697474
 20
-2.879049668633039
 30
0.0
 10
2.661469206697474
 20
-2.998545607203798
 30
0.0
 10
2.661469206697474
 20
-2.998545607203798
 30
0.0
 10
2.661469206697474
 20
-2.998545607203798
 30
0.0
 10
2.733158310948561
 20
-2.998545607203798
 30
0.0
 10
2.733158310948561
 20
-2.998545607203798
 30
0.0
 10
2.771632168470963
 20
-2.998545607203798
 30
0.0
 10
2.796684585040111
 20
-2.973479092482345
 30
0.0
 10
2.796684585040111
 20
-2.93850157672091
 30
0.0
  0
HATCH
  5
6F
330
45
100
AcDbEntity
  8
Layer 1
 62
   158
420
   795456
100
AcDbHatch
 10
0.0
 20
0.0
 30
0.0
210
0.0
220
0.0
230
1.0
  2
SOLID
 70
     1
 71
     0
 91
        2
 92
        1
 93
        1
 72
     4
 94
        3
 73
     0
 74
     1
 95
       26
 96
       22
 40
0.0
 40
0.0
 40
0.0
 40
0.0
 40
1.0
 40
1.0
 40
1.0
 40
2.0
 40
2.0
 40
2.0
 40
3.0
 40
3.0
 40
3.0
 40
4.0
 40
4.0
 40
4.0
 40
5.0
 40
5.0
 40
5.0
 40
6.0
 40
6.0
 40
6.0
 40
7.0
 40
7.0
 40
7.0
 40
7.0
 10
2.876536519450762
 20
-2.93850157672091
 10
2.876536519450762
 20
-3.013108998490199
 10
2.825839563917447
 20
-3.072575004730349
 10
2.734906481829057
 20
-3.072575004730349
 10
2.734906481829057
 20
-3.072575004730349
 10
2.661469206697474
 20
-3.072575004730349
 10
2.661469206697474
 20
-3.072575004730349
 10
2.661469206697474
 20
-3.072575004730349
 10
2.661469206697474
 20
-3.212456871471608
 10
2.661469206697474
 20
-3.212456871471608
 10
2.661469206697474
 20
-3.212456871471608
 10
2.583943467409982
 20
-3.212456871471608
 10
2.583943467409982
 20
-3.212456871471608
 10
2.583943467409982
 20
-3.212456871471608
 10
2.583943467409982
 20
-2.804456345016004
 10
2.583943467409982
 20
-2.804456345016004
 10
2.583943467409982
 20
-2.804456345016004
 10
2.734906481829057
 20
-2.804456345016004
 10
2.734906481829057
 20
-2.804456345016004
 10
2.825839563917447
 20
-2.804456345016004
 10
2.876536519450762
 20
-2.86389415495162
 10
2.876536519450762
 20
-2.93850157672091
 97
        0
 97
        0
 92
        1
 93
        1
 72
     4
 94
        3
 73
     0
 74
     1
 95
       20
 96
       16
 40
0.0
 40
0.0
 40
0.0
 40
0.0
 40
1.0
 40
1.0
 40
1.0
 40
2.0
 40
2.0
 40
2.0
 40
3.0
 40
3.0
 40
3.0
 40
4.0
 40
4.0
 40
4.0
 40
5.0
 40
5.0
 40
5.0
 40
5.0
 10
2.796684585040111
 20
-2.93850157672091
 10
2.796684585040111
 20
-2.903538159111728
 10
2.771632168470963
 20
-2.879049668633039
 10
2.733158310948561
 20
-2.879049668633039
 10
2.733158310948561
 20
-2.879049668633039
 10
2.661469206697474
 20
-2.879049668633039
 10
2.661469206697474
 20
-2.879049668633039
 10
2.661469206697474
 20
-2.879049668633039
 10
2.661469206697474
 20
-2.998545607203798
 10
2.661469206697474
 20
-2.998545607203798
 10
2.661469206697474
 20
-2.998545607203798
 10
2.733158310948561
 20
-2.998545607203798
 10
2.733158310948561
 20
-2.998545607203798
 10
2.771632168470963
 20
-2.998545607203798
 10
2.796684585040111
 20
-2.973479092482345
 10
2.796684585040111
 20
-2.93850157672091
 97
        0
 97
        0
 75
     2
 76
     1
 98
        0
  0
POLYLINE
  5
70
330
45
100
AcDbEntity
  8
Layer 1
370
     0
100
AcDb2dPolyline
 66
     1
 10
0.0
 20
0.0
 30
0.0
  0
VERTEX
  5
71
330
70
100
AcDbEntity
  8
Layer 1
370
     0
100
AcDbVertex
100
AcDb2dVertex
 10
3.128357715150514
 20
-3.12036774089774
 30
0.0
  0
VERTEX
  5
72
330
70
100
AcDbEntity
  8
Layer 1
370
     0
100
AcDbVertex
100
AcDb2dVertex
 10
2.990224019289649
 20
-3.12036774089774
 30
0.0
  0
VERTEX
  5
73
330
70
100
AcDbEntity
  8
Layer 1
370
     0
100
AcDbVertex
100
AcDb2dVertex
 10
2.95874284528918
 20
-3.212456871471608
 30
0.0
  0
VERTEX
  5
74
330
70
100
AcDbEntity
  8
Layer 1
370
     0
100
AcDbVertex
100
AcDb2dVertex
 10
2.870728080718891
 20
-3.212456871471608
 30
0.0
  0
VERTEX
  5
75
330
70
100
AcDbEntity
  8
Layer 1
370
     0
100
AcDbVertex
100
AcDb2dVertex
 10
3.01994292425747
 20
-2.804456345016004
 30
0.0
  0
VERTEX
  5
76
330
70
100
AcDbEntity
  8
Layer 1
370
     0
100
AcDbVertex
100
AcDb2dVertex
 10
3.099216834425432
 20
-2.804456345016004
 30
0.0
  0
VERTEX
  5
77
330
70
100
AcDbEntity
  8
Layer 1
370
     0
100
AcDbVertex
100
AcDb2dVertex
 10
3.248431677964011
 20
-3.212456871471608
 30
0.0
  0
VERTEX
  5
78
330
70
100
AcDbEntity
  8
Layer 1
370
     0
100
AcDbVertex
100
AcDb2dVertex
 10
3.160416913393773
 20
-3.212456871471608
 30
0.0
  0
VERTEX
  5
79
330
70
100
AcDbEntity
  8
Layer 1
370
     0
100
AcDbVertex
100
AcDb2dVertex
 10
3.128357715150514
 20
-3.12036774089774
 30
0.0
  0
SEQEND
  5
7A
330
70
100
AcDbEntity
  8
Layer 1
370
     0
  0
POLYLINE
  5
7B
330
45
100
AcDbEntity
  8
Layer 1
370
     0
100
AcDb2dPolyline
 66
     1
 10
0.0
 20
0.0
 30
0.0
  0
VERTEX
  5
7C
330
7B
100
AcDbEntity
  8
Layer 1
370
     0
100
AcDbVertex
100
AcDb2dVertex
 10
3.102713176186297
 20
-3.046338343371164
 30
0.0
  0
VERTEX
  5
7D
330
7B
100
AcDbEntity
  8
Layer 1
370
     0
100
AcDbVertex
100
AcDb2dVertex
 10
3.059586928417603
 20
-2.921019867916332
 30
0.0
  0
VERTEX
  5
7E
330
7B
100
AcDbEntity
  8
Layer 1
370
     0
100
AcDbVertex
100
AcDb2dVertex
 10
3.01644658249658
 20
-3.046338343371164
 30
0.0
  0
VERTEX
  5
7F
330
7B
100
AcDbEntity
  8
Layer 1
370
     0
100
AcDbVertex
100
AcDb2dVertex
 10
3.102713176186297
 20
-3.046338343371164
 30
0.0
  0
SEQEND
  5
80
330
7B
100
AcDbEntity
  8
Layer 1
370
     0
  0
HATCH
  5
81
330
45
100
AcDbEntity
  8
Layer 1
 62
   158
420
   795456
100
AcDbHatch
 10
0.0
 20
0.0
 30
0.0
210
0.0
220
0.0
230
1.0
  2
SOLID
 70
     1
 71
     0
 91
        2
 92
        1
 93
        8
 72
     1
 10
3.128357715150514
 20
-3.12036774089774
 11
2.990224019289649
 21
-3.12036774089774
 72
     1
 10
2.990224019289649
 20
-3.12036774089774
 11
2.95874284528918
 21
-3.212456871471608
 72
     1
 10
2.95874284528918
 20
-3.212456871471608
 11
2.870728080718891
 21
-3.212456871471608
 72
     1
 10
2.870728080718891
 20
-3.212456871471608
 11
3.01994292425747
 21
-2.804456345016004
 72
     1
 10
3.01994292425747
 20
-2.804456345016004
 11
3.099216834425432
 21
-2.804456345016004
 72
     1
 10
3.099216834425432
 20
-2.804456345016004
 11
3.248431677964011
 21
-3.212456871471608
 72
     1
 10
3.248431677964011
 20
-3.212456871471608
 11
3.160416913393773
 21
-3.212456871471608
 72
     1
 10
3.160416913393773
 20
-3.212456871471608
 11
3.128357715150514
 21
-3.12036774089774
 97
        0
 92
        1
 93
        3
 72
     1
 10
3.102713176186297
 20
-3.046338343371164
 11
3.059586928417603
 21
-2.921019867916332
 72
     1
 10
3.059586928417603
 20
-2.921019867916332
 11
3.01644658249658
 21
-3.046338343371164
 72
     1
 10
3.01644658249658
 20
-3.046338343371164
 11
3.102713176186297
 21
-3.046338343371164
 97
        0
 75
     2
 76
     1
 98
        0
  0
POLYLINE
  5
82
330
45
100
AcDbEntity
  8
Layer 1
370
     0
100
AcDb2dPolyline
 66
     1
 10
0.0
 20
0.0
 30
0.0
  0
VERTEX
  5
83
330
82
100
AcDbEntity
  8
Layer 1
370
     0
100
AcDbVertex
100
AcDb2dVertex
 10
3.545155488617436
 20
-2.879049668633039
 30
0.0
  0
VERTEX
  5
84
330
82
100
AcDbEntity
  8
Layer 1
370
     0
100
AcDbVertex
100
AcDb2dVertex
 10
3.435584649238939
 20
-2.879049668633039
 30
0.0
  0
VERTEX
  5
85
330
82
100
AcDbEntity
  8
Layer 1
370
     0
100
AcDbVertex
100
AcDb2dVertex
 10
3.435584649238939
 20
-3.212456871471608
 30
0.0
  0
VERTEX
  5
86
330
82
100
AcDbEntity
  8
Layer 1
370
     0
100
AcDbVertex
100
AcDb2dVertex
 10
3.358058909951473
 20
-3.212456871471608
 30
0.0
  0
VERTEX
  5
87
330
82
100
AcDbEntity
  8
Layer 1
370
     0
100
AcDbVertex
100
AcDb2dVertex
 10
3.358058909951473
 20
-2.879049668633039
 30
0.0
  0
VERTEX
  5
88
330
82
100
AcDbEntity
  8
Layer 1
370
     0
100
AcDbVertex
100
AcDb2dVertex
 10
3.248473972420748
 20
-2.879049668633039
 30
0.0
  0
VERTEX
  5
89
330
82
100
AcDbEntity
  8
Layer 1
370
     0
100
AcDbVertex
100
AcDb2dVertex
 10
3.248473972420748
 20
-2.804456345016004
 30
0.0
  0
VERTEX
  5
8A
330
82
100
AcDbEntity
  8
Layer 1
370
     0
100
AcDbVertex
100
AcDb2dVertex
 10
3.545155488617436
 20
-2.804456345016004
 30
0.0
  0
VERTEX
  5
8B
330
82
100
AcDbEntity
  8
Layer 1
370
     0
100
AcDbVertex
100
AcDb2dVertex
 10
3.545155488617436
 20
-2.879049668633039
 30
0.0
  0
SEQEND
  5
8C
330
82
100
AcDbEntity
  8
Layer 1
370
     0
  0
HATCH
  5
8D
330
45
100
AcDbEntity
  8
Layer 1
 62
   158
420
   795456
100
AcDbHatch
 10
0.0
 20
0.0
 30
0.0
210
0.0
220
0.0
230
1.0
  2
SOLID
 70
     1
 71
     0
 91
        1
 92
        1
 93
        8
 72
     1
 10
3.545155488617436
 20
-2.879049668633039
 11
3.435584649238939
 21
-2.879049668633039
 72
     1
 10
3.435584649238939
 20
-2.879049668633039
 11
3.435584649238939
 21
-3.212456871471608
 72
     1
 10
3.435584649238939
 20
-3.212456871471608
 11
3.358058909951473
 21
-3.212456871471608
 72
     1
 10
3.358058909951473
 20
-3.212456871471608
 11
3.358058909951473
 21
-2.879049668633039
 72
     1
 10
3.358058909951473
 20
-2.879049668633039
 11
3.248473972420748
 21
-2.879049668633039
 72
     1
 10
3.248473972420748
 20
-2.879049668633039
 11
3.248473972420748
 21
-2.804456345016004
 72
     1
 10
3.248473972420748
 20
-2.804456345016004
 11
3.545155488617436
 21
-2.804456345016004
 72
     1
 10
3.545155488617436
 20
-2.804456345016004
 11
3.545155488617436
 21
-2.879049668633039
 97
        0
 75
     2
 76
     1
 98
        0
  0
POLYLINE
  5
8E
330
45
100
AcDbEntity
  8
Layer 1
370
     0
100
AcDb2dPolyline
 66
     1
 10
0.0
 20
0.0
 30
0.0
  0
VERTEX
  5
8F
330
8E
100
AcDbEntity
  8
Layer 1
370
     0
100
AcDbVertex
100
AcDb2dVertex
 10
3.69556867509828
 20
-2.804456345016004
 30
0.0
  0
VERTEX
  5
90
330
8E
100
AcDbEntity
  8
Layer 1
370
     0
100
AcDbVertex
100
AcDb2dVertex
 10
3.69556867509828
 20
-3.212456871471608
 30
0.0
  0
VERTEX
  5
91
330
8E
100
AcDbEntity
  8
Layer 1
370
     0
100
AcDbVertex
100
AcDb2dVertex
 10
3.618042935810813
 20
-3.212456871471608
 30
0.0
  0
VERTEX
  5
92
330
8E
100
AcDbEntity
  8
Layer 1
370
     0
100
AcDbVertex
100
AcDb2dVertex
 10
3.618042935810813
 20
-2.804456345016004
 30
0.0
  0
VERTEX
  5
93
330
8E
100
AcDbEntity
  8
Layer 1
370
     0
100
AcDbVertex
100
AcDb2dVertex
 10
3.69556867509828
 20
-2.804456345016004
 30
0.0
  0
SEQEND
  5
94
330
8E
100
AcDbEntity
  8
Layer 1
370
     0
  0
HATCH
  5
95
330
45
100
AcDbEntity
  8
Layer 1
 62
   158
420
   795456
100
AcDbHatch
 10
0.0
 20
0.0
 30
0.0
210
0.0
220
0.0
230
1.0
  2
SOLID
 70
     1
 71
     0
 91
        1
 92
        1
 93
        4
 72
     1
 10
3.69556867509828
 20
-2.804456345016004
 11
3.69556867509828
 21
-3.212456871471608
 72
     1
 10
3.69556867509828
 20
-3.212456871471608
 11
3.618042935810813
 21
-3.212456871471608
 72
     1
 10
3.618042935810813
 20
-3.212456871471608
 11
3.618042935810813
 21
-2.804456345016004
 72
     1
 10
3.618042935810813
 20
-2.804456345016004
 11
3.69556867509828
 21
-2.804456345016004
 97
        0
 75
     2
 76
     1
 98
        0
  0
SPLINE
  5
96
330
45
100
AcDbEntity
  8
Layer 1
370
     0
100
AcDbSpline
210
0.0
220
0.0
230
1.0
 70
    11
 71
     3
 72
    17
 73
    13
 74
     0
 42
0.0000000001
 43
0.0000000001
 12
1.0
 22
0.0
 32
0.0
 13
1.0
 23
0.0
 33
0.0
 40
0.0
 40
0.0
 40
0.0
 40
0.0
 40
1.0
 40
1.0
 40
1.0
 40
2.0
 40
2.0
 40
2.0
 40
3.0
 40
3.0
 40
3.0
 40
4.0
 40
4.0
 40
4.0
 40
4.0
 10
4.164219452584019
 20
-3.009034632486545
 30
0.0
 10
4.164219452584019
 20
-3.126190277781865
 30
0.0
 10
4.083775395778326
 20
-3.217123359870255
 30
0.0
 10
3.96661975048298
 20
-3.217123359870255
 30
0.0
 10
3.84946410518776
 20
-3.217123359870255
 30
0.0
 10
3.768442024139328
 20
-3.126190277781865
 30
0.0
 10
3.768442024139328
 20
-3.009034632486545
 30
0.0
 10
3.768442024139328
 20
-2.891878987191224
 30
0.0
 10
3.84946410518776
 20
-2.800960003255088
 30
0.0
 10
3.96661975048298
 20
-2.800960003255088
 30
0.0
 10
4.083775395778326
 20
-2.800960003255088
 30
0.0
 10
4.164219452584019
 20
-2.891878987191224
 30
0.0
 10
4.164219452584019
 20
-3.009034632486545
 30
0.0
  0
SPLINE
  5
97
330
45
100
AcDbEntity
  8
Layer 1
370
     0
100
AcDbSpline
210
0.0
220
0.0
230
1.0
 70
    11
 71
     3
 72
    17
 73
    13
 74
     0
 42
0.0000000001
 43
0.0000000001
 12
1.0
 22
0.0
 32
0.0
 13
1.0
 23
0.0
 33
0.0
 40
0.0
 40
0.0
 40
0.0
 40
0.0
 40
1.0
 40
1.0
 40
1.0
 40
2.0
 40
2.0
 40
2.0
 40
3.0
 40
3.0
 40
3.0
 40
4.0
 40
4.0
 40
4.0
 40
4.0
 10
4.084945542416007
 20
-3.009034632486545
 30
0.0
 10
4.084945542416007
 20
-2.934427210717255
 30
0.0
 10
4.040649148009607
 20
-2.8784716443903
 30
0.0
 10
3.96661975048298
 20
-2.8784716443903
 30
0.0
 10
3.89201232871374
 20
-2.8784716443903
 30
0.0
 10
3.847715934307264
 20
-2.934427210717255
 30
0.0
 10
3.847715934307264
 20
-3.009034632486545
 30
0.0
 10
3.847715934307264
 20
-3.083064030013095
 30
0.0
 10
3.89201232871374
 20
-3.13901959634005
 30
0.0
 10
3.96661975048298
 20
-3.13901959634005
 30
0.0
 10
4.040649148009607
 20
-3.13901959634005
 30
0.0
 10
4.084945542416007
 20
-3.083064030013095
 30
0.0
 10
4.084945542416007
 20
-3.009034632486545
 30
0.0
  0
HATCH
  5
98
330
45
100
AcDbEntity
  8
Layer 1
 62
   158
420
   795456
100
AcDbHatch
 10
0.0
 20
0.0
 30
0.0
210
0.0
220
0.0
230
1.0
  2
SOLID
 70
     1
 71
     0
 91
        2
 92
        1
 93
        1
 72
     4
 94
        3
 73
     0
 74
     1
 95
       17
 96
       13
 40
0.0
 40
0.0
 40
0.0
 40
0.0
 40
1.0
 40
1.0
 40
1.0
 40
2.0
 40
2.0
 40
2.0
 40
3.0
 40
3.0
 40
3.0
 40
4.0
 40
4.0
 40
4.0
 40
4.0
 10
4.164219452584019
 20
-3.009034632486545
 10
4.164219452584019
 20
-3.126190277781865
 10
4.083775395778326
 20
-3.217123359870255
 10
3.96661975048298
 20
-3.217123359870255
 10
3.84946410518776
 20
-3.217123359870255
 10
3.768442024139328
 20
-3.126190277781865
 10
3.768442024139328
 20
-3.009034632486545
 10
3.768442024139328
 20
-2.891878987191224
 10
3.84946410518776
 20
-2.800960003255088
 10
3.96661975048298
 20
-2.800960003255088
 10
4.083775395778326
 20
-2.800960003255088
 10
4.164219452584019
 20
-2.891878987191224
 10
4.164219452584019
 20
-3.009034632486545
 97
        0
 97
        0
 92
        1
 93
        1
 72
     4
 94
        3
 73
     0
 74
     1
 95
       17
 96
       13
 40
0.0
 40
0.0
 40
0.0
 40
0.0
 40
1.0
 40
1.0
 40
1.0
 40
2.0
 40
2.0
 40
2.0
 40
3.0
 40
3.0
 40
3.0
 40
4.0
 40
4.0
 40
4.0
 40
4.0
 10
4.084945542416007
 20
-3.009034632486545
 10
4.084945542416007
 20
-2.934427210717255
 10
4.040649148009607
 20
-2.8784716443903
 10
3.96661975048298
 20
-2.8784716443903
 10
3.89201232871374
 20
-2.8784716443903
 10
3.847715934307264
 20
-2.934427210717255
 10
3.847715934307264
 20
-3.009034632486545
 10
3.847715934307264
 20
-3.083064030013095
 10
3.89201232871374
 20
-3.13901959634005
 10
3.96661975048298
 20
-3.13901959634005
 10
4.040649148009607
 20
-3.13901959634005
 10
4.084945542416007
 20
-3.083064030013095
 10
4.084945542416007
 20
-3.009034632486545
 97
        0
 97
        0
 75
     2
 76
     1
 98
        0
  0
SPLINE
  5
99
330
45
100
AcDbEntity
  8
Layer 1
370
     0
100
AcDbSpline
210
0.0
220
0.0
230
1.0
 70
    11
 71
     3
 72
    47
 73
    43
 74
     0
 42
0.0000000001
 43
0.0000000001
 12
1.0
 22
0.0
 32
0.0
 13
1.0
 23
0.0
 33
0.0
 40
0.0
 40
0.0
 40
0.0
 40
0.0
 40
1.0
 40
1.0
 40
1.0
 40
2.0
 40
2.0
 40
2.0
 40
3.0
 40
3.0
 40
3.0
 40
4.0
 40
4.0
 40
4.0
 40
5.0
 40
5.0
 40
5.0
 40
6.0
 40
6.0
 40
6.0
 40
7.0
 40
7.0
 40
7.0
 40
8.0
 40
8.0
 40
8.0
 40
9.0
 40
9.0
 40
9.0
 40
10.0
 40
10.0
 40
10.0
 40
11.0
 40
11.0
 40
11.0
 40
12.0
 40
12.0
 40
12.0
 40
13.0
 40
13.0
 40
13.0
 40
14.0
 40
14.0
 40
14.0
 40
14.0
 10
4.526217708209439
 20
-3.094131079538581
 30
0.0
 10
4.526217708209439
 20
-3.161745817786014
 30
0.0
 10
4.479002996284786
 20
-3.219449554993465
 30
0.0
 10
4.377580888913573
 20
-3.219449554993465
 30
0.0
 10
4.297728954502948
 20
-3.219449554993465
 30
0.0
 10
4.225461826009097
 20
-3.176901331467434
 30
0.0
 10
4.213802654088618
 20
-3.118027447622302
 30
0.0
 10
4.213802654088618
 20
-3.118027447622302
 30
0.0
 10
4.284913734097017
 20
-3.090634737777666
 30
0.0
 10
4.284913734097017
 20
-3.090634737777666
 30
0.0
 10
4.292484441861562
 20
-3.121523789383193
 30
0.0
 10
4.328039981865787
 20
-3.14076776722052
 30
0.0
 10
4.370588205391767
 20
-3.14076776722052
 30
0.0
 10
4.417802917316445
 20
-3.14076776722052
 30
0.0
 10
4.443447456280587
 20
-3.122115911778185
 30
0.0
 10
4.443447456280587
 20
-3.097049397056758
 30
0.0
 10
4.443447456280587
 20
-3.072575004730349
 30
0.0
 10
4.423639552352824
 20
-3.062071881295322
 30
0.0
 10
4.357180862590768
 20
-3.042263977367535
 30
0.0
 10
4.263343561136505
 20
-3.014279145127931
 30
0.0
 10
4.224869703614154
 20
-2.978723605123731
 30
0.0
 10
4.224869703614154
 20
-2.918693672793122
 30
0.0
 10
4.224869703614154
 20
-2.865064301589352
 30
0.0
 10
4.263921585379219
 20
-2.800960003255088
 30
0.0
 10
4.368840034511347
 20
-2.800960003255088
 30
0.0
 10
4.431210260117319
 20
-2.800960003255088
 30
0.0
 10
4.494750632361147
 20
-2.834175249983824
 30
0.0
 10
4.506395706129372
 20
-2.892457011433963
 30
0.0
 10
4.506395706129372
 20
-2.892457011433963
 30
0.0
 10
4.437624919396512
 20
-2.918101550398129
 30
0.0
 10
4.437624919396512
 20
-2.918101550398129
 30
0.0
 10
4.432380406755075
 20
-2.892457011433963
 30
0.0
 10
4.399151061874085
 20
-2.8784716443903
 30
0.0
 10
4.369432156906289
 20
-2.877893620147562
 30
0.0
 10
4.336780836268013
 20
-2.877301497752569
 30
0.0
 10
4.307061931300217
 20
-2.888960669673073
 30
0.0
 10
4.307061931300217
 20
-2.915775355274945
 30
0.0
 10
4.307061931300217
 20
-2.935005234959994
 30
0.0
 10
4.322217444981612
 20
-2.947256529275465
 30
0.0
 10
4.386335841468129
 20
-2.967064433203253
 30
0.0
 10
4.466765800121544
 20
-2.991552923681966
 30
0.0
 10
4.526217708209439
 20
-3.018367609283839
 30
0.0
 10
4.526217708209439
 20
-3.094131079538581
 30
0.0
  0
HATCH
  5
9A
330
45
100
AcDbEntity
  8
Layer 1
 62
   158
420
   795456
100
AcDbHatch
 10
0.0
 20
0.0
 30
0.0
210
0.0
220
0.0
230
1.0
  2
SOLID
 70
     1
 71
     0
 91
        1
 92
        1
 93
        1
 72
     4
 94
        3
 73
     0
 74
     1
 95
       47
 96
       43
 40
0.0
 40
0.0
 40
0.0
 40
0.0
 40
1.0
 40
1.0
 40
1.0
 40
2.0
 40
2.0
 40
2.0
 40
3.0
 40
3.0
 40
3.0
 40
4.0
 40
4.0
 40
4.0
 40
5.0
 40
5.0
 40
5.0
 40
6.0
 40
6.0
 40
6.0
 40
7.0
 40
7.0
 40
7.0
 40
8.0
 40
8.0
 40
8.0
 40
9.0
 40
9.0
 40
9.0
 40
10.0
 40
10.0
 40
10.0
 40
11.0
 40
11.0
 40
11.0
 40
12.0
 40
12.0
 40
12.0
 40
13.0
 40
13.0
 40
13.0
 40
14.0
 40
14.0
 40
14.0
 40
14.0
 10
4.526217708209439
 20
-3.094131079538581
 10
4.526217708209439
 20
-3.161745817786014
 10
4.479002996284786
 20
-3.219449554993465
 10
4.377580888913573
 20
-3.219449554993465
 10
4.297728954502948
 20
-3.219449554993465
 10
4.225461826009097
 20
-3.176901331467434
 10
4.213802654088618
 20
-3.118027447622302
 10
4.213802654088618
 20
-3.118027447622302
 10
4.284913734097017
 20
-3.090634737777666
 10
4.284913734097017
 20
-3.090634737777666
 10
4.292484441861562
 20
-3.121523789383193
 10
4.328039981865787
 20
-3.14076776722052
 10
4.370588205391767
 20
-3.14076776722052
 10
4.417802917316445
 20
-3.14076776722052
 10
4.443447456280587
 20
-3.122115911778185
 10
4.443447456280587
 20
-3.097049397056758
 10
4.443447456280587
 20
-3.072575004730349
 10
4.423639552352824
 20
-3.062071881295322
 10
4.357180862590768
 20
-3.042263977367535
 10
4.263343561136505
 20
-3.014279145127931
 10
4.224869703614154
 20
-2.978723605123731
 10
4.224869703614154
 20
-2.918693672793122
 10
4.224869703614154
 20
-2.865064301589352
 10
4.263921585379219
 20
-2.800960003255088
 10
4.368840034511347
 20
-2.800960003255088
 10
4.431210260117319
 20
-2.800960003255088
 10
4.494750632361147
 20
-2.834175249983824
 10
4.506395706129372
 20
-2.892457011433963
 10
4.506395706129372
 20
-2.892457011433963
 10
4.437624919396512
 20
-2.918101550398129
 10
4.437624919396512
 20
-2.918101550398129
 10
4.432380406755075
 20
-2.892457011433963
 10
4.399151061874085
 20
-2.8784716443903
 10
4.369432156906289
 20
-2.877893620147562
 10
4.336780836268013
 20
-2.877301497752569
 10
4.307061931300217
 20
-2.888960669673073
 10
4.307061931300217
 20
-2.915775355274945
 10
4.307061931300217
 20
-2.935005234959994
 10
4.322217444981612
 20
-2.947256529275465
 10
4.386335841468129
 20
-2.967064433203253
 10
4.466765800121544
 20
-2.991552923681966
 10
4.526217708209439
 20
-3.018367609283839
 10
4.526217708209439
 20
-3.094131079538581
 97
        0
 97
        0
 75
     2
 76
     1
 98
        0
  0
ENDBLK
  5
48
330
45
100
AcDbEntity
  8
0
100
AcDbBlockEnd
  0
BLOCK
  5
9D
330
9B
100
AcDbEntity
  8
0
100
AcDbBlockBegin
  2
block 4
 70
     0
 10
0.0
 20
0.0
 30
0.0
  3
block 4
  1

  0
POLYLINE
  5
9F
330
9B
100
AcDbEntity
  8
Layer 1
370
     0
100
AcDb2dPolyline
 66
     1
 10
0.0
 20
0.0
 30
0.0
  0
VERTEX
  5
A0
330
9F
100
AcDbEntity
  8
Layer 1
370
     0
100
AcDbVertex
100
AcDb2dVertex
 10
0.9365602774699937
 20
-3.52092444295911
 30
0.0
  0
VERTEX
  5
A1
330
9F
100
AcDbEntity
  8
Layer 1
370
     0
100
AcDbVertex
100
AcDb2dVertex
 10
0.8449927785298238
 20
-3.52092444295911
 30
0.0
  0
VERTEX
  5
A2
330
9F
100
AcDbEntity
  8
Layer 1
370
     0
100
AcDbVertex
100
AcDb2dVertex
 10
0.8241275131823992
 20
-3.581969442252607
 30
0.0
  0
VERTEX
  5
A3
330
9F
100
AcDbEntity
  8
Layer 1
370
     0
100
AcDbVertex
100
AcDb2dVertex
 10
0.7657823100470801
 20
-3.581969442252607
 30
0.0
  0
VERTEX
  5
A4
330
9F
100
AcDbEntity
  8
Layer 1
370
     0
100
AcDbVertex
100
AcDb2dVertex
 10
0.8646949463156437
 20
-3.311510489262799
 30
0.0
  0
VERTEX
  5
A5
330
9F
100
AcDbEntity
  8
Layer 1
370
     0
100
AcDbVertex
100
AcDb2dVertex
 10
0.9172458088713711
 20
-3.311510489262799
 30
0.0
  0
VERTEX
  5
A6
330
9F
100
AcDbEntity
  8
Layer 1
370
     0
100
AcDbVertex
100
AcDb2dVertex
 10
1.016158445139947
 20
-3.581969442252607
 30
0.0
  0
VERTEX
  5
A7
330
9F
100
AcDbEntity
  8
Layer 1
370
     0
100
AcDbVertex
100
AcDb2dVertex
 10
0.9578132420046156
 20
-3.581969442252607
 30
0.0
  0
VERTEX
  5
A8
330
9F
100
AcDbEntity
  8
Layer 1
370
     0
100
AcDbVertex
100
AcDb2dVertex
 10
0.9365602774699937
 20
-3.52092444295911
 30
0.0
  0
SEQEND
  5
A9
330
9F
100
AcDbEntity
  8
Layer 1
370
     0
  0
POLYLINE
  5
AA
330
9B
100
AcDbEntity
  8
Layer 1
370
     0
100
AcDb2dPolyline
 66
     1
 10
0.0
 20
0.0
 30
0.0
  0
VERTEX
  5
AB
330
AA
100
AcDbEntity
  8
Layer 1
370
     0
100
AcDbVertex
100
AcDb2dVertex
 10
0.9195649549184407
 20
-3.471848774935905
 30
0.0
  0
VERTEX
  5
AC
330
AA
100
AcDbEntity
  8
Layer 1
370
     0
100
AcDbVertex
100
AcDb2dVertex
 10
0.8909668530554375
 20
-3.388782461809569
 30
0.0
  0
VERTEX
  5
AD
330
AA
100
AcDbEntity
  8
Layer 1
370
     0
100
AcDbVertex
100
AcDb2dVertex
 10
0.8623758002685741
 20
-3.471848774935905
 30
0.0
  0
VERTEX
  5
AE
330
AA
100
AcDbEntity
  8
Layer 1
370
     0
100
AcDbVertex
100
AcDb2dVertex
 10
0.9195649549184407
 20
-3.471848774935905
 30
0.0
  0
SEQEND
  5
AF
330
AA
100
AcDbEntity
  8
Layer 1
370
     0
  0
HATCH
  5
B0
330
9B
100
AcDbEntity
  8
Layer 1
 62
    30
420
 15234850
100
AcDbHatch
 10
0.0
 20
0.0
 30
0.0
210
0.0
220
0.0
230
1.0
  2
SOLID
 70
     1
 71
     0
 91
        2
 92
        1
 93
        8
 72
     1
 10
0.9365602774699937
 20
-3.52092444295911
 11
0.8449927785298238
 21
-3.52092444295911
 72
     1
 10
0.8449927785298238
 20
-3.52092444295911
 11
0.8241275131823992
 21
-3.581969442252607
 72
     1
 10
0.8241275131823992
 20
-3.581969442252607
 11
0.7657823100470801
 21
-3.581969442252607
 72
     1
 10
0.7657823100470801
 20
-3.581969442252607
 11
0.8646949463156437
 21
-3.311510489262799
 72
     1
 10
0.8646949463156437
 20
-3.311510489262799
 11
0.9172458088713711
 21
-3.311510489262799
 72
     1
 10
0.9172458088713711
 20
-3.311510489262799
 11
1.016158445139947
 21
-3.581969442252607
 72
     1
 10
1.016158445139947
 20
-3.581969442252607
 11
0.9578132420046156
 21
-3.581969442252607
 72
     1
 10
0.9578132420046156
 20
-3.581969442252607
 11
0.9365602774699937
 21
-3.52092444295911
 97
        0
 92
        1
 93
        3
 72
     1
 10
0.9195649549184407
 20
-3.471848774935905
 11
0.8909668530554375
 21
-3.388782461809569
 72
     1
 10
0.8909668530554375
 20
-3.388782461809569
 11
0.8623758002685741
 21
-3.471848774935905
 72
     1
 10
0.8623758002685741
 20
-3.471848774935905
 11
0.9195649549184407
 21
-3.471848774935905
 97
        0
 75
     2
 76
     1
 98
        0
  0
POLYLINE
  5
B1
330
9B
100
AcDbEntity
  8
Layer 1
370
     0
100
AcDb2dPolyline
 66
     1
 10
0.0
 20
0.0
 30
0.0
  0
VERTEX
  5
B2
330
B1
100
AcDbEntity
  8
Layer 1
370
     0
100
AcDbVertex
100
AcDb2dVertex
 10
1.275021667894457
 20
-3.311510489262799
 30
0.0
  0
VERTEX
  5
B3
330
B1
100
AcDbEntity
  8
Layer 1
370
     0
100
AcDbVertex
100
AcDb2dVertex
 10
1.275021667894457
 20
-3.581969442252607
 30
0.0
  0
VERTEX
  5
B4
330
B1
100
AcDbEntity
  8
Layer 1
370
     0
100
AcDbVertex
100
AcDb2dVertex
 10
1.224409301274692
 20
-3.581969442252607
 30
0.0
  0
VERTEX
  5
B5
330
B1
100
AcDbEntity
  8
Layer 1
370
     0
100
AcDbVertex
100
AcDb2dVertex
 10
1.115839430706791
 20
-3.406560231811656
 30
0.0
  0
VERTEX
  5
B6
330
B1
100
AcDbEntity
  8
Layer 1
370
     0
100
AcDbVertex
100
AcDb2dVertex
 10
1.115839430706791
 20
-3.581969442252607
 30
0.0
  0
VERTEX
  5
B7
330
B1
100
AcDbEntity
  8
Layer 1
370
     0
100
AcDbVertex
100
AcDb2dVertex
 10
1.064451665712643
 20
-3.581969442252607
 30
0.0
  0
VERTEX
  5
B8
330
B1
100
AcDbEntity
  8
Layer 1
370
     0
100
AcDbVertex
100
AcDb2dVertex
 10
1.064451665712643
 20
-3.311510489262799
 30
0.0
  0
VERTEX
  5
B9
330
B1
100
AcDbEntity
  8
Layer 1
370
     0
100
AcDbVertex
100
AcDb2dVertex
 10
1.114676333145187
 20
-3.311510489262799
 30
0.0
  0
VERTEX
  5
BA
330
B1
100
AcDbEntity
  8
Layer 1
370
     0
100
AcDbVertex
100
AcDb2dVertex
 10
1.223633902900297
 20
-3.486919699703726
 30
0.0
  0
VERTEX
  5
BB
330
B1
100
AcDbEntity
  8
Layer 1
370
     0
100
AcDbVertex
100
AcDb2dVertex
 10
1.223633902900297
 20
-3.311510489262799
 30
0.0
  0
VERTEX
  5
BC
330
B1
100
AcDbEntity
  8
Layer 1
370
     0
100
AcDbVertex
100
AcDb2dVertex
 10
1.275021667894457
 20
-3.311510489262799
 30
0.0
  0
SEQEND
  5
BD
330
B1
100
AcDbEntity
  8
Layer 1
370
     0
  0
HATCH
  5
BE
330
9B
100
AcDbEntity
  8
Layer 1
 62
    30
420
 15234850
100
AcDbHatch
 10
0.0
 20
0.0
 30
0.0
210
0.0
220
0.0
230
1.0
  2
SOLID
 70
     1
 71
     0
 91
        1
 92
        1
 93
       10
 72
     1
 10
1.275021667894457
 20
-3.311510489262799
 11
1.275021667894457
 21
-3.581969442252607
 72
     1
 10
1.275021667894457
 20
-3.581969442252607
 11
1.224409301274692
 21
-3.581969442252607
 72
     1
 10
1.224409301274692
 20
-3.581969442252607
 11
1.115839430706791
 21
-3.406560231811656
 72
     1
 10
1.115839430706791
 20
-3.406560231811656
 11
1.115839430706791
 21
-3.581969442252607
 72
     1
 10
1.115839430706791
 20
-3.581969442252607
 11
1.064451665712643
 21
-3.581969442252607
 72
     1
 10
1.064451665712643
 20
-3.581969442252607
 11
1.064451665712643
 21
-3.311510489262799
 72
     1
 10
1.064451665712643
 20
-3.311510489262799
 11
1.114676333145187
 21
-3.311510489262799
 72
     1
 10
1.114676333145187
 20
-3.311510489262799
 11
1.223633902900297
 21
-3.486919699703726
 72
     1
 10
1.223633902900297
 20
-3.486919699703726
 11
1.223633902900297
 21
-3.311510489262799
 72
     1
 10
1.223633902900297
 20
-3.311510489262799
 11
1.275021667894457
 21
-3.311510489262799
 97
        0
 75
     2
 76
     1
 98
        0
  0
SPLINE
  5
BF
330
9B
100
AcDbEntity
  8
Layer 1
370
     0
100
AcDbSpline
210
0.0
220
0.0
230
1.0
 70
    11
 71
     3
 72
    20
 73
    16
 74
     0
 42
0.0000000001
 43
0.0000000001
 12
1.0
 22
0.0
 32
0.0
 13
1.0
 23
0.0
 33
0.0
 40
0.0
 40
0.0
 40
0.0
 40
0.0
 40
1.0
 40
1.0
 40
1.0
 40
2.0
 40
2.0
 40
2.0
 40
3.0
 40
3.0
 40
3.0
 40
4.0
 40
4.0
 40
4.0
 40
5.0
 40
5.0
 40
5.0
 40
5.0
 10
1.569440430653092
 20
-3.446739965757691
 30
0.0
 10
1.569440430653092
 20
-3.525943385164307
 30
0.0
 10
1.517277267284536
 20
-3.581969442252607
 30
0.0
 10
1.427634166128099
 20
-3.581969442252607
 30
0.0
 10
1.427634166128099
 20
-3.581969442252607
 30
0.0
 10
1.340704959282031
 20
-3.581969442252607
 30
0.0
 10
1.340704959282031
 20
-3.581969442252607
 30
0.0
 10
1.340704959282031
 20
-3.581969442252607
 30
0.0
 10
1.340704959282031
 20
-3.311510489262799
 30
0.0
 10
1.340704959282031
 20
-3.311510489262799
 30
0.0
 10
1.340704959282031
 20
-3.311510489262799
 30
0.0
 10
1.427634166128099
 20
-3.311510489262799
 30
0.0
 10
1.427634166128099
 20
-3.311510489262799
 30
0.0
 10
1.517277267284536
 20
-3.311510489262799
 30
0.0
 10
1.569440430653092
 20
-3.367536546351049
 30
0.0
 10
1.569440430653092
 20
-3.446739965757691
 30
0.0
  0
SPLINE
  5
C0
330
9B
100
AcDbEntity
  8
Layer 1
370
     0
100
AcDbSpline
210
0.0
220
0.0
230
1.0
 70
    11
 71
     3
 72
    20
 73
    16
 74
     0
 42
0.0000000001
 43
0.0000000001
 12
1.0
 22
0.0
 32
0.0
 13
1.0
 23
0.0
 33
0.0
 40
0.0
 40
0.0
 40
0.0
 40
0.0
 40
1.0
 40
1.0
 40
1.0
 40
2.0
 40
2.0
 40
2.0
 40
3.0
 40
3.0
 40
3.0
 40
4.0
 40
4.0
 40
4.0
 40
5.0
 40
5.0
 40
5.0
 40
5.0
 10
1.518052665658944
 20
-3.446739965757691
 30
0.0
 10
1.518052665658944
 20
-3.39535220076353
 30
0.0
 10
1.483279573105278
 20
-3.360966807397087
 30
0.0
 10
1.426478117642609
 20
-3.360966807397087
 30
0.0
 10
1.426478117642609
 20
-3.360966807397087
 30
0.0
 10
1.392092724276154
 20
-3.360966807397087
 30
0.0
 10
1.392092724276154
 20
-3.360966807397087
 30
0.0
 10
1.392092724276154
 20
-3.360966807397087
 30
0.0
 10
1.392092724276154
 20
-3.532893774229377
 30
0.0
 10
1.392092724276154
 20
-3.532893774229377
 30
0.0
 10
1.392092724276154
 20
-3.532893774229377
 30
0.0
 10
1.426478117642609
 20
-3.532893774229377
 30
0.0
 10
1.426478117642609
 20
-3.532893774229377
 30
0.0
 10
1.483279573105278
 20
-3.532893774229377
 30
0.0
 10
1.518052665658944
 20
-3.498508380862909
 30
0.0
 10
1.518052665658944
 20
-3.446739965757691
 30
0.0
  0
HATCH
  5
C1
330
9B
100
AcDbEntity
  8
Layer 1
 62
    30
420
 15234850
100
AcDbHatch
 10
0.0
 20
0.0
 30
0.0
210
0.0
220
0.0
230
1.0
  2
SOLID
 70
     1
 71
     0
 91
        2
 92
        1
 93
        1
 72
     4
 94
        3
 73
     0
 74
     1
 95
       20
 96
       16
 40
0.0
 40
0.0
 40
0.0
 40
0.0
 40
1.0
 40
1.0
 40
1.0
 40
2.0
 40
2.0
 40
2.0
 40
3.0
 40
3.0
 40
3.0
 40
4.0
 40
4.0
 40
4.0
 40
5.0
 40
5.0
 40
5.0
 40
5.0
 10
1.569440430653092
 20
-3.446739965757691
 10
1.569440430653092
 20
-3.525943385164307
 10
1.517277267284536
 20
-3.581969442252607
 10
1.427634166128099
 20
-3.581969442252607
 10
1.427634166128099
 20
-3.581969442252607
 10
1.340704959282031
 20
-3.581969442252607
 10
1.340704959282031
 20
-3.581969442252607
 10
1.340704959282031
 20
-3.581969442252607
 10
1.340704959282031
 20
-3.311510489262799
 10
1.340704959282031
 20
-3.311510489262799
 10
1.340704959282031
 20
-3.311510489262799
 10
1.427634166128099
 20
-3.311510489262799
 10
1.427634166128099
 20
-3.311510489262799
 10
1.517277267284536
 20
-3.311510489262799
 10
1.569440430653092
 20
-3.367536546351049
 10
1.569440430653092
 20
-3.446739965757691
 97
        0
 97
        0
 92
        1
 93
        1
 72
     4
 94
        3
 73
     0
 74
     1
 95
       20
 96
       16
 40
0.0
 40
0.0
 40
0.0
 40
0.0
 40
1.0
 40
1.0
 40
1.0
 40
2.0
 40
2.0
 40
2.0
 40
3.0
 40
3.0
 40
3.0
 40
4.0
 40
4.0
 40
4.0
 40
5.0
 40
5.0
 40
5.0
 40
5.0
 10
1.518052665658944
 20
-3.446739965757691
 10
1.518052665658944
 20
-3.39535220076353
 10
1.483279573105278
 20
-3.360966807397087
 10
1.426478117642609
 20
-3.360966807397087
 10
1.426478117642609
 20
-3.360966807397087
 10
1.392092724276154
 20
-3.360966807397087
 10
1.392092724276154
 20
-3.360966807397087
 10
1.392092724276154
 20
-3.360966807397087
 10
1.392092724276154
 20
-3.532893774229377
 10
1.392092724276154
 20
-3.532893774229377
 10
1.392092724276154
 20
-3.532893774229377
 10
1.426478117642609
 20
-3.532893774229377
 10
1.426478117642609
 20
-3.532893774229377
 10
1.483279573105278
 20
-3.532893774229377
 10
1.518052665658944
 20
-3.498508380862909
 10
1.518052665658944
 20
-3.446739965757691
 97
        0
 97
        0
 75
     2
 76
     1
 98
        0
  0
SPLINE
  5
C2
330
9B
100
AcDbEntity
  8
Layer 1
370
     0
100
AcDbSpline
210
0.0
220
0.0
230
1.0
 70
    11
 71
     3
 72
    47
 73
    43
 74
     0
 42
0.0000000001
 43
0.0000000001
 12
1.0
 22
0.0
 32
0.0
 13
1.0
 23
0.0
 33
0.0
 40
0.0
 40
0.0
 40
0.0
 40
0.0
 40
1.0
 40
1.0
 40
1.0
 40
2.0
 40
2.0
 40
2.0
 40
3.0
 40
3.0
 40
3.0
 40
4.0
 40
4.0
 40
4.0
 40
5.0
 40
5.0
 40
5.0
 40
6.0
 40
6.0
 40
6.0
 40
7.0
 40
7.0
 40
7.0
 40
8.0
 40
8.0
 40
8.0
 40
9.0
 40
9.0
 40
9.0
 40
10.0
 40
10.0
 40
10.0
 40
11.0
 40
11.0
 40
11.0
 40
12.0
 40
12.0
 40
12.0
 40
13.0
 40
13.0
 40
13.0
 40
14.0
 40
14.0
 40
14.0
 40
14.0
 10
1.942667864555043
 20
-3.50354142122036
 30
0.0
 10
1.942667864555043
 20
-3.548359447260534
 30
0.0
 10
1.911369966533913
 20
-3.586607734346696
 30
0.0
 10
1.844142927473677
 20
-3.586607734346696
 30
0.0
 10
1.791204365730714
 20
-3.586607734346696
 30
0.0
 10
1.743291795269101
 20
-3.558397331670903
 30
0.0
 10
1.735566007829662
 20
-3.519373646210346
 30
0.0
 10
1.735566007829662
 20
-3.519373646210346
 30
0.0
 10
1.782703179916881
 20
-3.501215226097176
 30
0.0
 10
1.782703179916881
 20
-3.501215226097176
 30
0.0
 10
1.78772917119818
 20
-3.52169984133353
 30
0.0
 10
1.811301281779871
 20
-3.534444570978141
 30
0.0
 10
1.839504635379537
 20
-3.534444570978141
 30
0.0
 10
1.870802533400668
 20
-3.534444570978141
 30
0.0
 10
1.887797855952234
 20
-3.522080491444588
 30
0.0
 10
1.887797855952234
 20
-3.505472868080233
 30
0.0
 10
1.887797855952234
 20
-3.489231796674655
 30
0.0
 10
1.8746654271204
 20
-3.482281407609637
 30
0.0
 10
1.830615750378494
 20
-3.469141929701638
 30
0.0
 10
1.768407653523417
 20
-3.45060285947741
 30
0.0
 10
1.742911145158018
 20
-3.427030748895731
 30
0.0
 10
1.742911145158018
 20
-3.387231665060754
 30
0.0
 10
1.742911145158018
 20
-3.351690223208859
 30
0.0
 10
1.76879535271064
 20
-3.309184294139615
 30
0.0
 10
1.838341537817933
 20
-3.309184294139615
 30
0.0
 10
1.879684369325585
 20
-3.309184294139615
 30
0.0
 10
1.921802599207619
 20
-3.331205607972505
 30
0.0
 10
1.929528386647096
 20
-3.369848643322004
 30
0.0
 10
1.929528386647096
 20
-3.369848643322004
 30
0.0
 10
1.883934962232527
 20
-3.386851014949671
 30
0.0
 10
1.883934962232527
 20
-3.386851014949671
 30
0.0
 10
1.880459767699992
 20
-3.369848643322004
 30
0.0
 10
1.858438453867115
 20
-3.360572059133776
 30
0.0
 10
1.83872923700513
 20
-3.360191409022693
 30
0.0
 10
1.817095622359463
 20
-3.359796660759381
 30
0.0
 10
1.797386405497516
 20
-3.367536546351049
 30
0.0
 10
1.797386405497516
 20
-3.385300218200907
 30
0.0
 10
1.797386405497516
 20
-3.398059045997822
 30
0.0
 10
1.807431338984025
 20
-3.406165483548294
 30
0.0
 10
1.849937268053269
 20
-3.419304961456292
 30
0.0
 10
1.903256479907276
 20
-3.43553193470959
 30
0.0
 10
1.942667864555043
 20
-3.453309704711677
 30
0.0
 10
1.942667864555043
 20
-3.50354142122036
 30
0.0
  0
HATCH
  5
C3
330
9B
100
AcDbEntity
  8
Layer 1
 62
    30
420
 15234850
100
AcDbHatch
 10
0.0
 20
0.0
 30
0.0
210
0.0
220
0.0
230
1.0
  2
SOLID
 70
     1
 71
     0
 91
        1
 92
        1
 93
        1
 72
     4
 94
        3
 73
     0
 74
     1
 95
       47
 96
       43
 40
0.0
 40
0.0
 40
0.0
 40
0.0
 40
1.0
 40
1.0
 40
1.0
 40
2.0
 40
2.0
 40
2.0
 40
3.0
 40
3.0
 40
3.0
 40
4.0
 40
4.0
 40
4.0
 40
5.0
 40
5.0
 40
5.0
 40
6.0
 40
6.0
 40
6.0
 40
7.0
 40
7.0
 40
7.0
 40
8.0
 40
8.0
 40
8.0
 40
9.0
 40
9.0
 40
9.0
 40
10.0
 40
10.0
 40
10.0
 40
11.0
 40
11.0
 40
11.0
 40
12.0
 40
12.0
 40
12.0
 40
13.0
 40
13.0
 40
13.0
 40
14.0
 40
14.0
 40
14.0
 40
14.0
 10
1.942667864555043
 20
-3.50354142122036
 10
1.942667864555043
 20
-3.548359447260534
 10
1.911369966533913
 20
-3.586607734346696
 10
1.844142927473677
 20
-3.586607734346696
 10
1.791204365730714
 20
-3.586607734346696
 10
1.743291795269101
 20
-3.558397331670903
 10
1.735566007829662
 20
-3.519373646210346
 10
1.735566007829662
 20
-3.519373646210346
 10
1.782703179916881
 20
-3.501215226097176
 10
1.782703179916881
 20
-3.501215226097176
 10
1.78772917119818
 20
-3.52169984133353
 10
1.811301281779871
 20
-3.534444570978141
 10
1.839504635379537
 20
-3.534444570978141
 10
1.870802533400668
 20
-3.534444570978141
 10
1.887797855952234
 20
-3.522080491444588
 10
1.887797855952234
 20
-3.505472868080233
 10
1.887797855952234
 20
-3.489231796674655
 10
1.8746654271204
 20
-3.482281407609637
 10
1.830615750378494
 20
-3.469141929701638
 10
1.768407653523417
 20
-3.45060285947741
 10
1.742911145158018
 20
-3.427030748895731
 10
1.742911145158018
 20
-3.387231665060754
 10
1.742911145158018
 20
-3.351690223208859
 10
1.76879535271064
 20
-3.309184294139615
 10
1.838341537817933
 20
-3.309184294139615
 10
1.879684369325585
 20
-3.309184294139615
 10
1.921802599207619
 20
-3.331205607972505
 10
1.929528386647096
 20
-3.369848643322004
 10
1.929528386647096
 20
-3.369848643322004
 10
1.883934962232527
 20
-3.386851014949671
 10
1.883934962232527
 20
-3.386851014949671
 10
1.880459767699992
 20
-3.369848643322004
 10
1.858438453867115
 20
-3.360572059133776
 10
1.83872923700513
 20
-3.360191409022693
 10
1.817095622359463
 20
-3.359796660759381
 10
1.797386405497516
 20
-3.367536546351049
 10
1.797386405497516
 20
-3.385300218200907
 10
1.797386405497516
 20
-3.398059045997822
 10
1.807431338984025
 20
-3.406165483548294
 10
1.849937268053269
 20
-3.419304961456292
 10
1.903256479907276
 20
-3.43553193470959
 10
1.942667864555043
 20
-3.453309704711677
 10
1.942667864555043
 20
-3.50354142122036
 97
        0
 97
        0
 75
     2
 76
     1
 98
        0
  0
POLYLINE
  5
C4
330
9B
100
AcDbEntity
  8
Layer 1
370
     0
100
AcDb2dPolyline
 66
     1
 10
0.0
 20
0.0
 30
0.0
  0
VERTEX
  5
C5
330
C4
100
AcDbEntity
  8
Layer 1
370
     0
100
AcDbVertex
100
AcDb2dVertex
 10
2.172164636148232
 20
-3.360966807397087
 30
0.0
  0
VERTEX
  5
C6
330
C4
100
AcDbEntity
  8
Layer 1
370
     0
100
AcDbVertex
100
AcDb2dVertex
 10
2.099523906619475
 20
-3.360966807397087
 30
0.0
  0
VERTEX
  5
C7
330
C4
100
AcDbEntity
  8
Layer 1
370
     0
100
AcDbVertex
100
AcDb2dVertex
 10
2.099523906619475
 20
-3.581969442252607
 30
0.0
  0
VERTEX
  5
C8
330
C4
100
AcDbEntity
  8
Layer 1
370
     0
100
AcDbVertex
100
AcDb2dVertex
 10
2.048136141625339
 20
-3.581969442252607
 30
0.0
  0
VERTEX
  5
C9
330
C4
100
AcDbEntity
  8
Layer 1
370
     0
100
AcDbVertex
100
AcDb2dVertex
 10
2.048136141625339
 20
-3.360966807397087
 30
0.0
  0
VERTEX
  5
CA
330
C4
100
AcDbEntity
  8
Layer 1
370
     0
100
AcDbVertex
100
AcDb2dVertex
 10
1.975495412096582
 20
-3.360966807397087
 30
0.0
  0
VERTEX
  5
CB
330
C4
100
AcDbEntity
  8
Layer 1
370
     0
100
AcDbVertex
100
AcDb2dVertex
 10
1.975495412096582
 20
-3.311510489262799
 30
0.0
  0
VERTEX
  5
CC
330
C4
100
AcDbEntity
  8
Layer 1
370
     0
100
AcDbVertex
100
AcDb2dVertex
 10
2.172164636148232
 20
-3.311510489262799
 30
0.0
  0
VERTEX
  5
CD
330
C4
100
AcDbEntity
  8
Layer 1
370
     0
100
AcDbVertex
100
AcDb2dVertex
 10
2.172164636148232
 20
-3.360966807397087
 30
0.0
  0
SEQEND
  5
CE
330
C4
100
AcDbEntity
  8
Layer 1
370
     0
  0
HATCH
  5
CF
330
9B
100
AcDbEntity
  8
Layer 1
 62
    30
420
 15234850
100
AcDbHatch
 10
0.0
 20
0.0
 30
0.0
210
0.0
220
0.0
230
1.0
  2
SOLID
 70
     1
 71
     0
 91
        1
 92
        1
 93
        8
 72
     1
 10
2.172164636148232
 20
-3.360966807397087
 11
2.099523906619475
 21
-3.360966807397087
 72
     1
 10
2.099523906619475
 20
-3.360966807397087
 11
2.099523906619475
 21
-3.581969442252607
 72
     1
 10
2.099523906619475
 20
-3.581969442252607
 11
2.048136141625339
 21
-3.581969442252607
 72
     1
 10
2.048136141625339
 20
-3.581969442252607
 11
2.048136141625339
 21
-3.360966807397087
 72
     1
 10
2.048136141625339
 20
-3.360966807397087
 11
1.975495412096582
 21
-3.360966807397087
 72
     1
 10
1.975495412096582
 20
-3.360966807397087
 11
1.975495412096582
 21
-3.311510489262799
 72
     1
 10
1.975495412096582
 20
-3.311510489262799
 11
2.172164636148232
 21
-3.311510489262799
 72
     1
 10
2.172164636148232
 20
-3.311510489262799
 11
2.172164636148232
 21
-3.360966807397087
 97
        0
 75
     2
 76
     1
 98
        0
  0
SPLINE
  5
D0
330
9B
100
AcDbEntity
  8
Layer 1
370
     0
100
AcDbSpline
210
0.0
220
0.0
230
1.0
 70
    11
 71
     3
 72
    35
 73
    31
 74
     0
 42
0.0000000001
 43
0.0000000001
 12
1.0
 22
0.0
 32
0.0
 13
1.0
 23
0.0
 33
0.0
 40
0.0
 40
0.0
 40
0.0
 40
0.0
 40
1.0
 40
1.0
 40
1.0
 40
2.0
 40
2.0
 40
2.0
 40
3.0
 40
3.0
 40
3.0
 40
4.0
 40
4.0
 40
4.0
 40
5.0
 40
5.0
 40
5.0
 40
6.0
 40
6.0
 40
6.0
 40
7.0
 40
7.0
 40
7.0
 40
8.0
 40
8.0
 40
8.0
 40
9.0
 40
9.0
 40
9.0
 40
10.0
 40
10.0
 40
10.0
 40
10.0
 10
2.317044297866358
 20
-3.489231796674655
 30
0.0
 10
2.317044297866358
 20
-3.489231796674655
 30
0.0
 10
2.279571409154528
 20
-3.489231796674655
 30
0.0
 10
2.279571409154528
 20
-3.489231796674655
 30
0.0
 10
2.279571409154528
 20
-3.489231796674655
 30
0.0
 10
2.279571409154528
 20
-3.581969442252607
 30
0.0
 10
2.279571409154528
 20
-3.581969442252607
 30
0.0
 10
2.279571409154528
 20
-3.581969442252607
 30
0.0
 10
2.22818364416038
 20
-3.581969442252607
 30
0.0
 10
2.22818364416038
 20
-3.581969442252607
 30
0.0
 10
2.22818364416038
 20
-3.581969442252607
 30
0.0
 10
2.22818364416038
 20
-3.311510489262799
 30
0.0
 10
2.22818364416038
 20
-3.311510489262799
 30
0.0
 10
2.22818364416038
 20
-3.311510489262799
 30
0.0
 10
2.328252328914459
 20
-3.311510489262799
 30
0.0
 10
2.328252328914459
 20
-3.311510489262799
 30
0.0
 10
2.388521929833511
 20
-3.311510489262799
 30
0.0
 10
2.422146022977838
 20
-3.350914824834439
 30
0.0
 10
2.422146022977838
 20
-3.400371142968753
 30
0.0
 10
2.422146022977838
 20
-3.436687983195068
 30
0.0
 10
2.404368252975751
 20
-3.467605231105103
 30
0.0
 10
2.37075825798369
 20
-3.481506009235217
 30
0.0
 10
2.37075825798369
 20
-3.481506009235217
 30
0.0
 10
2.428715761931799
 20
-3.581969442252607
 30
0.0
 10
2.428715761931799
 20
-3.581969442252607
 30
0.0
 10
2.428715761931799
 20
-3.581969442252607
 30
0.0
 10
2.37075825798369
 20
-3.581969442252607
 30
0.0
 10
2.37075825798369
 20
-3.581969442252607
 30
0.0
 10
2.37075825798369
 20
-3.581969442252607
 30
0.0
 10
2.317044297866358
 20
-3.489231796674655
 30
0.0
 10
2.317044297866358
 20
-3.489231796674655
 30
0.0
  0
SPLINE
  5
D1
330
9B
100
AcDbEntity
  8
Layer 1
370
     0
100
AcDbSpline
210
0.0
220
0.0
230
1.0
 70
    11
 71
     3
 72
    20
 73
    16
 74
     0
 42
0.0000000001
 43
0.0000000001
 12
1.0
 22
0.0
 32
0.0
 13
1.0
 23
0.0
 33
0.0
 40
0.0
 40
0.0
 40
0.0
 40
0.0
 40
1.0
 40
1.0
 40
1.0
 40
2.0
 40
2.0
 40
2.0
 40
3.0
 40
3.0
 40
3.0
 40
4.0
 40
4.0
 40
4.0
 40
5.0
 40
5.0
 40
5.0
 40
5.0
 10
2.279571409154528
 20
-3.44017022680373
 30
0.0
 10
2.279571409154528
 20
-3.44017022680373
 30
0.0
 10
2.327096280428994
 20
-3.44017022680373
 30
0.0
 10
2.327096280428994
 20
-3.44017022680373
 30
0.0
 10
2.352599837870507
 20
-3.44017022680373
 30
0.0
 10
2.368826811123856
 20
-3.423548505287069
 30
0.0
 10
2.368826811123856
 20
-3.400371142968753
 30
0.0
 10
2.368826811123856
 20
-3.377193780650385
 30
0.0
 10
2.352599837870507
 20
-3.360966807397087
 30
0.0
 10
2.327096280428994
 20
-3.360966807397087
 30
0.0
 10
2.327096280428994
 20
-3.360966807397087
 30
0.0
 10
2.279571409154528
 20
-3.360966807397087
 30
0.0
 10
2.279571409154528
 20
-3.360966807397087
 30
0.0
 10
2.279571409154528
 20
-3.360966807397087
 30
0.0
 10
2.279571409154528
 20
-3.44017022680373
 30
0.0
 10
2.279571409154528
 20
-3.44017022680373
 30
0.0
  0
HATCH
  5
D2
330
9B
100
AcDbEntity
  8
Layer 1
 62
    30
420
 15234850
100
AcDbHatch
 10
0.0
 20
0.0
 30
0.0
210
0.0
220
0.0
230
1.0
  2
SOLID
 70
     1
 71
     0
 91
        2
 92
        1
 93
        1
 72
     4
 94
        3
 73
     0
 74
     1
 95
       35
 96
       31
 40
0.0
 40
0.0
 40
0.0
 40
0.0
 40
1.0
 40
1.0
 40
1.0
 40
2.0
 40
2.0
 40
2.0
 40
3.0
 40
3.0
 40
3.0
 40
4.0
 40
4.0
 40
4.0
 40
5.0
 40
5.0
 40
5.0
 40
6.0
 40
6.0
 40
6.0
 40
7.0
 40
7.0
 40
7.0
 40
8.0
 40
8.0
 40
8.0
 40
9.0
 40
9.0
 40
9.0
 40
10.0
 40
10.0
 40
10.0
 40
10.0
 10
2.317044297866358
 20
-3.489231796674655
 10
2.317044297866358
 20
-3.489231796674655
 10
2.279571409154528
 20
-3.489231796674655
 10
2.279571409154528
 20
-3.489231796674655
 10
2.279571409154528
 20
-3.489231796674655
 10
2.279571409154528
 20
-3.581969442252607
 10
2.279571409154528
 20
-3.581969442252607
 10
2.279571409154528
 20
-3.581969442252607
 10
2.22818364416038
 20
-3.581969442252607
 10
2.22818364416038
 20
-3.581969442252607
 10
2.22818364416038
 20
-3.581969442252607
 10
2.22818364416038
 20
-3.311510489262799
 10
2.22818364416038
 20
-3.311510489262799
 10
2.22818364416038
 20
-3.311510489262799
 10
2.328252328914459
 20
-3.311510489262799
 10
2.328252328914459
 20
-3.311510489262799
 10
2.388521929833511
 20
-3.311510489262799
 10
2.422146022977838
 20
-3.350914824834439
 10
2.422146022977838
 20
-3.400371142968753
 10
2.422146022977838
 20
-3.436687983195068
 10
2.404368252975751
 20
-3.467605231105103
 10
2.37075825798369
 20
-3.481506009235217
 10
2.37075825798369
 20
-3.481506009235217
 10
2.428715761931799
 20
-3.581969442252607
 10
2.428715761931799
 20
-3.581969442252607
 10
2.428715761931799
 20
-3.581969442252607
 10
2.37075825798369
 20
-3.581969442252607
 10
2.37075825798369
 20
-3.581969442252607
 10
2.37075825798369
 20
-3.581969442252607
 10
2.317044297866358
 20
-3.489231796674655
 10
2.317044297866358
 20
-3.489231796674655
 97
        0
 97
        0
 92
        1
 93
        1
 72
     4
 94
        3
 73
     0
 74
     1
 95
       20
 96
       16
 40
0.0
 40
0.0
 40
0.0
 40
0.0
 40
1.0
 40
1.0
 40
1.0
 40
2.0
 40
2.0
 40
2.0
 40
3.0
 40
3.0
 40
3.0
 40
4.0
 40
4.0
 40
4.0
 40
5.0
 40
5.0
 40
5.0
 40
5.0
 10
2.279571409154528
 20
-3.44017022680373
 10
2.279571409154528
 20
-3.44017022680373
 10
2.327096280428994
 20
-3.44017022680373
 10
2.327096280428994
 20
-3.44017022680373
 10
2.352599837870507
 20
-3.44017022680373
 10
2.368826811123856
 20
-3.423548505287069
 10
2.368826811123856
 20
-3.400371142968753
 10
2.368826811123856
 20
-3.377193780650385
 10
2.352599837870507
 20
-3.360966807397087
 10
2.327096280428994
 20
-3.360966807397087
 10
2.327096280428994
 20
-3.360966807397087
 10
2.279571409154528
 20
-3.360966807397087
 10
2.279571409154528
 20
-3.360966807397087
 10
2.279571409154528
 20
-3.360966807397087
 10
2.279571409154528
 20
-3.44017022680373
 10
2.279571409154528
 20
-3.44017022680373
 97
        0
 97
        0
 75
     2
 76
     1
 98
        0
  0
SPLINE
  5
D3
330
9B
100
AcDbEntity
  8
Layer 1
370
     0
100
AcDbSpline
210
0.0
220
0.0
230
1.0
 70
    11
 71
     3
 72
    35
 73
    31
 74
     0
 42
0.0000000001
 43
0.0000000001
 12
1.0
 22
0.0
 32
0.0
 13
1.0
 23
0.0
 33
0.0
 40
0.0
 40
0.0
 40
0.0
 40
0.0
 40
1.0
 40
1.0
 40
1.0
 40
2.0
 40
2.0
 40
2.0
 40
3.0
 40
3.0
 40
3.0
 40
4.0
 40
4.0
 40
4.0
 40
5.0
 40
5.0
 40
5.0
 40
6.0
 40
6.0
 40
6.0
 40
7.0
 40
7.0
 40
7.0
 40
8.0
 40
8.0
 40
8.0
 40
9.0
 40
9.0
 40
9.0
 40
10.0
 40
10.0
 40
10.0
 40
10.0
 10
2.684103790153762
 20
-3.311510489262799
 30
0.0
 10
2.684103790153762
 20
-3.311510489262799
 30
0.0
 10
2.684103790153762
 20
-3.475711668655625
 30
0.0
 10
2.684103790153762
 20
-3.475711668655625
 30
0.0
 10
2.684103790153762
 20
-3.543326406903083
 30
0.0
 10
2.643148657833333
 20
-3.585056937597907
 30
0.0
 10
2.580552861791097
 20
-3.585056937597907
 30
0.0
 10
2.517576415637753
 20
-3.585056937597907
 30
0.0
 10
2.477001933428381
 20
-3.543326406903083
 30
0.0
 10
2.477001933428381
 20
-3.475711668655625
 30
0.0
 10
2.477001933428381
 20
-3.475711668655625
 30
0.0
 10
2.477001933428381
 20
-3.311510489262799
 30
0.0
 10
2.477001933428381
 20
-3.311510489262799
 30
0.0
 10
2.477001933428381
 20
-3.311510489262799
 30
0.0
 10
2.528389698422516
 20
-3.311510489262799
 30
0.0
 10
2.528389698422516
 20
-3.311510489262799
 30
0.0
 10
2.528389698422516
 20
-3.311510489262799
 30
0.0
 10
2.528389698422516
 20
-3.474555620170147
 30
0.0
 10
2.528389698422516
 20
-3.474555620170147
 30
0.0
 10
2.528389698422516
 20
-3.510872460396462
 30
0.0
 10
2.548098915284476
 20
-3.533288522492689
 30
0.0
 10
2.580552861791097
 20
-3.533288522492689
 30
0.0
 10
2.612626158186584
 20
-3.533288522492689
 30
0.0
 10
2.632716025159602
 20
-3.510872460396462
 30
0.0
 10
2.632716025159602
 20
-3.474555620170147
 30
0.0
 10
2.632716025159602
 20
-3.474555620170147
 30
0.0
 10
2.632716025159602
 20
-3.311510489262799
 30
0.0
 10
2.632716025159602
 20
-3.311510489262799
 30
0.0
 10
2.632716025159602
 20
-3.311510489262799
 30
0.0
 10
2.684103790153762
 20
-3.311510489262799
 30
0.0
 10
2.684103790153762
 20
-3.311510489262799
 30
0.0
  0
HATCH
  5
D4
330
9B
100
AcDbEntity
  8
Layer 1
 62
    30
420
 15234850
100
AcDbHatch
 10
0.0
 20
0.0
 30
0.0
210
0.0
220
0.0
230
1.0
  2
SOLID
 70
     1
 71
     0
 91
        1
 92
        1
 93
        1
 72
     4
 94
        3
 73
     0
 74
     1
 95
       35
 96
       31
 40
0.0
 40
0.0
 40
0.0
 40
0.0
 40
1.0
 40
1.0
 40
1.0
 40
2.0
 40
2.0
 40
2.0
 40
3.0
 40
3.0
 40
3.0
 40
4.0
 40
4.0
 40
4.0
 40
5.0
 40
5.0
 40
5.0
 40
6.0
 40
6.0
 40
6.0
 40
7.0
 40
7.0
 40
7.0
 40
8.0
 40
8.0
 40
8.0
 40
9.0
 40
9.0
 40
9.0
 40
10.0
 40
10.0
 40
10.0
 40
10.0
 10
2.684103790153762
 20
-3.311510489262799
 10
2.684103790153762
 20
-3.311510489262799
 10
2.684103790153762
 20
-3.475711668655625
 10
2.684103790153762
 20
-3.475711668655625
 10
2.684103790153762
 20
-3.543326406903083
 10
2.643148657833333
 20
-3.585056937597907
 10
2.580552861791097
 20
-3.585056937597907
 10
2.517576415637753
 20
-3.585056937597907
 10
2.477001933428381
 20
-3.543326406903083
 10
2.477001933428381
 20
-3.475711668655625
 10
2.477001933428381
 20
-3.475711668655625
 10
2.477001933428381
 20
-3.311510489262799
 10
2.477001933428381
 20
-3.311510489262799
 10
2.477001933428381
 20
-3.311510489262799
 10
2.528389698422516
 20
-3.311510489262799
 10
2.528389698422516
 20
-3.311510489262799
 10
2.528389698422516
 20
-3.311510489262799
 10
2.528389698422516
 20
-3.474555620170147
 10
2.528389698422516
 20
-3.474555620170147
 10
2.528389698422516
 20
-3.510872460396462
 10
2.548098915284476
 20
-3.533288522492689
 10
2.580552861791097
 20
-3.533288522492689
 10
2.612626158186584
 20
-3.533288522492689
 10
2.632716025159602
 20
-3.510872460396462
 10
2.632716025159602
 20
-3.474555620170147
 10
2.632716025159602
 20
-3.474555620170147
 10
2.632716025159602
 20
-3.311510489262799
 10
2.632716025159602
 20
-3.311510489262799
 10
2.632716025159602
 20
-3.311510489262799
 10
2.684103790153762
 20
-3.311510489262799
 10
2.684103790153762
 20
-3.311510489262799
 97
        0
 97
        0
 75
     2
 76
     1
 98
        0
  0
SPLINE
  5
D5
330
9B
100
AcDbEntity
  8
Layer 1
370
     0
100
AcDbSpline
210
0.0
220
0.0
230
1.0
 70
    11
 71
     3
 72
    35
 73
    31
 74
     0
 42
0.0000000001
 43
0.0000000001
 12
1.0
 22
0.0
 32
0.0
 13
1.0
 23
0.0
 33
0.0
 40
0.0
 40
0.0
 40
0.0
 40
0.0
 40
1.0
 40
1.0
 40
1.0
 40
2.0
 40
2.0
 40
2.0
 40
3.0
 40
3.0
 40
3.0
 40
4.0
 40
4.0
 40
4.0
 40
5.0
 40
5.0
 40
5.0
 40
6.0
 40
6.0
 40
6.0
 40
7.0
 40
7.0
 40
7.0
 40
8.0
 40
8.0
 40
8.0
 40
9.0
 40
9.0
 40
9.0
 40
10.0
 40
10.0
 40
10.0
 40
10.0
 10
2.934853526281586
 20
-3.498508380862909
 30
0.0
 10
2.934853526281586
 20
-3.498508380862909
 30
0.0
 10
2.981222349070549
 20
-3.52169984133353
 30
0.0
 10
2.981222349070549
 20
-3.52169984133353
 30
0.0
 10
2.959201035237685
 20
-3.559948128419693
 30
0.0
 10
2.919007203139371
 20
-3.585056937597907
 30
0.0
 10
2.869170234894025
 20
-3.585056937597907
 30
0.0
 10
2.791503514083943
 20
-3.585056937597907
 30
0.0
 10
2.738184302229886
 20
-3.524787336678855
 30
0.0
 10
2.738184302229886
 20
-3.447120615868748
 30
0.0
 10
2.738184302229886
 20
-3.369467993210947
 30
0.0
 10
2.791503514083943
 20
-3.309184294139615
 30
0.0
 10
2.869170234894025
 20
-3.309184294139615
 30
0.0
 10
2.919007203139371
 20
-3.309184294139615
 30
0.0
 10
2.959201035237685
 20
-3.333912453206747
 30
0.0
 10
2.981222349070549
 20
-3.372555488556271
 30
0.0
 10
2.981222349070549
 20
-3.372555488556271
 30
0.0
 10
2.934853526281586
 20
-3.395732850874613
 30
0.0
 10
2.934853526281586
 20
-3.395732850874613
 30
0.0
 10
2.921333398262555
 20
-3.374092187152807
 30
0.0
 10
2.898917336166353
 20
-3.360572059133776
 30
0.0
 10
2.869170234894025
 20
-3.360572059133776
 30
0.0
 10
2.820094566870794
 20
-3.360572059133776
 30
0.0
 10
2.790728115709524
 20
-3.39766429773446
 30
0.0
 10
2.790728115709524
 20
-3.447120615868748
 30
0.0
 10
2.790728115709524
 20
-3.496196283891979
 30
0.0
 10
2.820094566870794
 20
-3.533288522492689
 30
0.0
 10
2.869170234894025
 20
-3.533288522492689
 30
0.0
 10
2.898917336166353
 20
-3.533288522492689
 30
0.0
 10
2.921333398262555
 20
-3.520149044584716
 30
0.0
 10
2.934853526281586
 20
-3.498508380862909
 30
0.0
  0
HATCH
  5
D6
330
9B
100
AcDbEntity
  8
Layer 1
 62
    30
420
 15234850
100
AcDbHatch
 10
0.0
 20
0.0
 30
0.0
210
0.0
220
0.0
230
1.0
  2
SOLID
 70
     1
 71
     0
 91
        1
 92
        1
 93
        1
 72
     4
 94
        3
 73
     0
 74
     1
 95
       35
 96
       31
 40
0.0
 40
0.0
 40
0.0
 40
0.0
 40
1.0
 40
1.0
 40
1.0
 40
2.0
 40
2.0
 40
2.0
 40
3.0
 40
3.0
 40
3.0
 40
4.0
 40
4.0
 40
4.0
 40
5.0
 40
5.0
 40
5.0
 40
6.0
 40
6.0
 40
6.0
 40
7.0
 40
7.0
 40
7.0
 40
8.0
 40
8.0
 40
8.0
 40
9.0
 40
9.0
 40
9.0
 40
10.0
 40
10.0
 40
10.0
 40
10.0
 10
2.934853526281586
 20
-3.498508380862909
 10
2.934853526281586
 20
-3.498508380862909
 10
2.981222349070549
 20
-3.52169984133353
 10
2.981222349070549
 20
-3.52169984133353
 10
2.959201035237685
 20
-3.559948128419693
 10
2.919007203139371
 20
-3.585056937597907
 10
2.869170234894025
 20
-3.585056937597907
 10
2.791503514083943
 20
-3.585056937597907
 10
2.738184302229886
 20
-3.524787336678855
 10
2.738184302229886
 20
-3.447120615868748
 10
2.738184302229886
 20
-3.369467993210947
 10
2.791503514083943
 20
-3.309184294139615
 10
2.869170234894025
 20
-3.309184294139615
 10
2.919007203139371
 20
-3.309184294139615
 10
2.959201035237685
 20
-3.333912453206747
 10
2.981222349070549
 20
-3.372555488556271
 10
2.981222349070549
 20
-3.372555488556271
 10
2.934853526281586
 20
-3.395732850874613
 10
2.934853526281586
 20
-3.395732850874613
 10
2.921333398262555
 20
-3.374092187152807
 10
2.898917336166353
 20
-3.360572059133776
 10
2.869170234894025
 20
-3.360572059133776
 10
2.820094566870794
 20
-3.360572059133776
 10
2.790728115709524
 20
-3.39766429773446
 10
2.790728115709524
 20
-3.447120615868748
 10
2.790728115709524
 20
-3.496196283891979
 10
2.820094566870794
 20
-3.533288522492689
 10
2.869170234894025
 20
-3.533288522492689
 10
2.898917336166353
 20
-3.533288522492689
 10
2.921333398262555
 20
-3.520149044584716
 10
2.934853526281586
 20
-3.498508380862909
 97
        0
 97
        0
 75
     2
 76
     1
 98
        0
  0
POLYLINE
  5
D7
330
9B
100
AcDbEntity
  8
Layer 1
370
     0
100
AcDb2dPolyline
 66
     1
 10
0.0
 20
0.0
 30
0.0
  0
VERTEX
  5
D8
330
D7
100
AcDbEntity
  8
Layer 1
370
     0
100
AcDbVertex
100
AcDb2dVertex
 10
3.224232199606679
 20
-3.360966807397087
 30
0.0
  0
VERTEX
  5
D9
330
D7
100
AcDbEntity
  8
Layer 1
370
     0
100
AcDbVertex
100
AcDb2dVertex
 10
3.151598519154024
 20
-3.360966807397087
 30
0.0
  0
VERTEX
  5
DA
330
D7
100
AcDbEntity
  8
Layer 1
370
     0
100
AcDbVertex
100
AcDb2dVertex
 10
3.151598519154024
 20
-3.581969442252607
 30
0.0
  0
VERTEX
  5
DB
330
D7
100
AcDbEntity
  8
Layer 1
370
     0
100
AcDbVertex
100
AcDb2dVertex
 10
3.100210754159889
 20
-3.581969442252607
 30
0.0
  0
VERTEX
  5
DC
330
D7
100
AcDbEntity
  8
Layer 1
370
     0
100
AcDbVertex
100
AcDb2dVertex
 10
3.100210754159889
 20
-3.360966807397087
 30
0.0
  0
VERTEX
  5
DD
330
D7
100
AcDbEntity
  8
Layer 1
370
     0
100
AcDbVertex
100
AcDb2dVertex
 10
3.027562975555004
 20
-3.360966807397087
 30
0.0
  0
VERTEX
  5
DE
330
D7
100
AcDbEntity
  8
Layer 1
370
     0
100
AcDbVertex
100
AcDb2dVertex
 10
3.027562975555004
 20
-3.311510489262799
 30
0.0
  0
VERTEX
  5
DF
330
D7
100
AcDbEntity
  8
Layer 1
370
     0
100
AcDbVertex
100
AcDb2dVertex
 10
3.224232199606679
 20
-3.311510489262799
 30
0.0
  0
VERTEX
  5
E0
330
D7
100
AcDbEntity
  8
Layer 1
370
     0
100
AcDbVertex
100
AcDb2dVertex
 10
3.224232199606679
 20
-3.360966807397087
 30
0.0
  0
SEQEND
  5
E1
330
D7
100
AcDbEntity
  8
Layer 1
370
     0
  0
HATCH
  5
E2
330
9B
100
AcDbEntity
  8
Layer 1
 62
    30
420
 15234850
100
AcDbHatch
 10
0.0
 20
0.0
 30
0.0
210
0.0
220
0.0
230
1.0
  2
SOLID
 70
     1
 71
     0
 91
        1
 92
        1
 93
        8
 72
     1
 10
3.224232199606679
 20
-3.360966807397087
 11
3.151598519154024
 21
-3.360966807397087
 72
     1
 10
3.151598519154024
 20
-3.360966807397087
 11
3.151598519154024
 21
-3.581969442252607
 72
     1
 10
3.151598519154024
 20
-3.581969442252607
 11
3.100210754159889
 21
-3.581969442252607
 72
     1
 10
3.100210754159889
 20
-3.581969442252607
 11
3.100210754159889
 21
-3.360966807397087
 72
     1
 10
3.100210754159889
 20
-3.360966807397087
 11
3.027562975555004
 21
-3.360966807397087
 72
     1
 10
3.027562975555004
 20
-3.360966807397087
 11
3.027562975555004
 21
-3.311510489262799
 72
     1
 10
3.027562975555004
 20
-3.311510489262799
 11
3.224232199606679
 21
-3.311510489262799
 72
     1
 10
3.224232199606679
 20
-3.311510489262799
 11
3.224232199606679
 21
-3.360966807397087
 97
        0
 75
     2
 76
     1
 98
        0
  0
SPLINE
  5
E3
330
9B
100
AcDbEntity
  8
Layer 1
370
     0
100
AcDbSpline
210
0.0
220
0.0
230
1.0
 70
    11
 71
     3
 72
    35
 73
    31
 74
     0
 42
0.0000000001
 43
0.0000000001
 12
1.0
 22
0.0
 32
0.0
 13
1.0
 23
0.0
 33
0.0
 40
0.0
 40
0.0
 40
0.0
 40
0.0
 40
1.0
 40
1.0
 40
1.0
 40
2.0
 40
2.0
 40
2.0
 40
3.0
 40
3.0
 40
3.0
 40
4.0
 40
4.0
 40
4.0
 40
5.0
 40
5.0
 40
5.0
 40
6.0
 40
6.0
 40
6.0
 40
7.0
 40
7.0
 40
7.0
 40
8.0
 40
8.0
 40
8.0
 40
9.0
 40
9.0
 40
9.0
 40
10.0
 40
10.0
 40
10.0
 40
10.0
 10
3.485414568408209
 20
-3.311510489262799
 30
0.0
 10
3.485414568408209
 20
-3.311510489262799
 30
0.0
 10
3.485414568408209
 20
-3.475711668655625
 30
0.0
 10
3.485414568408209
 20
-3.475711668655625
 30
0.0
 10
3.485414568408209
 20
-3.543326406903083
 30
0.0
 10
3.444459436087779
 20
-3.585056937597907
 30
0.0
 10
3.381863640045518
 20
-3.585056937597907
 30
0.0
 10
3.318887193892199
 20
-3.585056937597907
 30
0.0
 10
3.278312711682803
 20
-3.543326406903083
 30
0.0
 10
3.278312711682803
 20
-3.475711668655625
 30
0.0
 10
3.278312711682803
 20
-3.475711668655625
 30
0.0
 10
3.278312711682803
 20
-3.311510489262799
 30
0.0
 10
3.278312711682803
 20
-3.311510489262799
 30
0.0
 10
3.278312711682803
 20
-3.311510489262799
 30
0.0
 10
3.329700476676963
 20
-3.311510489262799
 30
0.0
 10
3.329700476676963
 20
-3.311510489262799
 30
0.0
 10
3.329700476676963
 20
-3.311510489262799
 30
0.0
 10
3.329700476676963
 20
-3.474555620170147
 30
0.0
 10
3.329700476676963
 20
-3.474555620170147
 30
0.0
 10
3.329700476676963
 20
-3.510872460396462
 30
0.0
 10
3.349409693538923
 20
-3.533288522492689
 30
0.0
 10
3.381863640045518
 20
-3.533288522492689
 30
0.0
 10
3.413936936441031
 20
-3.533288522492689
 30
0.0
 10
3.434026803414048
 20
-3.510872460396462
 30
0.0
 10
3.434026803414048
 20
-3.474555620170147
 30
0.0
 10
3.434026803414048
 20
-3.474555620170147
 30
0.0
 10
3.434026803414048
 20
-3.311510489262799
 30
0.0
 10
3.434026803414048
 20
-3.311510489262799
 30
0.0
 10
3.434026803414048
 20
-3.311510489262799
 30
0.0
 10
3.485414568408209
 20
-3.311510489262799
 30
0.0
 10
3.485414568408209
 20
-3.311510489262799
 30
0.0
  0
HATCH
  5
E4
330
9B
100
AcDbEntity
  8
Layer 1
 62
    30
420
 15234850
100
AcDbHatch
 10
0.0
 20
0.0
 30
0.0
210
0.0
220
0.0
230
1.0
  2
SOLID
 70
     1
 71
     0
 91
        1
 92
        1
 93
        1
 72
     4
 94
        3
 73
     0
 74
     1
 95
       35
 96
       31
 40
0.0
 40
0.0
 40
0.0
 40
0.0
 40
1.0
 40
1.0
 40
1.0
 40
2.0
 40
2.0
 40
2.0
 40
3.0
 40
3.0
 40
3.0
 40
4.0
 40
4.0
 40
4.0
 40
5.0
 40
5.0
 40
5.0
 40
6.0
 40
6.0
 40
6.0
 40
7.0
 40
7.0
 40
7.0
 40
8.0
 40
8.0
 40
8.0
 40
9.0
 40
9.0
 40
9.0
 40
10.0
 40
10.0
 40
10.0
 40
10.0
 10
3.485414568408209
 20
-3.311510489262799
 10
3.485414568408209
 20
-3.311510489262799
 10
3.485414568408209
 20
-3.475711668655625
 10
3.485414568408209
 20
-3.475711668655625
 10
3.485414568408209
 20
-3.543326406903083
 10
3.444459436087779
 20
-3.585056937597907
 10
3.381863640045518
 20
-3.585056937597907
 10
3.318887193892199
 20
-3.585056937597907
 10
3.278312711682803
 20
-3.543326406903083
 10
3.278312711682803
 20
-3.475711668655625
 10
3.278312711682803
 20
-3.475711668655625
 10
3.278312711682803
 20
-3.311510489262799
 10
3.278312711682803
 20
-3.311510489262799
 10
3.278312711682803
 20
-3.311510489262799
 10
3.329700476676963
 20
-3.311510489262799
 10
3.329700476676963
 20
-3.311510489262799
 10
3.329700476676963
 20
-3.311510489262799
 10
3.329700476676963
 20
-3.474555620170147
 10
3.329700476676963
 20
-3.474555620170147
 10
3.329700476676963
 20
-3.510872460396462
 10
3.349409693538923
 20
-3.533288522492689
 10
3.381863640045518
 20
-3.533288522492689
 10
3.413936936441031
 20
-3.533288522492689
 10
3.434026803414048
 20
-3.510872460396462
 10
3.434026803414048
 20
-3.474555620170147
 10
3.434026803414048
 20
-3.474555620170147
 10
3.434026803414048
 20
-3.311510489262799
 10
3.434026803414048
 20
-3.311510489262799
 10
3.434026803414048
 20
-3.311510489262799
 10
3.485414568408209
 20
-3.311510489262799
 10
3.485414568408209
 20
-3.311510489262799
 97
        0
 97
        0
 75
     2
 76
     1
 98
        0
  0
SPLINE
  5
E5
330
9B
100
AcDbEntity
  8
Layer 1
370
     0
100
AcDbSpline
210
0.0
220
0.0
230
1.0
 70
    11
 71
     3
 72
    35
 73
    31
 74
     0
 42
0.0000000001
 43
0.0000000001
 12
1.0
 22
0.0
 32
0.0
 13
1.0
 23
0.0
 33
0.0
 40
0.0
 40
0.0
 40
0.0
 40
0.0
 40
1.0
 40
1.0
 40
1.0
 40
2.0
 40
2.0
 40
2.0
 40
3.0
 40
3.0
 40
3.0
 40
4.0
 40
4.0
 40
4.0
 40
5.0
 40
5.0
 40
5.0
 40
6.0
 40
6.0
 40
6.0
 40
7.0
 40
7.0
 40
7.0
 40
8.0
 40
8.0
 40
8.0
 40
9.0
 40
9.0
 40
9.0
 40
10.0
 40
10.0
 40
10.0
 40
10.0
 10
3.63802706664185
 20
-3.489231796674655
 30
0.0
 10
3.63802706664185
 20
-3.489231796674655
 30
0.0
 10
3.600540079777804
 20
-3.489231796674655
 30
0.0
 10
3.600540079777804
 20
-3.489231796674655
 30
0.0
 10
3.600540079777804
 20
-3.489231796674655
 30
0.0
 10
3.600540079777804
 20
-3.581969442252607
 30
0.0
 10
3.600540079777804
 20
-3.581969442252607
 30
0.0
 10
3.600540079777804
 20
-3.581969442252607
 30
0.0
 10
3.549152314783669
 20
-3.581969442252607
 30
0.0
 10
3.549152314783669
 20
-3.581969442252607
 30
0.0
 10
3.549152314783669
 20
-3.581969442252607
 30
0.0
 10
3.549152314783669
 20
-3.311510489262799
 30
0.0
 10
3.549152314783669
 20
-3.311510489262799
 30
0.0
 10
3.549152314783669
 20
-3.311510489262799
 30
0.0
 10
3.649235097689951
 20
-3.311510489262799
 30
0.0
 10
3.649235097689951
 20
-3.311510489262799
 30
0.0
 10
3.709504698609028
 20
-3.311510489262799
 30
0.0
 10
3.743114693601102
 20
-3.350914824834439
 30
0.0
 10
3.743114693601102
 20
-3.400371142968753
 30
0.0
 10
3.743114693601102
 20
-3.436687983195068
 30
0.0
 10
3.725351021751243
 20
-3.467605231105103
 30
0.0
 10
3.691726928606941
 20
-3.481506009235217
 30
0.0
 10
3.691726928606941
 20
-3.481506009235217
 30
0.0
 10
3.749684432555063
 20
-3.581969442252607
 30
0.0
 10
3.749684432555063
 20
-3.581969442252607
 30
0.0
 10
3.749684432555063
 20
-3.581969442252607
 30
0.0
 10
3.691726928606941
 20
-3.581969442252607
 30
0.0
 10
3.691726928606941
 20
-3.581969442252607
 30
0.0
 10
3.691726928606941
 20
-3.581969442252607
 30
0.0
 10
3.63802706664185
 20
-3.489231796674655
 30
0.0
 10
3.63802706664185
 20
-3.489231796674655
 30
0.0
  0
SPLINE
  5
E6
330
9B
100
AcDbEntity
  8
Layer 1
370
     0
100
AcDbSpline
210
0.0
220
0.0
230
1.0
 70
    11
 71
     3
 72
    20
 73
    16
 74
     0
 42
0.0000000001
 43
0.0000000001
 12
1.0
 22
0.0
 32
0.0
 13
1.0
 23
0.0
 33
0.0
 40
0.0
 40
0.0
 40
0.0
 40
0.0
 40
1.0
 40
1.0
 40
1.0
 40
2.0
 40
2.0
 40
2.0
 40
3.0
 40
3.0
 40
3.0
 40
4.0
 40
4.0
 40
4.0
 40
5.0
 40
5.0
 40
5.0
 40
5.0
 10
3.600540079777804
 20
-3.44017022680373
 30
0.0
 10
3.600540079777804
 20
-3.44017022680373
 30
0.0
 10
3.64806495105222
 20
-3.44017022680373
 30
0.0
 10
3.64806495105222
 20
-3.44017022680373
 30
0.0
 10
3.673568508493771
 20
-3.44017022680373
 30
0.0
 10
3.689795481747094
 20
-3.423548505287069
 30
0.0
 10
3.689795481747094
 20
-3.400371142968753
 30
0.0
 10
3.689795481747094
 20
-3.377193780650385
 30
0.0
 10
3.673568508493771
 20
-3.360966807397087
 30
0.0
 10
3.64806495105222
 20
-3.360966807397087
 30
0.0
 10
3.64806495105222
 20
-3.360966807397087
 30
0.0
 10
3.600540079777804
 20
-3.360966807397087
 30
0.0
 10
3.600540079777804
 20
-3.360966807397087
 30
0.0
 10
3.600540079777804
 20
-3.360966807397087
 30
0.0
 10
3.600540079777804
 20
-3.44017022680373
 30
0.0
 10
3.600540079777804
 20
-3.44017022680373
 30
0.0
  0
HATCH
  5
E7
330
9B
100
AcDbEntity
  8
Layer 1
 62
    30
420
 15234850
100
AcDbHatch
 10
0.0
 20
0.0
 30
0.0
210
0.0
220
0.0
230
1.0
  2
SOLID
 70
     1
 71
     0
 91
        2
 92
        1
 93
        1
 72
     4
 94
        3
 73
     0
 74
     1
 95
       35
 96
       31
 40
0.0
 40
0.0
 40
0.0
 40
0.0
 40
1.0
 40
1.0
 40
1.0
 40
2.0
 40
2.0
 40
2.0
 40
3.0
 40
3.0
 40
3.0
 40
4.0
 40
4.0
 40
4.0
 40
5.0
 40
5.0
 40
5.0
 40
6.0
 40
6.0
 40
6.0
 40
7.0
 40
7.0
 40
7.0
 40
8.0
 40
8.0
 40
8.0
 40
9.0
 40
9.0
 40
9.0
 40
10.0
 40
10.0
 40
10.0
 40
10.0
 10
3.63802706664185
 20
-3.489231796674655
 10
3.63802706664185
 20
-3.489231796674655
 10
3.600540079777804
 20
-3.489231796674655
 10
3.600540079777804
 20
-3.489231796674655
 10
3.600540079777804
 20
-3.489231796674655
 10
3.600540079777804
 20
-3.581969442252607
 10
3.600540079777804
 20
-3.581969442252607
 10
3.600540079777804
 20
-3.581969442252607
 10
3.549152314783669
 20
-3.581969442252607
 10
3.549152314783669
 20
-3.581969442252607
 10
3.549152314783669
 20
-3.581969442252607
 10
3.549152314783669
 20
-3.311510489262799
 10
3.549152314783669
 20
-3.311510489262799
 10
3.549152314783669
 20
-3.311510489262799
 10
3.649235097689951
 20
-3.311510489262799
 10
3.649235097689951
 20
-3.311510489262799
 10
3.709504698609028
 20
-3.311510489262799
 10
3.743114693601102
 20
-3.350914824834439
 10
3.743114693601102
 20
-3.400371142968753
 10
3.743114693601102
 20
-3.436687983195068
 10
3.725351021751243
 20
-3.467605231105103
 10
3.691726928606941
 20
-3.481506009235217
 10
3.691726928606941
 20
-3.481506009235217
 10
3.749684432555063
 20
-3.581969442252607
 10
3.749684432555063
 20
-3.581969442252607
 10
3.749684432555063
 20
-3.581969442252607
 10
3.691726928606941
 20
-3.581969442252607
 10
3.691726928606941
 20
-3.581969442252607
 10
3.691726928606941
 20
-3.581969442252607
 10
3.63802706664185
 20
-3.489231796674655
 10
3.63802706664185
 20
-3.489231796674655
 97
        0
 97
        0
 92
        1
 93
        1
 72
     4
 94
        3
 73
     0
 74
     1
 95
       20
 96
       16
 40
0.0
 40
0.0
 40
0.0
 40
0.0
 40
1.0
 40
1.0
 40
1.0
 40
2.0
 40
2.0
 40
2.0
 40
3.0
 40
3.0
 40
3.0
 40
4.0
 40
4.0
 40
4.0
 40
5.0
 40
5.0
 40
5.0
 40
5.0
 10
3.600540079777804
 20
-3.44017022680373
 10
3.600540079777804
 20
-3.44017022680373
 10
3.64806495105222
 20
-3.44017022680373
 10
3.64806495105222
 20
-3.44017022680373
 10
3.673568508493771
 20
-3.44017022680373
 10
3.689795481747094
 20
-3.423548505287069
 10
3.689795481747094
 20
-3.400371142968753
 10
3.689795481747094
 20
-3.377193780650385
 10
3.673568508493771
 20
-3.360966807397087
 10
3.64806495105222
 20
-3.360966807397087
 10
3.64806495105222
 20
-3.360966807397087
 10
3.600540079777804
 20
-3.360966807397087
 10
3.600540079777804
 20
-3.360966807397087
 10
3.600540079777804
 20
-3.360966807397087
 10
3.600540079777804
 20
-3.44017022680373
 10
3.600540079777804
 20
-3.44017022680373
 97
        0
 97
        0
 75
     2
 76
     1
 98
        0
  0
POLYLINE
  5
E8
330
9B
100
AcDbEntity
  8
Layer 1
370
     0
100
AcDb2dPolyline
 66
     1
 10
0.0
 20
0.0
 30
0.0
  0
VERTEX
  5
E9
330
E8
100
AcDbEntity
  8
Layer 1
370
     0
100
AcDbVertex
100
AcDb2dVertex
 10
3.979568903335474
 20
-3.532893774229377
 30
0.0
  0
VERTEX
  5
EA
330
E8
100
AcDbEntity
  8
Layer 1
370
     0
100
AcDbVertex
100
AcDb2dVertex
 10
3.979568903335474
 20
-3.581969442252607
 30
0.0
  0
VERTEX
  5
EB
330
E8
100
AcDbEntity
  8
Layer 1
370
     0
100
AcDbVertex
100
AcDb2dVertex
 10
3.799902050911492
 20
-3.581969442252607
 30
0.0
  0
VERTEX
  5
EC
330
E8
100
AcDbEntity
  8
Layer 1
370
     0
100
AcDbVertex
100
AcDb2dVertex
 10
3.799902050911492
 20
-3.311510489262799
 30
0.0
  0
VERTEX
  5
ED
330
E8
100
AcDbEntity
  8
Layer 1
370
     0
100
AcDbVertex
100
AcDb2dVertex
 10
3.977256806364544
 20
-3.311510489262799
 30
0.0
  0
VERTEX
  5
EE
330
E8
100
AcDbEntity
  8
Layer 1
370
     0
100
AcDbVertex
100
AcDb2dVertex
 10
3.977256806364544
 20
-3.360966807397087
 30
0.0
  0
VERTEX
  5
EF
330
E8
100
AcDbEntity
  8
Layer 1
370
     0
100
AcDbVertex
100
AcDb2dVertex
 10
3.851289815905627
 20
-3.360966807397087
 30
0.0
  0
VERTEX
  5
F0
330
E8
100
AcDbEntity
  8
Layer 1
370
     0
100
AcDbVertex
100
AcDb2dVertex
 10
3.851289815905627
 20
-3.422392456801617
 30
0.0
  0
VERTEX
  5
F1
330
E8
100
AcDbEntity
  8
Layer 1
370
     0
100
AcDbVertex
100
AcDb2dVertex
 10
3.965273376942049
 20
-3.422392456801617
 30
0.0
  0
VERTEX
  5
F2
330
E8
100
AcDbEntity
  8
Layer 1
370
     0
100
AcDbVertex
100
AcDb2dVertex
 10
3.965273376942049
 20
-3.471468124824848
 30
0.0
  0
VERTEX
  5
F3
330
E8
100
AcDbEntity
  8
Layer 1
370
     0
100
AcDbVertex
100
AcDb2dVertex
 10
3.851289815905627
 20
-3.471468124824848
 30
0.0
  0
VERTEX
  5
F4
330
E8
100
AcDbEntity
  8
Layer 1
370
     0
100
AcDbVertex
100
AcDb2dVertex
 10
3.851289815905627
 20
-3.532893774229377
 30
0.0
  0
VERTEX
  5
F5
330
E8
100
AcDbEntity
  8
Layer 1
370
     0
100
AcDbVertex
100
AcDb2dVertex
 10
3.979568903335474
 20
-3.532893774229377
 30
0.0
  0
SEQEND
  5
F6
330
E8
100
AcDbEntity
  8
Layer 1
370
     0
  0
HATCH
  5
F7
330
9B
100
AcDbEntity
  8
Layer 1
 62
    30
420
 15234850
100
AcDbHatch
 10
0.0
 20
0.0
 30
0.0
210
0.0
220
0.0
230
1.0
  2
SOLID
 70
     1
 71
     0
 91
        1
 92
        1
 93
       12
 72
     1
 10
3.979568903335474
 20
-3.532893774229377
 11
3.979568903335474
 21
-3.581969442252607
 72
     1
 10
3.979568903335474
 20
-3.581969442252607
 11
3.799902050911492
 21
-3.581969442252607
 72
     1
 10
3.799902050911492
 20
-3.581969442252607
 11
3.799902050911492
 21
-3.311510489262799
 72
     1
 10
3.799902050911492
 20
-3.311510489262799
 11
3.977256806364544
 21
-3.311510489262799
 72
     1
 10
3.977256806364544
 20
-3.311510489262799
 11
3.977256806364544
 21
-3.360966807397087
 72
     1
 10
3.977256806364544
 20
-3.360966807397087
 11
3.851289815905627
 21
-3.360966807397087
 72
     1
 10
3.851289815905627
 20
-3.360966807397087
 11
3.851289815905627
 21
-3.422392456801617
 72
     1
 10
3.851289815905627
 20
-3.422392456801617
 11
3.965273376942049
 21
-3.422392456801617
 72
     1
 10
3.965273376942049
 20
-3.422392456801617
 11
3.965273376942049
 21
-3.471468124824848
 72
     1
 10
3.965273376942049
 20
-3.471468124824848
 11
3.851289815905627
 21
-3.471468124824848
 72
     1
 10
3.851289815905627
 20
-3.471468124824848
 11
3.851289815905627
 21
-3.532893774229377
 72
     1
 10
3.851289815905627
 20
-3.532893774229377
 11
3.979568903335474
 21
-3.532893774229377
 97
        0
 75
     2
 76
     1
 98
        0
  0
SPLINE
  5
F8
330
9B
100
AcDbEntity
  8
Layer 1
370
     0
100
AcDbSpline
210
0.0
220
0.0
230
1.0
 70
    11
 71
     3
 72
    47
 73
    43
 74
     0
 42
0.0000000001
 43
0.0000000001
 12
1.0
 22
0.0
 32
0.0
 13
1.0
 23
0.0
 33
0.0
 40
0.0
 40
0.0
 40
0.0
 40
0.0
 40
1.0
 40
1.0
 40
1.0
 40
2.0
 40
2.0
 40
2.0
 40
3.0
 40
3.0
 40
3.0
 40
4.0
 40
4.0
 40
4.0
 40
5.0
 40
5.0
 40
5.0
 40
6.0
 40
6.0
 40
6.0
 40
7.0
 40
7.0
 40
7.0
 40
8.0
 40
8.0
 40
8.0
 40
9.0
 40
9.0
 40
9.0
 40
10.0
 40
10.0
 40
10.0
 40
11.0
 40
11.0
 40
11.0
 40
12.0
 40
12.0
 40
12.0
 40
13.0
 40
13.0
 40
13.0
 40
14.0
 40
14.0
 40
14.0
 40
14.0
 10
4.233039582849844
 20
-3.50354142122036
 30
0.0
 10
4.233039582849844
 20
-3.548359447260534
 30
0.0
 10
4.201741684828701
 20
-3.586607734346696
 30
0.0
 10
4.1345075966923
 20
-3.586607734346696
 30
0.0
 10
4.081583133101629
 20
-3.586607734346696
 30
0.0
 10
4.033663513563902
 20
-3.558397331670903
 30
0.0
 10
4.025937726124438
 20
-3.519373646210346
 30
0.0
 10
4.025937726124438
 20
-3.519373646210346
 30
0.0
 10
4.073081947287796
 20
-3.501215226097176
 30
0.0
 10
4.073081947287796
 20
-3.501215226097176
 30
0.0
 10
4.078100889492967
 20
-3.52169984133353
 30
0.0
 10
4.101673000074647
 20
-3.534444570978141
 30
0.0
 10
4.129869304598211
 20
-3.534444570978141
 30
0.0
 10
4.161167202619329
 20
-3.534444570978141
 30
0.0
 10
4.178169574247022
 20
-3.522080491444588
 30
0.0
 10
4.178169574247022
 20
-3.505472868080233
 30
0.0
 10
4.178169574247022
 20
-3.489231796674655
 30
0.0
 10
4.165030096339074
 20
-3.482281407609637
 30
0.0
 10
4.120987468673269
 20
-3.469141929701638
 30
0.0
 10
4.058786420894345
 20
-3.45060285947741
 30
0.0
 10
4.033282863452819
 20
-3.427030748895731
 30
0.0
 10
4.033282863452819
 20
-3.387231665060754
 30
0.0
 10
4.033282863452819
 20
-3.351690223208859
 30
0.0
 10
4.059167071005403
 20
-3.309184294139615
 30
0.0
 10
4.128713256112759
 20
-3.309184294139615
 30
0.0
 10
4.1700631366965
 20
-3.309184294139615
 30
0.0
 10
4.212174317502407
 20
-3.331205607972505
 30
0.0
 10
4.219900104941845
 20
-3.369848643322004
 30
0.0
 10
4.219900104941845
 20
-3.369848643322004
 30
0.0
 10
4.174306680527277
 20
-3.386851014949671
 30
0.0
 10
4.174306680527277
 20
-3.386851014949671
 30
0.0
 10
4.170824436918666
 20
-3.369848643322004
 30
0.0
 10
4.14880312308575
 20
-3.360572059133776
 30
0.0
 10
4.129108004376071
 20
-3.360191409022693
 30
0.0
 10
4.107467340654239
 20
-3.359796660759381
 30
0.0
 10
4.087758123792279
 20
-3.367536546351049
 30
0.0
 10
4.087758123792279
 20
-3.385300218200907
 30
0.0
 10
4.087758123792279
 20
-3.398059045997822
 30
0.0
 10
4.097810106354952
 20
-3.406165483548294
 30
0.0
 10
4.140301937271892
 20
-3.419304961456292
 30
0.0
 10
4.19362114912595
 20
-3.43553193470959
 30
0.0
 10
4.233039582849844
 20
-3.453309704711677
 30
0.0
 10
4.233039582849844
 20
-3.50354142122036
 30
0.0
  0
HATCH
  5
F9
330
9B
100
AcDbEntity
  8
Layer 1
 62
    30
420
 15234850
100
AcDbHatch
 10
0.0
 20
0.0
 30
0.0
210
0.0
220
0.0
230
1.0
  2
SOLID
 70
     1
 71
     0
 91
        1
 92
        1
 93
        1
 72
     4
 94
        3
 73
     0
 74
     1
 95
       47
 96
       43
 40
0.0
 40
0.0
 40
0.0
 40
0.0
 40
1.0
 40
1.0
 40
1.0
 40
2.0
 40
2.0
 40
2.0
 40
3.0
 40
3.0
 40
3.0
 40
4.0
 40
4.0
 40
4.0
 40
5.0
 40
5.0
 40
5.0
 40
6.0
 40
6.0
 40
6.0
 40
7.0
 40
7.0
 40
7.0
 40
8.0
 40
8.0
 40
8.0
 40
9.0
 40
9.0
 40
9.0
 40
10.0
 40
10.0
 40
10.0
 40
11.0
 40
11.0
 40
11.0
 40
12.0
 40
12.0
 40
12.0
 40
13.0
 40
13.0
 40
13.0
 40
14.0
 40
14.0
 40
14.0
 40
14.0
 10
4.233039582849844
 20
-3.50354142122036
 10
4.233039582849844
 20
-3.548359447260534
 10
4.201741684828701
 20
-3.586607734346696
 10
4.1345075966923
 20
-3.586607734346696
 10
4.081583133101629
 20
-3.586607734346696
 10
4.033663513563902
 20
-3.558397331670903
 10
4.025937726124438
 20
-3.519373646210346
 10
4.025937726124438
 20
-3.519373646210346
 10
4.073081947287796
 20
-3.501215226097176
 10
4.073081947287796
 20
-3.501215226097176
 10
4.078100889492967
 20
-3.52169984133353
 10
4.101673000074647
 20
-3.534444570978141
 10
4.129869304598211
 20
-3.534444570978141
 10
4.161167202619329
 20
-3.534444570978141
 10
4.178169574247022
 20
-3.522080491444588
 10
4.178169574247022
 20
-3.505472868080233
 10
4.178169574247022
 20
-3.489231796674655
 10
4.165030096339074
 20
-3.482281407609637
 10
4.120987468673269
 20
-3.469141929701638
 10
4.058786420894345
 20
-3.45060285947741
 10
4.033282863452819
 20
-3.427030748895731
 10
4.033282863452819
 20
-3.387231665060754
 10
4.033282863452819
 20
-3.351690223208859
 10
4.059167071005403
 20
-3.309184294139615
 10
4.128713256112759
 20
-3.309184294139615
 10
4.1700631366965
 20
-3.309184294139615
 10
4.212174317502407
 20
-3.331205607972505
 10
4.219900104941845
 20
-3.369848643322004
 10
4.219900104941845
 20
-3.369848643322004
 10
4.174306680527277
 20
-3.386851014949671
 10
4.174306680527277
 20
-3.386851014949671
 10
4.170824436918666
 20
-3.369848643322004
 10
4.14880312308575
 20
-3.360572059133776
 10
4.129108004376071
 20
-3.360191409022693
 10
4.107467340654239
 20
-3.359796660759381
 10
4.087758123792279
 20
-3.367536546351049
 10
4.087758123792279
 20
-3.385300218200907
 10
4.087758123792279
 20
-3.398059045997822
 10
4.097810106354952
 20
-3.406165483548294
 10
4.140301937271892
 20
-3.419304961456292
 10
4.19362114912595
 20
-3.43553193470959
 10
4.233039582849844
 20
-3.453309704711677
 10
4.233039582849844
 20
-3.50354142122036
 97
        0
 97
        0
 75
     2
 76
     1
 98
        0
  0
ENDBLK
  5
9E
330
9B
100
AcDbEntity
  8
0
100
AcDbBlockEnd
  0
BLOCK
  5
FC
330
FA
100
AcDbEntity
  8
0
100
AcDbBlockBegin
  2
block 5
 70
     0
 10
0.0
 20
0.0
 30
0.0
  3
block 5
  1

  0
INSERT
  5
FF
330
FA
100
AcDbEntity
  8
Layer 1
100
AcDbBlockReference
  2
block 6
 10
0.0
 20
0.0
 30
0.0
  0
SPLINE
  5
11B
330
FA
100
AcDbEntity
  8
Layer 1
370
     0
100
AcDbSpline
210
0.0
220
0.0
230
1.0
 70
    11
 71
     3
 72
    95
 73
    91
 74
     0
 42
0.0000000001
 43
0.0000000001
 12
1.0
 22
0.0
 32
0.0
 13
1.0
 23
0.0
 33
0.0
 40
0.0
 40
0.0
 40
0.0
 40
0.0
 40
1.0
 40
1.0
 40
1.0
 40
2.0
 40
2.0
 40
2.0
 40
3.0
 40
3.0
 40
3.0
 40
4.0
 40
4.0
 40
4.0
 40
5.0
 40
5.0
 40
5.0
 40
6.0
 40
6.0
 40
6.0
 40
7.0
 40
7.0
 40
7.0
 40
8.0
 40
8.0
 40
8.0
 40
9.0
 40
9.0
 40
9.0
 40
10.0
 40
10.0
 40
10.0
 40
11.0
 40
11.0
 40
11.0
 40
12.0
 40
12.0
 40
12.0
 40
13.0
 40
13.0
 40
13.0
 40
14.0
 40
14.0
 40
14.0
 40
15.0
 40
15.0
 40
15.0
 40
16.0
 40
16.0
 40
16.0
 40
17.0
 40
17.0
 40
17.0
 40
18.0
 40
18.0
 40
18.0
 40
19.0
 40
19.0
 40
19.0
 40
20.0
 40
20.0
 40
20.0
 40
21.0
 40
21.0
 40
21.0
 40
22.0
 40
22.0
 40
22.0
 40
23.0
 40
23.0
 40
23.0
 40
24.0
 40
24.0
 40
24.0
 40
25.0
 40
25.0
 40
25.0
 40
26.0
 40
26.0
 40
26.0
 40
27.0
 40
27.0
 40
27.0
 40
28.0
 40
28.0
 40
28.0
 40
29.0
 40
29.0
 40
29.0
 40
30.0
 40
30.0
 40
30.0
 40
30.0
 10
1.446960962049654
 20
-2.626414961842682
 30
0.0
 10
1.470099306121534
 20
-2.623371798685437
 30
0.0
 10
1.493348617400834
 20
-2.620356318623787
 30
0.0
 10
1.517211610963715
 20
-2.617510891863983
 30
0.0
 10
1.633177386699016
 20
-2.603683185587973
 30
0.0
 10
1.757776747437194
 20
-2.592356844740177
 30
0.0
 10
1.888652480680851
 20
-2.583628760155256
 30
0.0
 10
1.908539149310551
 20
-2.582301948928135
 30
0.0
 10
1.928444312474842
 20
-2.580994911340768
 30
0.0
 10
1.948626893657724
 20
-2.57979662877205
 30
0.0
 10
2.006350017380707
 20
-2.576365902275686
 30
0.0
 10
2.065260153958989
 20
-2.573474996144518
 30
0.0
 10
2.12520934711602
 20
-2.571121933014436
 30
0.0
 10
2.135411604914894
 20
-2.570722505491555
 30
0.0
 10
2.145496170221034
 20
-2.570263757049361
 30
0.0
 10
2.155758955587594
 20
-2.569893989986086
 30
0.0
 10
2.219225472956092
 20
-2.567618044051086
 30
0.0
 10
2.283954662639505
 20
-2.566061858602906
 30
0.0
 10
2.349495930522822
 20
-2.565057357703634
 30
0.0
 10
2.359721726820238
 20
-2.564899168585675
 30
0.0
 10
2.369774347021196
 20
-2.564626292357136
 30
0.0
 10
2.380045538994384
 20
-2.564499741062718
 30
0.0
 10
2.419554908805834
 20
-2.564021218980845
 30
0.0
 10
2.459392136275609
 20
-2.563772071120006
 30
0.0
 10
2.499530320262529
 20
-2.563772071120006
 30
0.0
 10
2.699999305782184
 20
-2.563772071120006
 30
0.0
 10
2.893055345580883
 20
-2.569878171074303
 30
0.0
 10
3.074138696225646
 20
-2.581147168366821
 30
0.0
 10
3.098021865644417
 20
-2.582634146075911
 30
0.0
 10
3.121415770557658
 20
-2.584324792274376
 30
0.0
 10
3.144871884359923
 20
-2.585987755377245
 30
0.0
 10
3.273602251593148
 20
-2.595125154304924
 30
0.0
 10
3.395617421455073
 20
-2.606900356775087
 30
0.0
 10
3.509362171720365
 20
-2.62099896191565
 30
0.0
 10
3.532557680717294
 20
-2.62387404913501
 30
0.0
 10
3.555690980825148
 20
-2.626761000538257
 30
0.0
 10
3.578175290901678
 20
-2.629825914699192
 30
0.0
 10
3.648538588344485
 20
-2.639416129977159
 30
0.0
 10
3.715108824878573
 20
-2.649961412054962
 30
0.0
 10
3.77789776975318
 20
-2.661289730266743
 30
0.0
 10
3.733763084977252
 20
-2.644582982043403
 30
0.0
 10
3.685894185538902
 20
-2.628762092880783
 30
0.0
 10
3.634654236844325
 20
-2.613929885705551
 30
0.0
 10
3.570311751065623
 20
-2.595299162334716
 30
0.0
 10
3.500651245936574
 20
-2.57824242068783
 30
0.0
 10
3.426351975272382
 20
-2.562971238710159
 30
0.0
 10
3.407033593250465
 20
-2.558998714484763
 30
0.0
 10
3.387155331227354
 20
-2.555259519208372
 30
0.0
 10
3.367224948243221
 20
-2.551532188115819
 30
0.0
 10
3.269489739632667
 20
-2.533263322352342
 30
0.0
 10
3.16464926710354
 20
-2.518007959286605
 30
0.0
 10
3.054036818466355
 20
-2.506167503805209
 30
0.0
 10
3.033884501067329
 20
-2.504012177072696
 30
0.0
 10
3.013782623308038
 20
-2.50182125778853
 30
0.0
 10
2.993260415217542
 20
-2.499895305277076
 30
0.0
 10
2.837665895856743
 20
-2.48529049495898
 30
0.0
 10
2.671783371309453
 20
-2.477381039059663
 30
0.0
 10
2.499530320262529
 20
-2.477381039059663
 30
0.0
 10
2.465041375926931
 20
-2.477381039059663
 30
0.0
 10
2.430811355075358
 20
-2.477701372023539
 30
0.0
 10
2.396863796206364
 20
-2.478324241675624
 30
0.0
 10
2.388036859251188
 20
-2.478486385521592
 30
0.0
 10
2.379399911605661
 20
-2.478840333673083
 30
0.0
 10
2.370613326362281
 20
-2.479044002162482
 30
0.0
 10
2.31429746858814
 20
-2.480347085021902
 30
0.0
 10
2.258679359163807
 20
-2.482362018912264
 30
0.0
 10
2.204145701993955
 20
-2.485312245962708
 30
0.0
 10
2.195327171645406
 20
-2.485790768044593
 30
0.0
 10
2.186663322858724
 20
-2.486383977237046
 30
0.0
 10
2.177895232149897
 20
-2.486904023962451
 30
0.0
 10
2.12638459072203
 20
-2.489951141847667
 30
0.0
 10
2.075765049596321
 20
-2.493698246579962
 30
0.0
 10
2.026167751836093
 20
-2.498145338159399
 30
0.0
 10
2.008826603692152
 20
-2.49969559151561
 30
0.0
 10
1.991722521854955
 20
-2.501390192442071
 30
0.0
 10
1.974635253231036
 20
-2.503110499100141
 30
0.0
 10
1.862181757743226
 20
-2.514421021036191
 30
0.0
 10
1.755118578422702
 20
-2.529097016457399
 30
0.0
 10
1.655476751429811
 20
-2.54701391143332
 30
0.0
 10
1.634971356552581
 20
-2.550701695246415
 30
0.0
 10
1.614993896571339
 20
-2.554608966460667
 30
0.0
 10
1.595112271905577
 20
-2.558553807590442
 30
0.0
 10
1.512445065007922
 20
-2.574948132305785
 30
0.0
 10
1.435127822565707
 20
-2.593452304382203
 30
0.0
 10
1.364403041038056
 20
-2.613929885705551
 30
0.0
 10
1.313073982313287
 20
-2.628787798612519
 30
0.0
 10
1.265122698130035
 20
-2.644638348234669
 30
0.0
 10
1.220924123143732
 20
-2.661374756917692
 30
0.0
 10
1.291507673680106
 20
-2.648658329195491
 30
0.0
 10
1.366925023025273
 20
-2.636942447644666
 30
0.0
 10
1.446960962049654
 20
-2.626414961842682
 30
0.0
  0
HATCH
  5
11C
330
FA
100
AcDbEntity
  8
Layer 1
 62
    30
420
 15234850
100
AcDbHatch
 10
0.0
 20
0.0
 30
0.0
210
0.0
220
0.0
230
1.0
  2
SOLID
 70
     1
 71
     0
 91
        1
 92
        1
 93
        1
 72
     4
 94
        3
 73
     0
 74
     1
 95
       95
 96
       91
 40
0.0
 40
0.0
 40
0.0
 40
0.0
 40
1.0
 40
1.0
 40
1.0
 40
2.0
 40
2.0
 40
2.0
 40
3.0
 40
3.0
 40
3.0
 40
4.0
 40
4.0
 40
4.0
 40
5.0
 40
5.0
 40
5.0
 40
6.0
 40
6.0
 40
6.0
 40
7.0
 40
7.0
 40
7.0
 40
8.0
 40
8.0
 40
8.0
 40
9.0
 40
9.0
 40
9.0
 40
10.0
 40
10.0
 40
10.0
 40
11.0
 40
11.0
 40
11.0
 40
12.0
 40
12.0
 40
12.0
 40
13.0
 40
13.0
 40
13.0
 40
14.0
 40
14.0
 40
14.0
 40
15.0
 40
15.0
 40
15.0
 40
16.0
 40
16.0
 40
16.0
 40
17.0
 40
17.0
 40
17.0
 40
18.0
 40
18.0
 40
18.0
 40
19.0
 40
19.0
 40
19.0
 40
20.0
 40
20.0
 40
20.0
 40
21.0
 40
21.0
 40
21.0
 40
22.0
 40
22.0
 40
22.0
 40
23.0
 40
23.0
 40
23.0
 40
24.0
 40
24.0
 40
24.0
 40
25.0
 40
25.0
 40
25.0
 40
26.0
 40
26.0
 40
26.0
 40
27.0
 40
27.0
 40
27.0
 40
28.0
 40
28.0
 40
28.0
 40
29.0
 40
29.0
 40
29.0
 40
30.0
 40
30.0
 40
30.0
 40
30.0
 10
1.446960962049654
 20
-2.626414961842682
 10
1.470099306121534
 20
-2.623371798685437
 10
1.493348617400834
 20
-2.620356318623787
 10
1.517211610963715
 20
-2.617510891863983
 10
1.633177386699016
 20
-2.603683185587973
 10
1.757776747437194
 20
-2.592356844740177
 10
1.888652480680851
 20
-2.583628760155256
 10
1.908539149310551
 20
-2.582301948928135
 10
1.928444312474842
 20
-2.580994911340768
 10
1.948626893657724
 20
-2.57979662877205
 10
2.006350017380707
 20
-2.576365902275686
 10
2.065260153958989
 20
-2.573474996144518
 10
2.12520934711602
 20
-2.571121933014436
 10
2.135411604914894
 20
-2.570722505491555
 10
2.145496170221034
 20
-2.570263757049361
 10
2.155758955587594
 20
-2.569893989986086
 10
2.219225472956092
 20
-2.567618044051086
 10
2.283954662639505
 20
-2.566061858602906
 10
2.349495930522822
 20
-2.565057357703634
 10
2.359721726820238
 20
-2.564899168585675
 10
2.369774347021196
 20
-2.564626292357136
 10
2.380045538994384
 20
-2.564499741062718
 10
2.419554908805834
 20
-2.564021218980845
 10
2.459392136275609
 20
-2.563772071120006
 10
2.499530320262529
 20
-2.563772071120006
 10
2.699999305782184
 20
-2.563772071120006
 10
2.893055345580883
 20
-2.569878171074303
 10
3.074138696225646
 20
-2.581147168366821
 10
3.098021865644417
 20
-2.582634146075911
 10
3.121415770557658
 20
-2.584324792274376
 10
3.144871884359923
 20
-2.585987755377245
 10
3.273602251593148
 20
-2.595125154304924
 10
3.395617421455073
 20
-2.606900356775087
 10
3.509362171720365
 20
-2.62099896191565
 10
3.532557680717294
 20
-2.62387404913501
 10
3.555690980825148
 20
-2.626761000538257
 10
3.578175290901678
 20
-2.629825914699192
 10
3.648538588344485
 20
-2.639416129977159
 10
3.715108824878573
 20
-2.649961412054962
 10
3.77789776975318
 20
-2.661289730266743
 10
3.733763084977252
 20
-2.644582982043403
 10
3.685894185538902
 20
-2.628762092880783
 10
3.634654236844325
 20
-2.613929885705551
 10
3.570311751065623
 20
-2.595299162334716
 10
3.500651245936574
 20
-2.57824242068783
 10
3.426351975272382
 20
-2.562971238710159
 10
3.407033593250465
 20
-2.558998714484763
 10
3.387155331227354
 20
-2.555259519208372
 10
3.367224948243221
 20
-2.551532188115819
 10
3.269489739632667
 20
-2.533263322352342
 10
3.16464926710354
 20
-2.518007959286605
 10
3.054036818466355
 20
-2.506167503805209
 10
3.033884501067329
 20
-2.504012177072696
 10
3.013782623308038
 20
-2.50182125778853
 10
2.993260415217542
 20
-2.499895305277076
 10
2.837665895856743
 20
-2.48529049495898
 10
2.671783371309453
 20
-2.477381039059663
 10
2.499530320262529
 20
-2.477381039059663
 10
2.465041375926931
 20
-2.477381039059663
 10
2.430811355075358
 20
-2.477701372023539
 10
2.396863796206364
 20
-2.478324241675624
 10
2.388036859251188
 20
-2.478486385521592
 10
2.379399911605661
 20
-2.478840333673083
 10
2.370613326362281
 20
-2.479044002162482
 10
2.31429746858814
 20
-2.480347085021902
 10
2.258679359163807
 20
-2.482362018912264
 10
2.204145701993955
 20
-2.485312245962708
 10
2.195327171645406
 20
-2.485790768044593
 10
2.186663322858724
 20
-2.486383977237046
 10
2.177895232149897
 20
-2.486904023962451
 10
2.12638459072203
 20
-2.489951141847667
 10
2.075765049596321
 20
-2.493698246579962
 10
2.026167751836093
 20
-2.498145338159399
 10
2.008826603692152
 20
-2.49969559151561
 10
1.991722521854955
 20
-2.501390192442071
 10
1.974635253231036
 20
-2.503110499100141
 10
1.862181757743226
 20
-2.514421021036191
 10
1.755118578422702
 20
-2.529097016457399
 10
1.655476751429811
 20
-2.54701391143332
 10
1.634971356552581
 20
-2.550701695246415
 10
1.614993896571339
 20
-2.554608966460667
 10
1.595112271905577
 20
-2.558553807590442
 10
1.512445065007922
 20
-2.574948132305785
 10
1.435127822565707
 20
-2.593452304382203
 10
1.364403041038056
 20
-2.613929885705551
 10
1.313073982313287
 20
-2.628787798612519
 10
1.265122698130035
 20
-2.644638348234669
 10
1.220924123143732
 20
-2.661374756917692
 10
1.291507673680106
 20
-2.648658329195491
 10
1.366925023025273
 20
-2.636942447644666
 10
1.446960962049654
 20
-2.626414961842682
 97
        0
 97
        0
 75
     2
 76
     1
 98
        0
  0
ENDBLK
  5
FD
330
FA
100
AcDbEntity
  8
0
100
AcDbBlockEnd
  0
BLOCK
  5
100
330
FE
100
AcDbEntity
  8
0
100
AcDbBlockBegin
  2
block 6
 70
     0
 10
0.0
 20
0.0
 30
0.0
  3
block 6
  1

  0
SPLINE
  5
102
330
FE
100
AcDbEntity
  8
Layer 1
370
     0
100
AcDbSpline
210
0.0
220
0.0
230
1.0
 70
    11
 71
     3
 72
   173
 73
   169
 74
     0
 42
0.0000000001
 43
0.0000000001
 12
1.0
 22
0.0
 32
0.0
 13
1.0
 23
0.0
 33
0.0
 40
0.0
 40
0.0
 40
0.0
 40
0.0
 40
1.0
 40
1.0
 40
1.0
 40
2.0
 40
2.0
 40
2.0
 40
3.0
 40
3.0
 40
3.0
 40
4.0
 40
4.0
 40
4.0
 40
5.0
 40
5.0
 40
5.0
 40
6.0
 40
6.0
 40
6.0
 40
7.0
 40
7.0
 40
7.0
 40
8.0
 40
8.0
 40
8.0
 40
9.0
 40
9.0
 40
9.0
 40
10.0
 40
10.0
 40
10.0
 40
11.0
 40
11.0
 40
11.0
 40
12.0
 40
12.0
 40
12.0
 40
13.0
 40
13.0
 40
13.0
 40
14.0
 40
14.0
 40
14.0
 40
15.0
 40
15.0
 40
15.0
 40
16.0
 40
16.0
 40
16.0
 40
17.0
 40
17.0
 40
17.0
 40
18.0
 40
18.0
 40
18.0
 40
19.0
 40
19.0
 40
19.0
 40
20.0
 40
20.0
 40
20.0
 40
21.0
 40
21.0
 40
21.0
 40
22.0
 40
22.0
 40
22.0
 40
23.0
 40
23.0
 40
23.0
 40
24.0
 40
24.0
 40
24.0
 40
25.0
 40
25.0
 40
25.0
 40
26.0
 40
26.0
 40
26.0
 40
27.0
 40
27.0
 40
27.0
 40
28.0
 40
28.0
 40
28.0
 40
29.0
 40
29.0
 40
29.0
 40
30.0
 40
30.0
 40
30.0
 40
31.0
 40
31.0
 40
31.0
 40
32.0
 40
32.0
 40
32.0
 40
33.0
 40
33.0
 40
33.0
 40
34.0
 40
34.0
 40
34.0
 40
35.0
 40
35.0
 40
35.0
 40
36.0
 40
36.0
 40
36.0
 40
37.0
 40
37.0
 40
37.0
 40
38.0
 40
38.0
 40
38.0
 40
39.0
 40
39.0
 40
39.0
 40
40.0
 40
40.0
 40
40.0
 40
41.0
 40
41.0
 40
41.0
 40
42.0
 40
42.0
 40
42.0
 40
43.0
 40
43.0
 40
43.0
 40
44.0
 40
44.0
 40
44.0
 40
45.0
 40
45.0
 40
45.0
 40
46.0
 40
46.0
 40
46.0
 40
47.0
 40
47.0
 40
47.0
 40
48.0
 40
48.0
 40
48.0
 40
49.0
 40
49.0
 40
49.0
 40
50.0
 40
50.0
 40
50.0
 40
51.0
 40
51.0
 40
51.0
 40
52.0
 40
52.0
 40
52.0
 40
53.0
 40
53.0
 40
53.0
 40
54.0
 40
54.0
 40
54.0
 40
55.0
 40
55.0
 40
55.0
 40
56.0
 40
56.0
 40
56.0
 40
56.0
 10
1.810597138177071
 20
-1.789476825624964
 30
0.0
 10
1.810597138177071
 20
-1.789476825624964
 30
0.0
 10
2.470018087048338
 20
-1.805804137010088
 30
0.0
 10
2.470018087048338
 20
-1.805804137010088
 30
0.0
 10
2.470018087048338
 20
-1.805804137010088
 30
0.0
 10
2.470018087048338
 20
-1.740999287867061
 30
0.0
 10
2.470018087048338
 20
-1.740999287867061
 30
0.0
 10
2.470018087048338
 20
-1.740999287867061
 30
0.0
 10
2.199902046970187
 20
-1.734312672958342
 30
0.0
 10
2.199902046970187
 20
-1.734312672958342
 30
0.0
 10
2.199902046970187
 20
-1.734312672958342
 30
0.0
 10
2.484127735606067
 20
-1.648397153261145
 30
0.0
 10
2.484127735606067
 20
-1.648397153261145
 30
0.0
 10
2.484127735606067
 20
-1.648397153261145
 30
0.0
 10
2.484127735606067
 20
-2.452270505073797
 30
0.0
 10
2.484127735606067
 20
-2.452270505073797
 30
0.0
 10
2.489291073394497
 20
-2.452255373181856
 30
0.0
 10
2.494356894546121
 20
-2.45212927408252
 30
0.0
 10
2.499530320262529
 20
-2.45212927408252
 30
0.0
 10
2.545304293330168
 20
-2.45212927408252
 30
0.0
 10
2.59054192489518
 20
-2.452771538828592
 30
0.0
 10
2.635342412915735
 20
-2.453866079011024
 30
0.0
 10
2.635342412915735
 20
-2.453866079011024
 30
0.0
 10
2.635342412915735
 20
-1.713795508831822
 30
0.0
 10
2.635342412915735
 20
-1.713795508831822
 30
0.0
 10
2.635342412915735
 20
-1.713795508831822
 30
0.0
 10
2.857742553796141
 20
-1.640170448018883
 30
0.0
 10
2.857742553796141
 20
-1.640170448018883
 30
0.0
 10
2.857742553796141
 20
-1.640170448018883
 30
0.0
 10
3.000012601657949
 20
-1.64704200827335
 30
0.0
 10
3.000012601657949
 20
-1.64704200827335
 30
0.0
 10
3.000012601657949
 20
-1.64704200827335
 30
0.0
 10
2.740329160400152
 20
-1.722390423444204
 30
0.0
 10
2.740329160400152
 20
-1.722390423444204
 30
0.0
 10
2.740329160400152
 20
-1.722390423444204
 30
0.0
 10
2.747684941196136
 20
-1.747874210764179
 30
0.0
 10
2.747684941196136
 20
-1.747874210764179
 30
0.0
 10
2.747684941196136
 20
-1.747874210764179
 30
0.0
 10
2.649450380152176
 20
-1.745443020128517
 30
0.0
 10
2.649450380152176
 20
-1.745443020128517
 30
0.0
 10
2.649450380152176
 20
-1.745443020128517
 30
0.0
 10
2.649450380152176
 20
-1.810247869271519
 30
0.0
 10
2.649450380152176
 20
-1.810247869271519
 30
0.0
 10
2.649450380152176
 20
-1.810247869271519
 30
0.0
 10
2.827692297757999
 20
-1.81466133774912
 30
0.0
 10
2.827692297757999
 20
-1.81466133774912
 30
0.0
 10
2.827692297757999
 20
-1.81466133774912
 30
0.0
 10
2.827692297757999
 20
-2.462247465815153
 30
0.0
 10
2.827692297757999
 20
-2.462247465815153
 30
0.0
 10
2.864185377112765
 20
-2.464456722035935
 30
0.0
 10
2.900158928178169
 20
-2.467029143662873
 30
0.0
 10
2.93570206098439
 20
-2.469944554840102
 30
0.0
 10
2.93570206098439
 20
-2.469944554840102
 30
0.0
 10
2.93570206098439
 20
-1.817334638655552
 30
0.0
 10
2.93570206098439
 20
-1.817334638655552
 30
0.0
 10
2.93570206098439
 20
-1.817334638655552
 30
0.0
 10
3.007765174286583
 20
-1.819120201902529
 30
0.0
 10
3.007765174286583
 20
-1.819120201902529
 30
0.0
 10
3.007765174286583
 20
-1.819120201902529
 30
0.0
 10
3.009453220896678
 20
-1.754355704471221
 30
0.0
 10
3.009453220896678
 20
-1.754355704471221
 30
0.0
 10
3.009453220896678
 20
-1.754355704471221
 30
0.0
 10
2.802847412541471
 20
-1.749239443679888
 30
0.0
 10
2.802847412541471
 20
-1.749239443679888
 30
0.0
 10
2.802847412541471
 20
-1.749239443679888
 30
0.0
 10
3.132873975386171
 20
-1.653457930448768
 30
0.0
 10
3.132873975386171
 20
-1.653457930448768
 30
0.0
 10
3.132873975386171
 20
-1.653457930448768
 30
0.0
 10
3.270532158854065
 20
-1.660107556288381
 30
0.0
 10
3.270532158854065
 20
-1.660107556288381
 30
0.0
 10
3.270532158854065
 20
-1.660107556288381
 30
0.0
 10
3.270532158854065
 20
-2.509726298706116
 30
0.0
 10
3.270532158854065
 20
-2.509726298706116
 30
0.0
 10
3.303383496219264
 20
-2.514963614632911
 30
0.0
 10
3.33579769004008
 20
-2.520406051761256
 30
0.0
 10
3.367224948243221
 20
-2.526280588470121
 30
0.0
 10
3.378321668986877
 20
-2.528355338984915
 30
0.0
 10
3.389167872853148
 20
-2.530527606136552
 30
0.0
 10
3.400143538461432
 20
-2.53264943364843
 30
0.0
 10
3.400143538461432
 20
-2.53264943364843
 30
0.0
 10
3.400143538461432
 20
-1.666368796901932
 30
0.0
 10
3.400143538461432
 20
-1.666368796901932
 30
0.0
 10
3.400143538461432
 20
-1.666368796901932
 30
0.0
 10
3.554734308991328
 20
-1.673835544905324
 30
0.0
 10
3.554734308991328
 20
-1.673835544905324
 30
0.0
 10
3.554734308991328
 20
-1.673835544905324
 30
0.0
 10
3.554734308991328
 20
-1.596555291532304
 30
0.0
 10
3.554734308991328
 20
-1.596555291532304
 30
0.0
 10
3.554734308991328
 20
-1.596555291532304
 30
0.0
 10
3.36473491136116
 20
-1.586168088387682
 30
0.0
 10
3.36473491136116
 20
-1.586168088387682
 30
0.0
 10
3.36473491136116
 20
-1.586168088387682
 30
0.0
 10
3.484441627044184
 20
-1.551426945853374
 30
0.0
 10
3.484441627044184
 20
-1.551426945853374
 30
0.0
 10
3.484441627044184
 20
-1.551426945853374
 30
0.0
 10
3.484441627044184
 20
-1.506483545520192
 30
0.0
 10
3.484441627044184
 20
-1.506483545520192
 30
0.0
 10
3.484441627044184
 20
-1.506483545520192
 30
0.0
 10
3.234373662442951
 20
-1.579040967291879
 30
0.0
 10
3.234373662442951
 20
-1.579040967291879
 30
0.0
 10
3.234373662442951
 20
-1.579040967291879
 30
0.0
 10
3.069607535255298
 20
-1.570034128954906
 30
0.0
 10
3.069607535255298
 20
-1.570034128954906
 30
0.0
 10
3.069607535255298
 20
-1.570034128954906
 30
0.0
 10
3.249984730943652
 20
-1.510320320783383
 30
0.0
 10
3.249984730943652
 20
-1.510320320783383
 30
0.0
 10
3.249984730943652
 20
-1.510320320783383
 30
0.0
 10
3.249984730943652
 20
-1.464630413781972
 30
0.0
 10
3.249984730943652
 20
-1.464630413781972
 30
0.0
 10
3.249984730943652
 20
-1.464630413781972
 30
0.0
 10
2.95135348119695
 20
-1.563569448461079
 30
0.0
 10
2.95135348119695
 20
-1.563569448461079
 30
0.0
 10
2.95135348119695
 20
-1.563569448461079
 30
0.0
 10
2.793344584413691
 20
-1.554930819494252
 30
0.0
 10
2.793344584413691
 20
-1.554930819494252
 30
0.0
 10
2.793344584413691
 20
-1.554930819494252
 30
0.0
 10
3.012109708589883
 20
-1.488802770468636
 30
0.0
 10
3.012109708589883
 20
-1.488802770468636
 30
0.0
 10
3.012109708589883
 20
-1.488802770468636
 30
0.0
 10
3.012109708589883
 20
-1.443928304309742
 30
0.0
 10
3.012109708589883
 20
-1.443928304309742
 30
0.0
 10
3.012109708589883
 20
-1.443928304309742
 30
0.0
 10
2.667319463192118
 20
-1.548040764705244
 30
0.0
 10
2.667319463192118
 20
-1.548040764705244
 30
0.0
 10
2.667319463192118
 20
-1.548040764705244
 30
0.0
 10
2.520657804029952
 20
-1.540022543307272
 30
0.0
 10
2.520657804029952
 20
-1.540022543307272
 30
0.0
 10
2.520657804029952
 20
-1.540022543307272
 30
0.0
 10
2.734027568074806
 20
-1.472591470254883
 30
0.0
 10
2.734027568074806
 20
-1.472591470254883
 30
0.0
 10
2.734027568074806
 20
-1.472591470254883
 30
0.0
 10
2.734027568074806
 20
-1.427727092023967
 30
0.0
 10
2.734027568074806
 20
-1.427727092023967
 30
0.0
 10
2.734027568074806
 20
-1.427727092023967
 30
0.0
 10
2.399177294349291
 20
-1.533381324074311
 30
0.0
 10
2.399177294349291
 20
-1.533381324074311
 30
0.0
 10
2.399177294349291
 20
-1.533381324074311
 30
0.0
 10
2.218367999080442
 20
-1.523496836005822
 30
0.0
 10
2.218367999080442
 20
-1.523496836005822
 30
0.0
 10
2.218367999080442
 20
-1.523496836005822
 30
0.0
 10
2.434828031720308
 20
-1.450820040420076
 30
0.0
 10
2.434828031720308
 20
-1.450820040420076
 30
0.0
 10
2.434828031720308
 20
-1.450820040420076
 30
0.0
 10
2.434828031720308
 20
-1.405224287412857
 30
0.0
 10
2.434828031720308
 20
-1.405224287412857
 30
0.0
 10
2.434828031720308
 20
-1.405224287412857
 30
0.0
 10
1.560110524565933
 20
-1.698946078891191
 30
0.0
 10
1.560110524565933
 20
-1.698946078891191
 30
0.0
 10
1.560110524565933
 20
-1.698946078891191
 30
0.0
 10
1.56661219412893
 20
-1.718632670283278
 30
0.0
 10
1.56661219412893
 20
-1.718632670283278
 30
0.0
 10
1.56661219412893
 20
-1.718632670283278
 30
0.0
 10
1.446011015501136
 20
-1.715644962289073
 30
0.0
 10
1.446011015501136
 20
-1.715644962289073
 30
0.0
 10
1.446011015501136
 20
-1.715644962289073
 30
0.0
 10
1.444322968891015
 20
-1.780409459720343
 30
0.0
 10
1.444322968891015
 20
-1.780409459720343
 30
0.0
 10
1.444322968891015
 20
-1.780409459720343
 30
0.0
 10
1.659382460867353
 20
-1.785732523034653
 30
0.0
 10
1.659382460867353
 20
-1.785732523034653
 30
0.0
 10
1.659382460867353
 20
-1.785732523034653
 30
0.0
 10
1.659382460867353
 20
-2.521103800111051
 30
0.0
 10
1.659382460867353
 20
-2.521103800111051
 30
0.0
 10
1.708123966073256
 20
-2.51239623696991
 30
0.0
 10
1.758566968459844
 20
-2.504435180496987
 30
0.0
 10
1.810597138177071
 20
-2.497289564866605
 30
0.0
 10
1.810597138177071
 20
-2.497289564866605
 30
0.0
 10
1.810597138177071
 20
-1.789476825624964
 30
0.0
 10
1.810597138177071
 20
-1.789476825624964
 30
0.0
  0
POLYLINE
  5
103
330
FE
100
AcDbEntity
  8
Layer 1
370
     0
100
AcDb2dPolyline
 66
     1
 10
0.0
 20
0.0
 30
0.0
  0
VERTEX
  5
104
330
103
100
AcDbEntity
  8
Layer 1
370
     0
100
AcDbVertex
100
AcDb2dVertex
 10
2.635342412915735
 20
-1.629428486074782
 30
0.0
  0
VERTEX
  5
105
330
103
100
AcDbEntity
  8
Layer 1
370
     0
100
AcDbVertex
100
AcDb2dVertex
 10
2.737649134208418
 20
-1.634369889448332
 30
0.0
  0
VERTEX
  5
106
330
103
100
AcDbEntity
  8
Layer 1
370
     0
100
AcDbVertex
100
AcDb2dVertex
 10
2.635342412915735
 20
-1.668263646034928
 30
0.0
  0
VERTEX
  5
107
330
103
100
AcDbEntity
  8
Layer 1
370
     0
100
AcDbVertex
100
AcDb2dVertex
 10
2.635342412915735
 20
-1.629428486074782
 30
0.0
  0
SEQEND
  5
108
330
103
100
AcDbEntity
  8
Layer 1
370
     0
  0
POLYLINE
  5
109
330
FE
100
AcDbEntity
  8
Layer 1
370
     0
100
AcDb2dPolyline
 66
     1
 10
0.0
 20
0.0
 30
0.0
  0
VERTEX
  5
10A
330
109
100
AcDbEntity
  8
Layer 1
370
     0
100
AcDbVertex
100
AcDb2dVertex
 10
2.290459694845165
 20
-1.612769954388619
 30
0.0
  0
VERTEX
  5
10B
330
109
100
AcDbEntity
  8
Layer 1
370
     0
100
AcDbVertex
100
AcDb2dVertex
 10
2.430545706306046
 20
-1.619537272720966
 30
0.0
  0
VERTEX
  5
10C
330
109
100
AcDbEntity
  8
Layer 1
370
     0
100
AcDbVertex
100
AcDb2dVertex
 10
2.147631448303526
 20
-1.704965209233996
 30
0.0
  0
VERTEX
  5
10D
330
109
100
AcDbEntity
  8
Layer 1
370
     0
100
AcDbVertex
100
AcDb2dVertex
 10
2.156115395708462
 20
-1.733228220703849
 30
0.0
  0
VERTEX
  5
10E
330
109
100
AcDbEntity
  8
Layer 1
370
     0
100
AcDbVertex
100
AcDb2dVertex
 10
1.927232079799662
 20
-1.727560486517948
 30
0.0
  0
VERTEX
  5
10F
330
109
100
AcDbEntity
  8
Layer 1
370
     0
100
AcDbVertex
100
AcDb2dVertex
 10
2.290459694845165
 20
-1.612769954388619
 30
0.0
  0
SEQEND
  5
110
330
109
100
AcDbEntity
  8
Layer 1
370
     0
  0
POLYLINE
  5
111
330
FE
100
AcDbEntity
  8
Layer 1
370
     0
100
AcDb2dPolyline
 66
     1
 10
0.0
 20
0.0
 30
0.0
  0
VERTEX
  5
112
330
111
100
AcDbEntity
  8
Layer 1
370
     0
100
AcDbVertex
100
AcDb2dVertex
 10
1.632321594144716
 20
-1.720258508004362
 30
0.0
  0
VERTEX
  5
113
330
111
100
AcDbEntity
  8
Layer 1
370
     0
100
AcDbVertex
100
AcDb2dVertex
 10
2.104702270917452
 20
-1.561659467436117
 30
0.0
  0
VERTEX
  5
114
330
111
100
AcDbEntity
  8
Layer 1
370
     0
100
AcDbVertex
100
AcDb2dVertex
 10
2.102676278721067
 20
-1.603700907162685
 30
0.0
  0
VERTEX
  5
115
330
111
100
AcDbEntity
  8
Layer 1
370
     0
100
AcDbVertex
100
AcDb2dVertex
 10
2.166534543958202
 20
-1.606784450472383
 30
0.0
  0
VERTEX
  5
116
330
111
100
AcDbEntity
  8
Layer 1
370
     0
100
AcDbVertex
100
AcDb2dVertex
 10
1.875517998491508
 20
-1.698608133304927
 30
0.0
  0
VERTEX
  5
117
330
111
100
AcDbEntity
  8
Layer 1
370
     0
100
AcDbVertex
100
AcDb2dVertex
 10
1.883939737007419
 20
-1.726489484834044
 30
0.0
  0
VERTEX
  5
118
330
111
100
AcDbEntity
  8
Layer 1
370
     0
100
AcDbVertex
100
AcDb2dVertex
 10
1.632321594144716
 20
-1.720258508004362
 30
0.0
  0
SEQEND
  5
119
330
111
100
AcDbEntity
  8
Layer 1
370
     0
  0
HATCH
  5
11A
330
FE
100
AcDbEntity
  8
Layer 1
 62
   158
420
   795456
100
AcDbHatch
 10
0.0
 20
0.0
 30
0.0
210
0.0
220
0.0
230
1.0
  2
SOLID
 70
     1
 71
     0
 91
        4
 92
        1
 93
        1
 72
     4
 94
        3
 73
     0
 74
     1
 95
      173
 96
      169
 40
0.0
 40
0.0
 40
0.0
 40
0.0
 40
1.0
 40
1.0
 40
1.0
 40
2.0
 40
2.0
 40
2.0
 40
3.0
 40
3.0
 40
3.0
 40
4.0
 40
4.0
 40
4.0
 40
5.0
 40
5.0
 40
5.0
 40
6.0
 40
6.0
 40
6.0
 40
7.0
 40
7.0
 40
7.0
 40
8.0
 40
8.0
 40
8.0
 40
9.0
 40
9.0
 40
9.0
 40
10.0
 40
10.0
 40
10.0
 40
11.0
 40
11.0
 40
11.0
 40
12.0
 40
12.0
 40
12.0
 40
13.0
 40
13.0
 40
13.0
 40
14.0
 40
14.0
 40
14.0
 40
15.0
 40
15.0
 40
15.0
 40
16.0
 40
16.0
 40
16.0
 40
17.0
 40
17.0
 40
17.0
 40
18.0
 40
18.0
 40
18.0
 40
19.0
 40
19.0
 40
19.0
 40
20.0
 40
20.0
 40
20.0
 40
21.0
 40
21.0
 40
21.0
 40
22.0
 40
22.0
 40
22.0
 40
23.0
 40
23.0
 40
23.0
 40
24.0
 40
24.0
 40
24.0
 40
25.0
 40
25.0
 40
25.0
 40
26.0
 40
26.0
 40
26.0
 40
27.0
 40
27.0
 40
27.0
 40
28.0
 40
28.0
 40
28.0
 40
29.0
 40
29.0
 40
29.0
 40
30.0
 40
30.0
 40
30.0
 40
31.0
 40
31.0
 40
31.0
 40
32.0
 40
32.0
 40
32.0
 40
33.0
 40
33.0
 40
33.0
 40
34.0
 40
34.0
 40
34.0
 40
35.0
 40
35.0
 40
35.0
 40
36.0
 40
36.0
 40
36.0
 40
37.0
 40
37.0
 40
37.0
 40
38.0
 40
38.0
 40
38.0
 40
39.0
 40
39.0
 40
39.0
 40
40.0
 40
40.0
 40
40.0
 40
41.0
 40
41.0
 40
41.0
 40
42.0
 40
42.0
 40
42.0
 40
43.0
 40
43.0
 40
43.0
 40
44.0
 40
44.0
 40
44.0
 40
45.0
 40
45.0
 40
45.0
 40
46.0
 40
46.0
 40
46.0
 40
47.0
 40
47.0
 40
47.0
 40
48.0
 40
48.0
 40
48.0
 40
49.0
 40
49.0
 40
49.0
 40
50.0
 40
50.0
 40
50.0
 40
51.0
 40
51.0
 40
51.0
 40
52.0
 40
52.0
 40
52.0
 40
53.0
 40
53.0
 40
53.0
 40
54.0
 40
54.0
 40
54.0
 40
55.0
 40
55.0
 40
55.0
 40
56.0
 40
56.0
 40
56.0
 40
56.0
 10
1.810597138177071
 20
-1.789476825624964
 10
1.810597138177071
 20
-1.789476825624964
 10
2.470018087048338
 20
-1.805804137010088
 10
2.470018087048338
 20
-1.805804137010088
 10
2.470018087048338
 20
-1.805804137010088
 10
2.470018087048338
 20
-1.740999287867061
 10
2.470018087048338
 20
-1.740999287867061
 10
2.470018087048338
 20
-1.740999287867061
 10
2.199902046970187
 20
-1.734312672958342
 10
2.199902046970187
 20
-1.734312672958342
 10
2.199902046970187
 20
-1.734312672958342
 10
2.484127735606067
 20
-1.648397153261145
 10
2.484127735606067
 20
-1.648397153261145
 10
2.484127735606067
 20
-1.648397153261145
 10
2.484127735606067
 20
-2.452270505073797
 10
2.484127735606067
 20
-2.452270505073797
 10
2.489291073394497
 20
-2.452255373181856
 10
2.494356894546121
 20
-2.45212927408252
 10
2.499530320262529
 20
-2.45212927408252
 10
2.545304293330168
 20
-2.45212927408252
 10
2.59054192489518
 20
-2.452771538828592
 10
2.635342412915735
 20
-2.453866079011024
 10
2.635342412915735
 20
-2.453866079011024
 10
2.635342412915735
 20
-1.713795508831822
 10
2.635342412915735
 20
-1.713795508831822
 10
2.635342412915735
 20
-1.713795508831822
 10
2.857742553796141
 20
-1.640170448018883
 10
2.857742553796141
 20
-1.640170448018883
 10
2.857742553796141
 20
-1.640170448018883
 10
3.000012601657949
 20
-1.64704200827335
 10
3.000012601657949
 20
-1.64704200827335
 10
3.000012601657949
 20
-1.64704200827335
 10
2.740329160400152
 20
-1.722390423444204
 10
2.740329160400152
 20
-1.722390423444204
 10
2.740329160400152
 20
-1.722390423444204
 10
2.747684941196136
 20
-1.747874210764179
 10
2.747684941196136
 20
-1.747874210764179
 10
2.747684941196136
 20
-1.747874210764179
 10
2.649450380152176
 20
-1.745443020128517
 10
2.649450380152176
 20
-1.745443020128517
 10
2.649450380152176
 20
-1.745443020128517
 10
2.649450380152176
 20
-1.810247869271519
 10
2.649450380152176
 20
-1.810247869271519
 10
2.649450380152176
 20
-1.810247869271519
 10
2.827692297757999
 20
-1.81466133774912
 10
2.827692297757999
 20
-1.81466133774912
 10
2.827692297757999
 20
-1.81466133774912
 10
2.827692297757999
 20
-2.462247465815153
 10
2.827692297757999
 20
-2.462247465815153
 10
2.864185377112765
 20
-2.464456722035935
 10
2.900158928178169
 20
-2.467029143662873
 10
2.93570206098439
 20
-2.469944554840102
 10
2.93570206098439
 20
-2.469944554840102
 10
2.93570206098439
 20
-1.817334638655552
 10
2.93570206098439
 20
-1.817334638655552
 10
2.93570206098439
 20
-1.817334638655552
 10
3.007765174286583
 20
-1.819120201902529
 10
3.007765174286583
 20
-1.819120201902529
 10
3.007765174286583
 20
-1.819120201902529
 10
3.009453220896678
 20
-1.754355704471221
 10
3.009453220896678
 20
-1.754355704471221
 10
3.009453220896678
 20
-1.754355704471221
 10
2.802847412541471
 20
-1.749239443679888
 10
2.802847412541471
 20
-1.749239443679888
 10
2.802847412541471
 20
-1.749239443679888
 10
3.132873975386171
 20
-1.653457930448768
 10
3.132873975386171
 20
-1.653457930448768
 10
3.132873975386171
 20
-1.653457930448768
 10
3.270532158854065
 20
-1.660107556288381
 10
3.270532158854065
 20
-1.660107556288381
 10
3.270532158854065
 20
-1.660107556288381
 10
3.270532158854065
 20
-2.509726298706116
 10
3.270532158854065
 20
-2.509726298706116
 10
3.303383496219264
 20
-2.514963614632911
 10
3.33579769004008
 20
-2.520406051761256
 10
3.367224948243221
 20
-2.526280588470121
 10
3.378321668986877
 20
-2.528355338984915
 10
3.389167872853148
 20
-2.530527606136552
 10
3.400143538461432
 20
-2.53264943364843
 10
3.400143538461432
 20
-2.53264943364843
 10
3.400143538461432
 20
-1.666368796901932
 10
3.400143538461432
 20
-1.666368796901932
 10
3.400143538461432
 20
-1.666368796901932
 10
3.554734308991328
 20
-1.673835544905324
 10
3.554734308991328
 20
-1.673835544905324
 10
3.554734308991328
 20
-1.673835544905324
 10
3.554734308991328
 20
-1.596555291532304
 10
3.554734308991328
 20
-1.596555291532304
 10
3.554734308991328
 20
-1.596555291532304
 10
3.36473491136116
 20
-1.586168088387682
 10
3.36473491136116
 20
-1.586168088387682
 10
3.36473491136116
 20
-1.586168088387682
 10
3.484441627044184
 20
-1.551426945853374
 10
3.484441627044184
 20
-1.551426945853374
 10
3.484441627044184
 20
-1.551426945853374
 10
3.484441627044184
 20
-1.506483545520192
 10
3.484441627044184
 20
-1.506483545520192
 10
3.484441627044184
 20
-1.506483545520192
 10
3.234373662442951
 20
-1.579040967291879
 10
3.234373662442951
 20
-1.579040967291879
 10
3.234373662442951
 20
-1.579040967291879
 10
3.069607535255298
 20
-1.570034128954906
 10
3.069607535255298
 20
-1.570034128954906
 10
3.069607535255298
 20
-1.570034128954906
 10
3.249984730943652
 20
-1.510320320783383
 10
3.249984730943652
 20
-1.510320320783383
 10
3.249984730943652
 20
-1.510320320783383
 10
3.249984730943652
 20
-1.464630413781972
 10
3.249984730943652
 20
-1.464630413781972
 10
3.249984730943652
 20
-1.464630413781972
 10
2.95135348119695
 20
-1.563569448461079
 10
2.95135348119695
 20
-1.563569448461079
 10
2.95135348119695
 20
-1.563569448461079
 10
2.793344584413691
 20
-1.554930819494252
 10
2.793344584413691
 20
-1.554930819494252
 10
2.793344584413691
 20
-1.554930819494252
 10
3.012109708589883
 20
-1.488802770468636
 10
3.012109708589883
 20
-1.488802770468636
 10
3.012109708589883
 20
-1.488802770468636
 10
3.012109708589883
 20
-1.443928304309742
 10
3.012109708589883
 20
-1.443928304309742
 10
3.012109708589883
 20
-1.443928304309742
 10
2.667319463192118
 20
-1.548040764705244
 10
2.667319463192118
 20
-1.548040764705244
 10
2.667319463192118
 20
-1.548040764705244
 10
2.520657804029952
 20
-1.540022543307272
 10
2.520657804029952
 20
-1.540022543307272
 10
2.520657804029952
 20
-1.540022543307272
 10
2.734027568074806
 20
-1.472591470254883
 10
2.734027568074806
 20
-1.472591470254883
 10
2.734027568074806
 20
-1.472591470254883
 10
2.734027568074806
 20
-1.427727092023967
 10
2.734027568074806
 20
-1.427727092023967
 10
2.734027568074806
 20
-1.427727092023967
 10
2.399177294349291
 20
-1.533381324074311
 10
2.399177294349291
 20
-1.533381324074311
 10
2.399177294349291
 20
-1.533381324074311
 10
2.218367999080442
 20
-1.523496836005822
 10
2.218367999080442
 20
-1.523496836005822
 10
2.218367999080442
 20
-1.523496836005822
 10
2.434828031720308
 20
-1.450820040420076
 10
2.434828031720308
 20
-1.450820040420076
 10
2.434828031720308
 20
-1.450820040420076
 10
2.434828031720308
 20
-1.405224287412857
 10
2.434828031720308
 20
-1.405224287412857
 10
2.434828031720308
 20
-1.405224287412857
 10
1.560110524565933
 20
-1.698946078891191
 10
1.560110524565933
 20
-1.698946078891191
 10
1.560110524565933
 20
-1.698946078891191
 10
1.56661219412893
 20
-1.718632670283278
 10
1.56661219412893
 20
-1.718632670283278
 10
1.56661219412893
 20
-1.718632670283278
 10
1.446011015501136
 20
-1.715644962289073
 10
1.446011015501136
 20
-1.715644962289073
 10
1.446011015501136
 20
-1.715644962289073
 10
1.444322968891015
 20
-1.780409459720343
 10
1.444322968891015
 20
-1.780409459720343
 10
1.444322968891015
 20
-1.780409459720343
 10
1.659382460867353
 20
-1.785732523034653
 10
1.659382460867353
 20
-1.785732523034653
 10
1.659382460867353
 20
-1.785732523034653
 10
1.659382460867353
 20
-2.521103800111051
 10
1.659382460867353
 20
-2.521103800111051
 10
1.708123966073256
 20
-2.51239623696991
 10
1.758566968459844
 20
-2.504435180496987
 10
1.810597138177071
 20
-2.497289564866605
 10
1.810597138177071
 20
-2.497289564866605
 10
1.810597138177071
 20
-1.789476825624964
 10
1.810597138177071
 20
-1.789476825624964
 97
        0
 97
        0
 92
        1
 93
        3
 72
     1
 10
2.635342412915735
 20
-1.629428486074782
 11
2.737649134208418
 21
-1.634369889448332
 72
     1
 10
2.737649134208418
 20
-1.634369889448332
 11
2.635342412915735
 21
-1.668263646034928
 72
     1
 10
2.635342412915735
 20
-1.668263646034928
 11
2.635342412915735
 21
-1.629428486074782
 97
        0
 92
        1
 93
        5
 72
     1
 10
2.290459694845165
 20
-1.612769954388619
 11
2.430545706306046
 21
-1.619537272720966
 72
     1
 10
2.430545706306046
 20
-1.619537272720966
 11
2.147631448303526
 21
-1.704965209233996
 72
     1
 10
2.147631448303526
 20
-1.704965209233996
 11
2.156115395708462
 21
-1.733228220703849
 72
     1
 10
2.156115395708462
 20
-1.733228220703849
 11
1.927232079799662
 21
-1.727560486517948
 72
     1
 10
1.927232079799662
 20
-1.727560486517948
 11
2.290459694845165
 21
-1.612769954388619
 97
        0
 92
        1
 93
        6
 72
     1
 10
1.632321594144716
 20
-1.720258508004362
 11
2.104702270917452
 21
-1.561659467436117
 72
     1
 10
2.104702270917452
 20
-1.561659467436117
 11
2.102676278721067
 21
-1.603700907162685
 72
     1
 10
2.102676278721067
 20
-1.603700907162685
 11
2.166534543958202
 21
-1.606784450472383
 72
     1
 10
2.166534543958202
 20
-1.606784450472383
 11
1.875517998491508
 21
-1.698608133304927
 72
     1
 10
1.875517998491508
 20
-1.698608133304927
 11
1.883939737007419
 21
-1.726489484834044
 72
     1
 10
1.883939737007419
 20
-1.726489484834044
 11
1.632321594144716
 21
-1.720258508004362
 97
        0
 75
     2
 76
     1
 98
        0
  0
ENDBLK
  5
101
330
FE
100
AcDbEntity
  8
0
100
AcDbBlockEnd
  0
ENDSEC
  0
SECTION
  2
ENTITIES
  0
INSERT
  5
42
330
1F
100
AcDbEntity
  8
Layer 1
100
AcDbBlockReference
  2
block 2
 10
0.0
 20
0.0
 30
0.0
  0
ENDSEC
  0
SECTION
  2
OBJECTS
  0
DICTIONARY
  5
C
330
0
100
AcDbDictionary
281
     1
  3
ACAD_GROUP
350
D
  3
ACAD_LAYOUT
350
1A
  3
ACAD_MATERIAL
350
3B
  3
ACAD_MLEADERSTYLE
350
11E
  3
ACAD_MLINESTYLE
350
17
  3
ACAD_PLOTSETTINGS
350
19
  3
ACAD_PLOTSTYLENAME
350
E
  3
ACAD_TABLESTYLE
350
11D
  3
ACAD_VISUALSTYLE
350
2A
  0
SUN
  5
3F
330
29
100
AcDbSun
 90
        1
290
     0
 63
     7
421
 16777215
 40
1.0
291
     1
 91
  2455826
 92
 54000000
292
     0
 70
     2
 71
   256
280
     1
  0
DICTIONARY
  5
D
102
{ACAD_REACTORS
330
C
102
}
330
C
100
AcDbDictionary
281
     1
  0
DICTIONARY
  5
1A
102
{ACAD_REACTORS
330
C
102
}
330
C
100
AcDbDictionary
281
     1
  3
Layout1
350
1E
  3
Layout2
350
26
  3
Model
350
22
  0
DICTIONARY
  5
3B
102
{ACAD_REACTORS
330
C
102
}
330
C
100
AcDbDictionary
281
     1
  3
ByBlock
350
3D
  3
ByLayer
350
3C
  3
Global
350
3E
  0
DICTIONARY
  5
11E
102
{ACAD_REACTORS
330
C
102
}
330
C
100
AcDbDictionary
281
     1
  0
DICTIONARY
  5
17
102
{ACAD_REACTORS
330
C
102
}
330
C
100
AcDbDictionary
281
     1
  3
Standard
350
18
  0
DICTIONARY
  5
19
102
{ACAD_REACTORS
330
C
102
}
330
C
100
AcDbDictionary
281
     1
  0
ACDBDICTIONARYWDFLT
  5
E
102
{ACAD_REACTORS
330
C
102
}
330
C
100
AcDbDictionary
281
     1
  3
Normal
350
F
100
AcDbDictionaryWithDefault
340
F
  0
DICTIONARY
  5
11D
102
{ACAD_REACTORS
330
C
102
}
330
C
100
AcDbDictionary
281
     1
  0
DICTIONARY
  5
2A
102
{ACAD_REACTORS
330
C
102
}
330
C
100
AcDbDictionary
281
     1
  3
2dWireframe
350
2F
  3
3D Hidden
350
31
  3
3dWireframe
350
30
  3
Basic
350
32
  3
Brighten
350
36
  3
ColorChange
350
3A
  3
Conceptual
350
34
  3
Dim
350
35
  3
Facepattern
350
39
  3
Flat
350
2B
  3
FlatWithEdges
350
2C
  3
Gouraud
350
2D
  3
GouraudWithEdges
350
2E
  3
Linepattern
350
38
  3
Realistic
350
33
  3
Thicken
350
37
  0
LAYOUT
  5
1E
102
{ACAD_REACTORS
330
1A
102
}
330
1A
100
AcDbPlotSettings
  1

  2
none_device
  4

  6

 40
0.0
 41
0.0
 42
0.0
 43
0.0
 44
0.0
 45
0.0
 46
0.0
 47
0.0
 48
0.0
 49
0.0
140
0.0
141
0.0
142
1.0
143
1.0
 70
   688
 72
     0
 73
     0
 74
     5
  7

 75
    16
 76
     0
 77
     2
 78
   300
147
1.0
148
0.0
149
0.0
100
AcDbLayout
  1
Layout1
 70
     1
 71
     1
 10
0.0
 20
0.0
 11
12.0
 21
9.0
 12
0.0
 22
0.0
 32
0.0
 14
1.000000000000000E+20
 24
1.000000000000000E+20
 34
1.000000000000000E+20
 15
-1.000000000000000E+20
 25
-1.000000000000000E+20
 35
-1.000000000000000E+20
146
0.0
 13
0.0
 23
0.0
 33
0.0
 16
1.0
 26
0.0
 36
0.0
 17
0.0
 27
1.0
 37
0.0
 76
     0
330
1B
  0
LAYOUT
  5
26
102
{ACAD_REACTORS
330
1A
102
}
330
1A
100
AcDbPlotSettings
  1

  2
none_device
  4

  6

 40
0.0
 41
0.0
 42
0.0
 43
0.0
 44
0.0
 45
0.0
 46
0.0
 47
0.0
 48
0.0
 49
0.0
140
0.0
141
0.0
142
1.0
143
1.0
 70
   688
 72
     0
 73
     0
 74
     5
  7

 75
    16
 76
     0
 77
     2
 78
   300
147
1.0
148
0.0
149
0.0
100
AcDbLayout
  1
Layout2
 70
     1
 71
     2
 10
0.0
 20
0.0
 11
0.0
 21
0.0
 12
0.0
 22
0.0
 32
0.0
 14
0.0
 24
0.0
 34
0.0
 15
0.0
 25
0.0
 35
0.0
146
0.0
 13
0.0
 23
0.0
 33
0.0
 16
1.0
 26
0.0
 36
0.0
 17
0.0
 27
1.0
 37
0.0
 76
     0
330
23
  0
LAYOUT
  5
22
102
{ACAD_REACTORS
330
1A
102
}
330
1A
100
AcDbPlotSettings
  1

  2
none_device
  4

  6

 40
0.0
 41
0.0
 42
0.0
 43
0.0
 44
0.0
 45
0.0
 46
0.0
 47
0.0
 48
0.0
 49
0.0
140
0.0
141
0.0
142
1.0
143
1.0
 70
  1712
 72
     0
 73
     0
 74
     0
  7

 75
     0
 76
     0
 77
     2
 78
   300
147
1.0
148
0.0
149
0.0
100
AcDbLayout
  1
Model
 70
     1
 71
     0
 10
0.0
 20
0.0
 11
12.0
 21
9.0
 12
0.0
 22
0.0
 32
0.0
 14
1.000000000000000E+20
 24
1.000000000000000E+20
 34
1.000000000000000E+20
 15
-1.000000000000000E+20
 25
-1.000000000000000E+20
 35
-1.000000000000000E+20
146
0.0
 13
0.0
 23
0.0
 33
0.0
 16
1.0
 26
0.0
 36
0.0
 17
0.0
 27
1.0
 37
0.0
 76
     0
330
1F
331
29
  0
MATERIAL
  5
3D
102
{ACAD_REACTORS
330
3B
102
}
330
3B
100
AcDbMaterial
  1
ByBlock
 72
     1
 94
      127
  0
MATERIAL
  5
3C
102
{ACAD_REACTORS
330
3B
102
}
330
3B
100
AcDbMaterial
  1
ByLayer
 72
     1
 94
      127
  0
MATERIAL
  5
3E
102
{ACAD_REACTORS
330
3B
102
}
330
3B
100
AcDbMaterial
  1
Global
 72
     1
 94
      127
  0
MLINESTYLE
  5
18
102
{ACAD_REACTORS
330
17
102
}
330
17
100
AcDbMlineStyle
  2
Standard
 70
     0
  3

 62
   256
 51
90.0
 52
90.0
 71
     2
 49
0.5
 62
   256
  6
BYLAYER
 49
-0.5
 62
   256
  6
BYLAYER
  0
ACDBPLACEHOLDER
  5
F
102
{ACAD_REACTORS
330
E
102
}
330
E
  0
VISUALSTYLE
  5
2F
102
{ACAD_REACTORS
330
2A
102
}
330
2A
100
AcDbVisualStyle
  2
2dWireframe
 70
     4
177
     2
291
     0
 71
     0
176
     1
 72
     2
176
     1
 73
     0
176
     1
 90
        0
176
     1
 40
-0.6
176
     1
 41
-30.0
176
     1
 62
     5
 63
     7
421
 16777215
176
     1
 74
     1
176
     1
 91
        4
176
     1
 64
     7
176
     1
 65
   257
176
     1
 75
     1
176
     1
175
     1
176
     1
 42
1.0
176
     1
 92
        0
176
     1
 66
   257
176
     1
 43
1.0
176
     1
 76
     1
176
     1
 77
     6
176
     1
 78
     2
176
     1
 67
     7
176
     1
 79
     5
176
     1
170
     0
176
     1
171
     0
176
     1
290
     0
176
     1
 93
        1
176
     1
 44
0.0
176
     1
173
     0
176
     1
  0
VISUALSTYLE
  5
31
102
{ACAD_REACTORS
330
2A
102
}
330
2A
100
AcDbVisualStyle
  2
3D Hidden
 70
     6
177
     2
291
     0
 71
     1
176
     1
 72
     2
176
     1
 73
     2
176
     1
 90
        0
176
     1
 40
-0.6
176
     1
 41
-30.0
176
     1
 62
     5
 63
     7
421
 16777215
176
     1
 74
     2
176
     1
 91
        2
176
     1
 64
     7
176
     1
 65
   257
176
     1
 75
     2
176
     1
175
     1
176
     1
 42
40.0
176
     1
 92
        0
176
     1
 66
   257
176
     1
 43
1.0
176
     1
 76
     1
176
     1
 77
     6
176
     1
 78
     2
176
     1
 67
     7
176
     1
 79
     3
176
     1
170
     0
176
     1
171
     0
176
     1
290
     0
176
     1
 93
        1
176
     1
 44
0.0
176
     1
173
     0
176
     1
  0
VISUALSTYLE
  5
30
102
{ACAD_REACTORS
330
2A
102
}
330
2A
100
AcDbVisualStyle
  2
3dWireframe
 70
     5
177
     2
291
     0
 71
     0
176
     1
 72
     2
176
     1
 73
     0
176
     1
 90
        0
176
     1
 40
-0.6
176
     1
 41
-30.0
176
     1
 62
     5
 63
     7
421
 16777215
176
     1
 74
     1
176
     1
 91
        4
176
     1
 64
     7
176
     1
 65
   257
176
     1
 75
     1
176
     1
175
     1
176
     1
 42
1.0
176
     1
 92
        0
176
     1
 66
   257
176
     1
 43
1.0
176
     1
 76
     1
176
     1
 77
     6
176
     1
 78
     2
176
     1
 67
     7
176
     1
 79
     5
176
     1
170
     0
176
     1
171
     0
176
     1
290
     0
176
     1
 93
        1
176
     1
 44
0.0
176
     1
173
     0
176
     1
  0
VISUALSTYLE
  5
32
102
{ACAD_REACTORS
330
2A
102
}
330
2A
100
AcDbVisualStyle
  2
Basic
 70
     7
177
     2
291
     1
 71
     1
176
     1
 72
     0
176
     1
 73
     1
176
     1
 90
        0
176
     1
 40
-0.6
176
     1
 41
-30.0
176
     1
 62
     5
 63
     7
421
 16777215
176
     1
 74
     0
176
     1
 91
        4
176
     1
 64
     7
176
     1
 65
   257
176
     1
 75
     1
176
     1
175
     1
176
     1
 42
1.0
176
     1
 92
        8
176
     1
 66
     7
176
     1
 43
1.0
176
     1
 76
     1
176
     1
 77
     6
176
     1
 78
     2
176
     1
 67
     7
176
     1
 79
     5
176
     1
170
     0
176
     1
171
     0
176
     1
290
     0
176
     1
 93
        1
176
     1
 44
0.0
176
     1
173
     0
176
     1
  0
VISUALSTYLE
  5
36
102
{ACAD_REACTORS
330
2A
102
}
330
2A
100
AcDbVisualStyle
  2
Brighten
 70
    12
177
     2
291
     1
 71
     2
176
     1
 72
     2
176
     1
 73
     0
176
     1
 90
        0
176
     1
 40
-0.6
176
     1
 41
-30.0
176
     1
 62
     5
 63
     7
421
 16777215
176
     1
 74
     1
176
     1
 91
        4
176
     1
 64
     7
176
     1
 65
   257
176
     1
 75
     1
176
     1
175
     1
176
     1
 42
1.0
176
     1
 92
        8
176
     1
 66
     7
176
     1
 43
1.0
176
     1
 76
     1
176
     1
 77
     6
176
     1
 78
     2
176
     1
 67
     7
176
     1
 79
     5
176
     1
170
     0
176
     1
171
     0
176
     1
290
     0
176
     1
 93
        1
176
     1
 44
50.0
176
     1
173
     0
176
     1
  0
VISUALSTYLE
  5
3A
102
{ACAD_REACTORS
330
2A
102
}
330
2A
100
AcDbVisualStyle
  2
ColorChange
 70
    16
177
     2
291
     1
 71
     2
176
     1
 72
     2
176
     1
 73
     3
176
     1
 90
        0
176
     1
 40
-0.6
176
     1
 41
-30.0
176
     1
 62
     5
 63
     8
421
  8421504
176
     1
 74
     1
176
     1
 91
        4
176
     1
 64
     7
176
     1
 65
   257
176
     1
 75
     1
176
     1
175
     1
176
     1
 42
1.0
176
     1
 92
        8
176
     1
 66
     8
424
  8421504
176
     1
 43
1.0
176
     1
 76
     1
176
     1
 77
     6
176
     1
 78
     2
176
     1
 67
     7
176
     1
 79
     5
176
     1
170
     0
176
     1
171
     0
176
     1
290
     0
176
     1
 93
        1
176
     1
 44
0.0
176
     1
173
     0
176
     1
  0
VISUALSTYLE
  5
34
102
{ACAD_REACTORS
330
2A
102
}
330
2A
100
AcDbVisualStyle
  2
Conceptual
 70
     9
177
     2
291
     0
 71
     3
176
     1
 72
     2
176
     1
 73
     0
176
     1
 90
        0
176
     1
 40
-0.6
176
     1
 41
-30.0
176
     1
 62
     5
 63
     7
421
 16777215
176
     1
 74
     2
176
     1
 91
        2
176
     1
 64
     7
176
     1
 65
   257
176
     1
 75
     1
176
     1
175
     1
176
     1
 42
40.0
176
     1
 92
        8
176
     1
 66
     7
176
     1
 43
1.0
176
     1
 76
     1
176
     1
 77
     6
176
     1
 78
     2
176
     1
 67
     7
176
     1
 79
     3
176
     1
170
     0
176
     1
171
     0
176
     1
290
     0
176
     1
 93
        1
176
     1
 44
0.0
176
     1
173
     0
176
     1
  0
VISUALSTYLE
  5
35
102
{ACAD_REACTORS
330
2A
102
}
330
2A
100
AcDbVisualStyle
  2
Dim
 70
    11
177
     2
291
     1
 71
     2
176
     1
 72
     2
176
     1
 73
     0
176
     1
 90
        0
176
     1
 40
-0.6
176
     1
 41
-30.0
176
     1
 62
     5
 63
     7
421
 16777215
176
     1
 74
     1
176
     1
 91
        4
176
     1
 64
     7
176
     1
 65
   257
176
     1
 75
     1
176
     1
175
     1
176
     1
 42
1.0
176
     1
 92
        8
176
     1
 66
     7
176
     1
 43
1.0
176
     1
 76
     1
176
     1
 77
     6
176
     1
 78
     2
176
     1
 67
     7
176
     1
 79
     5
176
     1
170
     0
176
     1
171
     0
176
     1
290
     0
176
     1
 93
        1
176
     1
 44
-50.0
176
     1
173
     0
176
     1
  0
VISUALSTYLE
  5
39
102
{ACAD_REACTORS
330
2A
102
}
330
2A
100
AcDbVisualStyle
  2
Facepattern
 70
    15
177
     2
291
     1
 71
     2
176
     1
 72
     2
176
     1
 73
     0
176
     1
 90
        0
176
     1
 40
-0.6
176
     1
 41
-30.0
176
     1
 62
     5
 63
     7
421
 16777215
176
     1
 74
     1
176
     1
 91
        4
176
     1
 64
     7
176
     1
 65
   257
176
     1
 75
     1
176
     1
175
     1
176
     1
 42
1.0
176
     1
 92
        8
176
     1
 66
     7
176
     1
 43
1.0
176
     1
 76
     1
176
     1
 77
     6
176
     1
 78
     2
176
     1
 67
     7
176
     1
 79
     5
176
     1
170
     0
176
     1
171
     0
176
     1
290
     0
176
     1
 93
        1
176
     1
 44
0.0
176
     1
173
     0
176
     1
  0
VISUALSTYLE
  5
2B
102
{ACAD_REACTORS
330
2A
102
}
330
2A
100
AcDbVisualStyle
  2
Flat
 70
     0
177
     2
291
     1
 71
     2
176
     1
 72
     1
176
     1
 73
     1
176
     1
 90
        2
176
     1
 40
-0.6
176
     1
 41
30.0
176
     1
 62
     5
 63
     7
421
 16777215
176
     1
 74
     0
176
     1
 91
        4
176
     1
 64
     7
176
     1
 65
   257
176
     1
 75
     1
176
     1
175
     1
176
     1
 42
1.0
176
     1
 92
        8
176
     1
 66
     7
176
     1
 43
1.0
176
     1
 76
     1
176
     1
 77
     6
176
     1
 78
     2
176
     1
 67
     7
176
     1
 79
     5
176
     1
170
     0
176
     1
171
     0
176
     1
290
     0
176
     1
 93
       13
176
     1
 44
0.0
176
     1
173
     0
176
     1
  0
VISUALSTYLE
  5
2C
102
{ACAD_REACTORS
330
2A
102
}
330
2A
100
AcDbVisualStyle
  2
FlatWithEdges
 70
     1
177
     2
291
     1
 71
     2
176
     1
 72
     1
176
     1
 73
     1
176
     1
 90
        2
176
     1
 40
-0.6
176
     1
 41
30.0
176
     1
 62
     5
 63
     7
421
 16777215
176
     1
 74
     1
176
     1
 91
        4
176
     1
 64
     7
176
     1
 65
   257
176
     1
 75
     1
176
     1
175
     1
176
     1
 42
1.0
176
     1
 92
        0
176
     1
 66
   257
176
     1
 43
1.0
176
     1
 76
     1
176
     1
 77
     6
176
     1
 78
     2
176
     1
 67
     7
176
     1
 79
     5
176
     1
170
     0
176
     1
171
     0
176
     1
290
     0
176
     1
 93
       13
176
     1
 44
0.0
176
     1
173
     0
176
     1
  0
VISUALSTYLE
  5
2D
102
{ACAD_REACTORS
330
2A
102
}
330
2A
100
AcDbVisualStyle
  2
Gouraud
 70
     2
177
     2
291
     1
 71
     2
176
     1
 72
     2
176
     1
 73
     1
176
     1
 90
        2
176
     1
 40
-0.6
176
     1
 41
30.0
176
     1
 62
     5
 63
     7
421
 16777215
176
     1
 74
     0
176
     1
 91
        4
176
     1
 64
     7
176
     1
 65
   257
176
     1
 75
     1
176
     1
175
     1
176
     1
 42
1.0
176
     1
 92
        0
176
     1
 66
     7
176
     1
 43
1.0
176
     1
 76
     1
176
     1
 77
     6
176
     1
 78
     2
176
     1
 67
     7
176
     1
 79
     5
176
     1
170
     0
176
     1
171
     0
176
     1
290
     0
176
     1
 93
       13
176
     1
 44
0.0
176
     1
173
     0
176
     1
  0
VISUALSTYLE
  5
2E
102
{ACAD_REACTORS
330
2A
102
}
330
2A
100
AcDbVisualStyle
  2
GouraudWithEdges
 70
     3
177
     2
291
     1
 71
     2
176
     1
 72
     2
176
     1
 73
     1
176
     1
 90
        2
176
     1
 40
-0.6
176
     1
 41
30.0
176
     1
 62
     5
 63
     7
421
 16777215
176
     1
 74
     1
176
     1
 91
        4
176
     1
 64
     7
176
     1
 65
   257
176
     1
 75
     1
176
     1
175
     1
176
     1
 42
1.0
176
     1
 92
        0
176
     1
 66
   257
176
     1
 43
1.0
176
     1
 76
     1
176
     1
 77
     6
176
     1
 78
     2
176
     1
 67
     7
176
     1
 79
     5
176
     1
170
     0
176
     1
171
     0
176
     1
290
     0
176
     1
 93
       13
176
     1
 44
0.0
176
     1
173
     0
176
     1
  0
VISUALSTYLE
  5
38
102
{ACAD_REACTORS
330
2A
102
}
330
2A
100
AcDbVisualStyle
  2
Linepattern
 70
    14
177
     2
291
     1
 71
     2
176
     1
 72
     2
176
     1
 73
     0
176
     1
 90
        0
176
     1
 40
-0.6
176
     1
 41
-30.0
176
     1
 62
     5
 63
     7
421
 16777215
176
     1
 74
     1
176
     1
 91
        4
176
     1
 64
     7
176
     1
 65
   257
176
     1
 75
     7
176
     1
175
     7
176
     1
 42
1.0
176
     1
 92
        8
176
     1
 66
     7
176
     1
 43
1.0
176
     1
 76
     1
176
     1
 77
     6
176
     1
 78
     2
176
     1
 67
     7
176
     1
 79
     5
176
     1
170
     0
176
     1
171
     0
176
     1
290
     0
176
     1
 93
        1
176
     1
 44
0.0
176
     1
173
     0
176
     1
  0
VISUALSTYLE
  5
33
102
{ACAD_REACTORS
330
2A
102
}
330
2A
100
AcDbVisualStyle
  2
Realistic
 70
     8
177
     2
291
     0
 71
     2
176
     1
 72
     2
176
     1
 73
     0
176
     1
 90
        0
176
     1
 40
-0.6
176
     1
 41
-30.0
176
     1
 62
     5
 63
     7
421
 16777215
176
     1
 74
     1
176
     1
 91
        0
176
     1
 64
     7
176
     1
 65
   257
176
     1
 75
     1
176
     1
175
     1
176
     1
 42
1.0
176
     1
 92
        8
176
     1
 66
     8
424
  7895160
176
     1
 43
1.0
176
     1
 76
     1
176
     1
 77
     6
176
     1
 78
     2
176
     1
 67
     7
176
     1
 79
     5
176
     1
170
     0
176
     1
171
     0
176
     1
290
     0
176
     1
 93
       13
176
     1
 44
0.0
176
     1
173
     0
176
     1
  0
VISUALSTYLE
  5
37
102
{ACAD_REACTORS
330
2A
102
}
330
2A
100
AcDbVisualStyle
  2
Thicken
 70
    13
177
     2
291
     1
 71
     2
176
     1
 72
     2
176
     1
 73
     0
176
     1
 90
        0
176
     1
 40
-0.6
176
     1
 41
-30.0
176
     1
 62
     5
 63
     7
421
 16777215
176
     1
 74
     1
176
     1
 91
        4
176
     1
 64
     7
176
     1
 65
   257
176
     1
 75
     1
176
     1
175
     1
176
     1
 42
1.0
176
     1
 92
       12
176
     1
 66
     7
176
     1
 43
1.0
176
     1
 76
     1
176
     1
 77
     6
176
     1
 78
     2
176
     1
 67
     7
176
     1
 79
     5
176
     1
170
     0
176
     1
171
     0
176
     1
290
     0
176
     1
 93
        1
176
     1
 44
0.0
176
     1
173
     0
176
     1
  0
ENDSEC
  0
EOF
