0
SECTION
2
HEADER
9
$ACADVER
1
AC1006
0
ENDSEC
0
SECTION
2
ENTITIES
0
LINE
8
crease
62
3
10
110.0
20
0.0
11
110.0
21
165.0
0
LINE
8
crease
62
3
10
165.0
20
165.0
11
165.0
21
0.0
0
LINE
8
crease
62
3
10
275.0
20
0.0
11
275.0
21
165.0
0
LINE
8
crease
62
3
10
0.0
20
165.0
11
0.0
21
0.0
0
LINE
8
cut
62
1
10
329.5
20
0.0
11
329.5
21
165.0
0
TEXT
8
dimensions
62
255
10
-27.1071428571
20
69.2890625
11
-27.1071428571
21
95.2109375
40
8
72
5.0
50
90.0
1
302.50mm
0
LINE
8
dimensions
62
255
10
-24.0
20
233.5
11
-16.0
21
233.5
0
LINE
8
dimensions
62
255
10
-24.0
20
-69.0
11
-16.0
21
-69.0
0
LINE
8
dimensions
62
255
10
-23.0
20
233.5
11
-22.5
21
231.6339745962
0
LINE
8
dimensions
62
255
10
-23.0
20
233.5
11
-23.5
21
231.6339745962
0
LINE
8
dimensions
62
255
10
-23.0
20
-69.0
11
-23.5
21
-67.1339745962
0
LINE
8
dimensions
62
255
10
-23.0
20
-69.0
11
-22.5
21
-67.1339745962
0
LINE
8
dimensions
62
255
10
-23.0
20
233.5
11
-23.0
21
-69.0
0
TEXT
8
dimensions
62
255
10
145.546875
20
247.6071428571
11
170.953125
21
247.6071428571
40
8
72
5.0
50
0.0
1
342.50mm
0
LINE
8
dimensions
62
255
10
-13.0
20
244.5
11
-13.0
21
236.5
0
LINE
8
dimensions
62
255
10
329.5
20
244.5
11
329.5
21
236.5
0
LINE
8
dimensions
62
255
10
-13.0
20
243.5
11
-11.1339745962
21
244.0
0
LINE
8
dimensions
62
255
10
-13.0
20
243.5
11
-11.1339745962
21
243.0
0
LINE
8
dimensions
62
255
10
329.5
20
243.5
11
327.6339745962
21
243.0
0
LINE
8
dimensions
62
255
10
329.5
20
243.5
11
327.6339745962
21
244.0
0
LINE
8
dimensions
62
255
10
-13.0
20
243.5
11
329.5
21
243.5
0
TEXT
8
dimensions
62
255
10
45.53125
20
14.1071428572
11
64.46875
21
14.1071428572
40
8
72
5.0
50
0.0
1
110.00mm
0
LINE
8
dimensions
62
255
10
0.0
20
10.0
11
1.8660254038
21
10.5
0
LINE
8
dimensions
62
255
10
0.0
20
10.0
11
1.8660254038
21
9.5
0
LINE
8
dimensions
62
255
10
110.0
20
10.0
11
108.1339745962
21
9.5
0
LINE
8
dimensions
62
255
10
110.0
20
10.0
11
108.1339745962
21
10.5
0
LINE
8
dimensions
62
255
10
0.0
20
10.0
11
110.0
21
10.0
0
TEXT
8
dimensions
62
255
10
130.0234375
20
14.1071428572
11
144.9765625
21
14.1071428572
40
8
72
5.0
50
0.0
1
55.00mm
0
LINE
8
dimensions
62
255
10
110.0
20
10.0
11
111.8660254038
21
10.5
0
LINE
8
dimensions
62
255
10
110.0
20
10.0
11
111.8660254038
21
9.5
0
LINE
8
dimensions
62
255
10
165.0
20
10.0
11
163.1339745962
21
9.5
0
LINE
8
dimensions
62
255
10
165.0
20
10.0
11
163.1339745962
21
10.5
0
LINE
8
dimensions
62
255
10
110.0
20
10.0
11
165.0
21
10.0
0
TEXT
8
dimensions
62
255
10
260.8928571429
20
73.2890625
11
260.8928571429
21
91.7109375
40
8
72
5.0
50
90.0
1
165.00mm
0
LINE
8
dimensions
62
255
10
266.0
20
0.0
11
265.0
21
0.0
0
LINE
8
dimensions
62
255
10
266.0
20
165.0
11
265.0
21
165.0
0
LINE
8
dimensions
62
255
10
265.0
20
0.0
11
264.5
21
1.8660254038
0
LINE
8
dimensions
62
255
10
265.0
20
0.0
11
265.5
21
1.8660254038
0
LINE
8
dimensions
62
255
10
265.0
20
165.0
11
265.5
21
163.1339745962
0
LINE
8
dimensions
62
255
10
265.0
20
165.0
11
264.5
21
163.1339745962
0
LINE
8
dimensions
62
255
10
265.0
20
0.0
11
265.0
21
165.0
0
LINE
8
cut
62
1
10
0.0
20
0.0
11
-13.0
21
3.4833395016
0
LINE
8
cut
62
1
10
-13.0
20
3.4833395016
11
-13.0
21
161.5166604984
0
LINE
8
cut
62
1
10
-13.0
20
161.5166604984
11
0.0
21
165.0
0
LINE
8
cut
62
1
10
264.8851648071
20
-69.0
11
175.1148351929
21
-69.0
0
ARC
8
cut
62
1
10
259.5
20
-55.0
40
15.0
50
-68.9605302188
51
0.0
0
ARC
8
cut
62
1
10
180.5
20
-55.0
40
15.0
50
180.0
51
-111.0394697812
0
LINE
8
crease
62
3
10
266.0
20
-54.0
11
174.0
21
-54.0
0
LINE
8
cut
62
1
10
110.0
20
0.0
11
0.0
21
0.0
0
LINE
8
cut
62
1
10
110.0
20
0.0
11
110.5
21
0.0
0
LINE
8
cut
62
1
10
110.5
20
0.0
11
110.5
21
-7.0
0
LINE
8
cut
62
1
10
110.5
20
-7.0
11
113.5
21
-10.0
0
LINE
8
cut
62
1
10
113.5
20
-10.0
11
120.0647552146
21
-34.5
0
LINE
8
crease
62
3
10
165.0
20
0.0
11
110.5
21
0.0
0
LINE
8
cut
62
1
10
329.5
20
0.0
11
329.5
21
-7.0
0
LINE
8
cut
62
1
10
329.5
20
-7.0
11
326.5
21
-10.0
0
LINE
8
cut
62
1
10
326.5
20
-10.0
11
319.9352447854
21
-34.5
0
LINE
8
crease
62
3
10
275.0
20
0.0
11
329.5
21
0.0
0
LINE
8
cut
62
1
10
120.0647552146
20
-34.5
11
165.0
21
-34.5
0
LINE
8
cut
62
1
10
275.0
20
-34.5
11
319.9352447854
21
-34.5
0
LINE
8
cut
62
1
10
275.0
20
0.0
11
275.0
21
-55.0
0
LINE
8
cut
62
1
10
275.0
20
-55.0
11
266.0
21
-55.0
0
LINE
8
cut
62
1
10
266.0
20
-55.0
11
266.0
21
-54.0
0
LINE
8
cut
62
1
10
174.0
20
-54.0
11
174.0
21
-55.0
0
LINE
8
cut
62
1
10
174.0
20
-55.0
11
165.0
21
-55.0
0
LINE
8
cut
62
1
10
165.0
20
-55.0
11
165.0
21
0.0
0
LINE
8
crease
62
3
10
165.0
20
-0.5
11
275.0
21
-0.5
0
LINE
8
cut
62
1
10
275.0
20
165.0
11
275.0
21
219.5
0
LINE
8
cut
62
1
10
275.0
20
219.5
11
266.0
21
219.5
0
LINE
8
cut
62
1
10
266.0
20
219.5
11
266.0
21
218.5
0
LINE
8
cut
62
1
10
174.0
20
218.5
11
174.0
21
219.5
0
LINE
8
cut
62
1
10
174.0
20
219.5
11
165.0
21
219.5
0
LINE
8
cut
62
1
10
165.0
20
219.5
11
165.0
21
165.0
0
LINE
8
crease
62
3
10
165.0
20
165.5
11
275.0
21
165.5
0
LINE
8
cut
62
1
10
110.0
20
165.0
11
111.25
21
165.0
0
LINE
8
cut
62
1
10
111.25
20
165.0
11
111.25
21
172.0
0
LINE
8
cut
62
1
10
111.25
20
172.0
11
114.25
21
175.0
0
LINE
8
cut
62
1
10
114.25
20
175.0
11
120.8147552146
21
199.5
0
LINE
8
crease
62
3
10
165.0
20
165.0
11
111.25
21
165.0
0
LINE
8
cut
62
1
10
328.75
20
165.0
11
328.75
21
172.0
0
LINE
8
cut
62
1
10
328.75
20
172.0
11
325.75
21
175.0
0
LINE
8
cut
62
1
10
325.75
20
175.0
11
319.1852447854
21
199.5
0
LINE
8
crease
62
3
10
275.0
20
165.0
11
328.75
21
165.0
0
LINE
8
cut
62
1
10
120.8147552146
20
199.5
11
165.0
21
199.5
0
LINE
8
cut
62
1
10
275.0
20
199.5
11
319.1852447854
21
199.5
0
LINE
8
cut
62
1
10
328.75
20
165.0
11
329.5
21
165.0
0
LINE
8
crease
62
3
10
108.0
20
165.0
11
2.0
21
165.0
0
LINE
8
cut
62
1
10
2.0
20
165.0
11
2.0
21
215.0
0
LINE
8
cut
62
1
10
2.0
20
215.0
11
3.0
21
217.0
0
LINE
8
cut
62
1
10
3.0
20
217.0
11
3.0
21
225.0
0
LINE
8
cut
62
1
10
3.0
20
225.0
11
107.0
21
225.0
0
LINE
8
cut
62
1
10
107.0
20
225.0
11
107.0
21
217.0
0
LINE
8
cut
62
1
10
107.0
20
217.0
11
108.0
21
215.0
0
LINE
8
cut
62
1
10
108.0
20
215.0
11
108.0
21
165.0
0
LINE
8
crease
62
3
10
2.0
20
190.0
11
108.0
21
190.0
0
LINE
8
cut
62
1
10
43.0
20
173.0
11
67.0
21
173.0
0
LINE
8
cut
62
1
10
67.0
20
179.0
11
59.0
21
179.0
0
LINE
8
cut
62
1
10
51.0
20
179.0
11
43.0
21
179.0
0
LINE
8
cut
62
1
10
43.0
20
207.0
11
67.0
21
207.0
0
LINE
8
cut
62
1
10
67.0
20
201.0
11
59.0
21
201.0
0
LINE
8
cut
62
1
10
51.0
20
201.0
11
43.0
21
201.0
0
LINE
8
cut
62
1
10
2.0
20
165.0
11
0.0
21
165.0
0
LINE
8
cut
62
1
10
108.0
20
165.0
11
110.0
21
165.0
0
LINE
8
crease
62
3
10
174.0
20
218.5
11
266.0
21
218.5
0
ARC
8
cut
62
1
10
55.0
20
179.0
40
4.0
50
0.0
51
180.0
0
ARC
8
cut
62
1
10
43.0
20
176.0
40
3.0
50
90.0
51
270.0
0
ARC
8
cut
62
1
10
67.0
20
176.0
40
3.0
50
270.0
51
90.0
0
ARC
8
cut
62
1
10
55.0
20
201.0
40
4.0
50
180.0
51
0.0
0
ARC
8
cut
62
1
10
43.0
20
204.0
40
3.0
50
90.0
51
270.0
0
ARC
8
cut
62
1
10
67.0
20
204.0
40
3.0
50
270.0
51
90.0
0
LINE
8
cut
62
1
10
266.2459666924
20
233.5
11
173.7540333076
21
233.5
0
ARC
8
cut
62
1
10
258.5
20
219.5
40
16.0
50
0.0
51
61.0449756282
0
ARC
8
cut
62
1
10
181.5
20
219.5
40
16.0
50
118.9550243718
51
180.0
0
ENDSEC
0
EOF
