  0
SECTION
  2
HEADER
  9
$ACADVER
  1
AC1015
  9
$ACADMAINTVER
 70
     6
  9
$DWGCODEPAGE
  3
ANSI_1252
  9
$INSBASE
 10
0.0
 20
0.0
 30
0.0
  9
$EXTMIN
 10
0.0
 20
0.0
 30
0.0
  9
$EXTMAX
 10
11.0
 20
8.5
 30
0.0
  9
$LIMMIN
 10
0.0
 20
0.0
  9
$LIMMAX
 10
11.0
 20
8.5
  9
$ORTHOMODE
 70
     0
  9
$REGENMODE
 70
     1
  9
$FILLMODE
 70
     1
  9
$QTEXTMODE
 70
     0
  9
$MIRRTEXT
 70
     1
  9
$LTSCALE
 40
1.0
  9
$ATTMODE
 70
     1
  9
$TEXTSIZE
 40
0.1377952756
  9
$TRACEWID
 40
0.05
  9
$TEXTSTYLE
  7
Standard
  9
$CLAYER
  8
0
  9
$CELTYPE
  6
ByLayer
  9
$CECOLOR
 62
   256
  9
$CELTSCALE
 40
1.0
  9
$DISPSILH
 70
     0
  9
$DIMSCALE
 40
1.0
  9
$DIMASZ
 40
0.2362204724
  9
$DIMEXO
 40
0.0393700787
  9
$DIMDLI
 40
0.38
  9
$DIMRND
 40
0.0
  9
$DIMDLE
 40
0.0
  9
$DIMEXE
 40
0.0393700787
  9
$DIMTP
 40
0.0
  9
$DIMTM
 40
0.0
  9
$DIMTXT
 40
0.1377952756
  9
$DIMCEN
 40
0.09
  9
$DIMTSZ
 40
0.0
  9
$DIMTOL
 70
     0
  9
$DIMLIM
 70
     0
  9
$DIMTIH
 70
     1
  9
$DIMTOH
 70
     1
  9
$DIMSE1
 70
     0
  9
$DIMSE2
 70
     0
  9
$DIMTAD
 70
     1
  9
$DIMZIN
 70
     1
  9
$DIMBLK
  1

  9
$DIMASO
 70
     1
  9
$DIMSHO
 70
     1
  9
$DIMPOST
  1

  9
$DIMAPOST
  1

  9
$DIMALT
 70
     0
  9
$DIMALTD
 70
     2
  9
$DIMALTF
 40
25.4
  9
$DIMLFAC
 40
1.0
  9
$DIMTOFL
 70
     0
  9
$DIMTVP
 40
0.0
  9
$DIMTIX
 70
     0
  9
$DIMSOXD
 70
     0
  9
$DIMSAH
 70
     0
  9
$DIMBLK1
  1

  9
$DIMBLK2
  1

  9
$DIMSTYLE
  2
Standard
  9
$DIMCLRD
 70
     0
  9
$DIMCLRE
 70
     0
  9
$DIMCLRT
 70
     0
  9
$DIMTFAC
 40
1.0
  9
$DIMGAP
 40
0.06
  9
$DIMJUST
 70
     0
  9
$DIMSD1
 70
     0
  9
$DIMSD2
 70
     0
  9
$DIMTOLJ
 70
     1
  9
$DIMTZIN
 70
     1
  9
$DIMALTZ
 70
     0
  9
$DIMALTTZ
 70
     0
  9
$DIMUPT
 70
     0
  9
$DIMDEC
 70
     4
  9
$DIMTDEC
 70
     4
  9
$DIMALTU
 70
     2
  9
$DIMALTTD
 70
     2
  9
$DIMTXSTY
  7
Standard
  9
$DIMAUNIT
 70
     0
  9
$DIMADEC
 70
     0
  9
$DIMALTRND
 40
0.0
  9
$DIMAZIN
 70
     0
  9
$DIMDSEP
 70
    46
  9
$DIMATFIT
 70
     3
  9
$DIMFRAC
 70
     0
  9
$DIMLDRBLK
  1

  9
$DIMLUNIT
 70
     2
  9
$DIMLWD
 70
    -2
  9
$DIMLWE
 70
    -2
  9
$DIMTMOVE
 70
     0
  9
$LUNITS
 70
     2
  9
$LUPREC
 70
     4
  9
$SKETCHINC
 40
0.1
  9
$FILLETRAD
 40
0.5
  9
$AUNITS
 70
     0
  9
$AUPREC
 70
     0
  9
$MENU
  1
.
  9
$ELEVATION
 40
0.0
  9
$PELEVATION
 40
0.0
  9
$THICKNESS
 40
0.0
  9
$LIMCHECK
 70
     0
  9
$CHAMFERA
 40
0.0
  9
$CHAMFERB
 40
0.0
  9
$CHAMFERC
 40
0.0
  9
$CHAMFERD
 40
0.0
  9
$SKPOLY
 70
     0
  9
$TDCREATE
 40
2458494.562414028
  9
$TDUCREATE
 40
2458494.895747361
  9
$TDUPDATE
 40
2458494.562414306
  9
$TDUUPDATE
 40
2458494.895747639
  9
$TDINDWG
 40
0.0000000116
  9
$TDUSRTIMER
 40
0.0000000116
  9
$USRTIMER
 70
     1
  9
$ANGBASE
 50
0.0
  9
$ANGDIR
 70
     0
  9
$PDMODE
 70
     0
  9
$PDSIZE
 40
-1.0
  9
$PLINEWID
 40
0.0
  9
$SPLFRAME
 70
     0
  9
$SPLINETYPE
 70
     6
  9
$SPLINESEGS
 70
     8
  9
$HANDSEED
  5
C8
  9
$SURFTAB1
 70
     6
  9
$SURFTAB2
 70
     6
  9
$SURFTYPE
 70
     6
  9
$SURFU
 70
     6
  9
$SURFV
 70
     6
  9
$UCSBASE
  2

  9
$UCSNAME
  2

  9
$UCSORG
 10
0.0
 20
0.0
 30
0.0
  9
$UCSXDIR
 10
1.0
 20
0.0
 30
0.0
  9
$UCSYDIR
 10
0.0
 20
1.0
 30
0.0
  9
$UCSORTHOREF
  2

  9
$UCSORTHOVIEW
 70
     0
  9
$UCSORGTOP
 10
0.0
 20
0.0
 30
0.0
  9
$UCSORGBOTTOM
 10
0.0
 20
0.0
 30
0.0
  9
$UCSORGLEFT
 10
0.0
 20
0.0
 30
0.0
  9
$UCSORGRIGHT
 10
0.0
 20
0.0
 30
0.0
  9
$UCSORGFRONT
 10
0.0
 20
0.0
 30
0.0
  9
$UCSORGBACK
 10
0.0
 20
0.0
 30
0.0
  9
$PUCSBASE
  2

  9
$PUCSNAME
  2

  9
$PUCSORG
 10
0.0
 20
0.0
 30
0.0
  9
$PUCSXDIR
 10
1.0
 20
0.0
 30
0.0
  9
$PUCSYDIR
 10
0.0
 20
1.0
 30
0.0
  9
$PUCSORTHOREF
  2

  9
$PUCSORTHOVIEW
 70
     0
  9
$PUCSORGTOP
 10
0.0
 20
0.0
 30
0.0
  9
$PUCSORGBOTTOM
 10
0.0
 20
0.0
 30
0.0
  9
$PUCSORGLEFT
 10
0.0
 20
0.0
 30
0.0
  9
$PUCSORGRIGHT
 10
0.0
 20
0.0
 30
0.0
  9
$PUCSORGFRONT
 10
0.0
 20
0.0
 30
0.0
  9
$PUCSORGBACK
 10
0.0
 20
0.0
 30
0.0
  9
$USERI1
 70
     0
  9
$USERI2
 70
     0
  9
$USERI3
 70
     0
  9
$USERI4
 70
     0
  9
$USERI5
 70
     0
  9
$USERR1
 40
0.0
  9
$USERR2
 40
0.0
  9
$USERR3
 40
0.0
  9
$USERR4
 40
0.0
  9
$USERR5
 40
0.0
  9
$WORLDVIEW
 70
     1
  9
$SHADEDGE
 70
     3
  9
$SHADEDIF
 70
    70
  9
$TILEMODE
 70
     1
  9
$MAXACTVP
 70
    64
  9
$PINSBASE
 10
0.0
 20
0.0
 30
0.0
  9
$PLIMCHECK
 70
     0
  9
$PEXTMIN
 10
1.0000000000E+20
 20
1.0000000000E+20
 30
1.0000000000E+20
  9
$PEXTMAX
 10
-1.0000000000E+20
 20
-1.0000000000E+20
 30
-1.0000000000E+20
  9
$PLIMMIN
 10
0.0
 20
0.0
  9
$PLIMMAX
 10
12.0
 20
9.0
  9
$UNITMODE
 70
     0
  9
$VISRETAIN
 70
     1
  9
$PLINEGEN
 70
     0
  9
$PSLTSCALE
 70
     1
  9
$TREEDEPTH
 70
  3020
  9
$CMLSTYLE
  2
Standard
  9
$CMLJUST
 70
     0
  9
$CMLSCALE
 40
1.0
  9
$PROXYGRAPHICS
 70
     1
  9
$MEASUREMENT
 70
     0
  9
$CELWEIGHT
370
    -1
  9
$ENDCAPS
280
     0
  9
$JOINSTYLE
280
     0
  9
$LWDISPLAY
290
     1
  9
$INSUNITS
 70
     1
  9
$HYPERLINKBASE
  1

  9
$STYLESHEET
  1

  9
$XEDIT
290
     1
  9
$CEPSNTYPE
380
     0
  9
$PSTYLEMODE
290
     1
  9
$FINGERPRINTGUID
  2
{8887F17D-CD96-46D0-820A-B0852222EB91}
  9
$VERSIONGUID
  2
{FAEB1C32-E019-11D5-929B-00C0DF256EC4}
  9
$EXTNAMES
290
     1
  9
$PSVPSCALE
 40
0.0
  9
$OLESTARTUP
290
     0
  0
ENDSEC
  0
SECTION
  2
CLASSES
  0
CLASS
  1
ACDBDICTIONARYWDFLT
  2
AcDbDictionaryWithDefault
  3
ObjectDBX Classes
 90
        0
280
     0
281
     0
  0
CLASS
  1
VISUALSTYLE
  2
AcDbVisualStyle
  3
ObjectDBX Classes
 90
     4095
280
     0
281
     0
  0
CLASS
  1
MATERIAL
  2
AcDbMaterial
  3
ObjectDBX Classes
 90
     1153
280
     0
281
     0
  0
CLASS
  1
SCALE
  2
AcDbScale
  3
ObjectDBX Classes
 90
     1153
280
     0
281
     0
  0
CLASS
  1
TABLESTYLE
  2
AcDbTableStyle
  3
ObjectDBX Classes
 90
     4095
280
     0
281
     0
  0
CLASS
  1
MLEADERSTYLE
  2
AcDbMLeaderStyle
  3
ACDB_MLEADERSTYLE_CLASS
 90
     4095
280
     0
281
     0
  0
CLASS
  1
SUN
  2
AcDbSun
  3
SCENEOE
 90
     1153
280
     0
281
     0
  0
CLASS
  1
ACDBPLACEHOLDER
  2
AcDbPlaceHolder
  3
ObjectDBX Classes
 90
        0
280
     0
281
     0
  0
CLASS
  1
LAYOUT
  2
AcDbLayout
  3
ObjectDBX Classes
 90
        0
280
     0
281
     0
  0
ENDSEC
  0
SECTION
  2
TABLES
  0
TABLE
  2
VPORT
  5
8
330
0
100
AcDbSymbolTable
 70
     1
  0
VPORT
  5
29
330
8
100
AcDbSymbolTableRecord
100
AcDbViewportTableRecord
  2
*Active
 70
     0
 10
0.0
 20
0.0
 11
1.0
 21
1.0
 12
5.5
 22
4.25
 13
0.0
 23
0.0
 14
0.5
 24
0.5
 15
0.5
 25
0.5
 16
0.0
 26
0.0
 36
1.0
 17
0.0
 27
0.0
 37
0.0
 40
8.5
 41
1.2941176471
 42
50.0
 43
0.0
 44
0.0
 50
0.0
 51
0.0
 71
     0
 72
  2000
 73
     1
 74
     3
 75
     0
 76
     0
 77
     0
 78
     0
281
     0
 65
     1
110
0.0
120
0.0
130
0.0
111
1.0
121
0.0
131
0.0
112
0.0
122
1.0
132
0.0
 79
     0
146
0.0
  0
ENDTAB
  0
TABLE
  2
LTYPE
  5
5
330
0
100
AcDbSymbolTable
 70
     6
  0
LTYPE
  5
14
330
5
100
AcDbSymbolTableRecord
100
AcDbLinetypeTableRecord
  2
ByBlock
 70
     0
  3

 72
    65
 73
     0
 40
0.0
  0
LTYPE
  5
15
330
5
100
AcDbSymbolTableRecord
100
AcDbLinetypeTableRecord
  2
ByLayer
 70
     0
  3

 72
    65
 73
     0
 40
0.0
  0
LTYPE
  5
16
330
5
100
AcDbSymbolTableRecord
100
AcDbLinetypeTableRecord
  2
Continuous
 70
     0
  3
Solid line
 72
    65
 73
     0
 40
0.0
  0
LTYPE
  5
6E
330
5
100
AcDbSymbolTableRecord
100
AcDbLinetypeTableRecord
  2
HIDDEN
 70
     0
  3
Hidden __ __ __ __ __ __ __ __ __ __ __ __ __ __
 72
    65
 73
     2
 40
0.075
 49
0.05
 74
     0
 49
-0.025
 74
     0
  0
LTYPE
  5
6F
330
5
100
AcDbSymbolTableRecord
100
AcDbLinetypeTableRecord
  2
PHANTOM
 70
     0
  3
Phantom ______  __  __  ______  __  __  ______
 72
    65
 73
     6
 40
0.5
 49
0.25
 74
     0
 49
-0.05
 74
     0
 49
0.05
 74
     0
 49
-0.05
 74
     0
 49
0.05
 74
     0
 49
-0.05
 74
     0
  0
LTYPE
  5
70
330
5
100
AcDbSymbolTableRecord
100
AcDbLinetypeTableRecord
  2
CENTER
 70
     0
  3
Center ____ _ ____ _ ____ _ ____ _ ____ _ ____
 72
    65
 73
     4
 40
0.4
 49
0.25
 74
     0
 49
-0.05
 74
     0
 49
0.05
 74
     0
 49
-0.05
 74
     0
  0
LTYPE
  5
71
330
5
100
AcDbSymbolTableRecord
100
AcDbLinetypeTableRecord
  2
CENTERX2
 70
     0
  3
Center (2x) ________  __  ________  __  _____
 72
    65
 73
     4
 40
0.8
 49
0.5
 74
     0
 49
-0.1
 74
     0
 49
0.1
 74
     0
 49
-0.1
 74
     0
  0
LTYPE
  5
72
330
5
100
AcDbSymbolTableRecord
100
AcDbLinetypeTableRecord
  2
DOT2
 70
     0
  3
Dot (.5x) ........................................
 72
    65
 73
     2
 40
0.025
 49
0.0
 74
     0
 49
-0.025
 74
     0
  0
ENDTAB
  0
TABLE
  2
LAYER
  5
2
330
0
100
AcDbSymbolTable
 70
     3
  0
LAYER
  5
10
330
2
100
AcDbSymbolTableRecord
100
AcDbLayerTableRecord
  2
0
 70
     0
 62
     7
  6
Continuous
370
    -3
390
F
  0
LAYER
  5
73
330
2
100
AcDbSymbolTableRecord
100
AcDbLayerTableRecord
  2
SLD-0
 70
     0
 62
   179
  6
Continuous
370
    -3
390
F
  0
LAYER
  5
74
330
2
100
AcDbSymbolTableRecord
100
AcDbLayerTableRecord
  2
#LAYER_1
 70
     0
 62
   179
  6
Continuous
370
    -3
390
F
  0
ENDTAB
  0
TABLE
  2
STYLE
  5
3
330
0
100
AcDbSymbolTable
 70
     1
  0
STYLE
  5
11
330
3
100
AcDbSymbolTableRecord
100
AcDbTextStyleTableRecord
  2
Standard
 70
     0
 40
0.0
 41
1.0
 50
0.0
 71
     0
 42
0.1377952756
  3
txt
  4

  0
ENDTAB
  0
TABLE
  2
VIEW
  5
6
330
0
100
AcDbSymbolTable
 70
     0
  0
ENDTAB
  0
TABLE
  2
UCS
  5
7
330
0
100
AcDbSymbolTable
 70
     0
  0
ENDTAB
  0
TABLE
  2
APPID
  5
9
330
0
100
AcDbSymbolTable
 70
     1
  0
APPID
  5
12
330
9
100
AcDbSymbolTableRecord
100
AcDbRegAppTableRecord
  2
ACAD
 70
     0
  0
ENDTAB
  0
TABLE
  2
DIMSTYLE
  5
A
330
0
100
AcDbSymbolTable
 70
     1
100
AcDbDimStyleTable
  0
DIMSTYLE
105
27
330
A
100
AcDbSymbolTableRecord
100
AcDbDimStyleTableRecord
  2
Standard
 70
     0
178
     0
340
11
  0
ENDTAB
  0
TABLE
  2
BLOCK_RECORD
  5
1
330
0
100
AcDbSymbolTable
 70
     1
  0
BLOCK_RECORD
  5
1F
330
1
100
AcDbSymbolTableRecord
100
AcDbBlockTableRecord
  2
*Model_Space
340
22
  0
BLOCK_RECORD
  5
1B
330
1
100
AcDbSymbolTableRecord
100
AcDbBlockTableRecord
  2
*Paper_Space
340
1E
  0
BLOCK_RECORD
  5
23
330
1
100
AcDbSymbolTableRecord
100
AcDbBlockTableRecord
  2
*Paper_Space0
340
26
  0
ENDTAB
  0
ENDSEC
  0
SECTION
  2
BLOCKS
  0
BLOCK
  5
20
330
1F
100
AcDbEntity
  8
0
100
AcDbBlockBegin
  2
*Model_Space
 70
     0
 10
0.0
 20
0.0
 30
0.0
  3
*Model_Space
  1

  0
ENDBLK
  5
21
330
1F
100
AcDbEntity
  8
0
100
AcDbBlockEnd
  0
BLOCK
  5
1C
330
1B
100
AcDbEntity
 67
     1
  8
0
100
AcDbBlockBegin
  2
*Paper_Space
 70
     0
 10
0.0
 20
0.0
 30
0.0
  3
*Paper_Space
  1

  0
ENDBLK
  5
1D
330
1B
100
AcDbEntity
 67
     1
  8
0
100
AcDbBlockEnd
  0
BLOCK
  5
24
330
23
100
AcDbEntity
  8
0
100
AcDbBlockBegin
  2
*Paper_Space0
 70
     0
 10
0.0
 20
0.0
 30
0.0
  3
*Paper_Space0
  1

  0
ENDBLK
  5
25
330
23
100
AcDbEntity
  8
0
100
AcDbBlockEnd
  0
ENDSEC
  0
SECTION
  2
ENTITIES
  0
LINE
  5
75
330
1F
100
AcDbEntity
  8
#LAYER_1
 62
   179
100
AcDbLine
 10
5.1043976378
 20
4.2208976378
 30
0.0
 11
5.2672204724
 21
4.2208976378
 31
0.0
  0
LINE
  5
76
330
1F
100
AcDbEntity
  8
#LAYER_1
100
AcDbLine
 10
5.5382244094
 20
4.2257204724
 30
0.0
 11
5.5382244094
 21
4.2443657491
 31
0.0
  0
LINE
  5
77
330
1F
100
AcDbEntity
  8
#LAYER_1
 62
   179
100
AcDbLine
 10
5.2938092151
 20
4.3011338583
 30
0.0
 11
4.9501968504
 21
4.3011338583
 31
0.0
  0
LINE
  5
78
330
1F
100
AcDbEntity
  8
#LAYER_1
 62
   179
100
AcDbLine
 10
4.9501968504
 20
3.5983937008
 30
0.0
 11
5.3031889764
 21
3.5983937008
 31
0.0
  0
LINE
  5
79
330
1F
100
AcDbEntity
  8
#LAYER_1
 62
   179
100
AcDbLine
 10
5.5317559055
 20
3.6698622047
 30
0.0
 11
5.5317559055
 21
3.7395826772
 31
0.0
  0
LINE
  5
7A
330
1F
100
AcDbEntity
  8
#LAYER_1
 62
   179
100
AcDbLine
 10
5.2608110236
 20
3.6786023622
 30
0.0
 11
5.1043976378
 21
3.6786023622
 31
0.0
  0
LINE
  5
7B
330
1F
100
AcDbEntity
  8
#LAYER_1
 62
   179
100
AcDbLine
 10
5.5217244094
 20
3.8227952756
 30
0.0
 11
5.4966456693
 21
3.846015748
 31
0.0
  0
LINE
  5
7C
330
1F
100
AcDbEntity
  8
#LAYER_1
 62
   179
100
AcDbLine
 10
5.4966456693
 20
3.846015748
 30
0.0
 11
5.47153937
 21
3.8227952756
 31
0.0
  0
LINE
  5
7D
330
1F
100
AcDbEntity
  8
#LAYER_1
 62
   179
100
AcDbLine
 10
5.47153937
 20
3.8227952756
 30
0.0
 11
5.4464724409
 21
3.846015748
 31
0.0
  0
LINE
  5
7E
330
1F
100
AcDbEntity
  8
#LAYER_1
 62
   179
100
AcDbLine
 10
5.4464724409
 20
3.846015748
 30
0.0
 11
5.4213622047
 21
3.8227952756
 31
0.0
  0
LINE
  5
7F
330
1F
100
AcDbEntity
  8
#LAYER_1
 62
   179
100
AcDbLine
 10
5.4213622047
 20
3.8227952756
 30
0.0
 11
5.3962834645
 21
3.846015748
 31
0.0
  0
LINE
  5
80
330
1F
100
AcDbEntity
  8
#LAYER_1
 62
   179
100
AcDbLine
 10
5.3962834645
 20
3.846015748
 30
0.0
 11
5.3712244094
 21
3.8227952756
 31
0.0
  0
LINE
  5
81
330
1F
100
AcDbEntity
  8
#LAYER_1
 62
   179
100
AcDbLine
 10
5.3712244094
 20
3.8227952756
 30
0.0
 11
5.3461102362
 21
3.846015748
 31
0.0
  0
LINE
  5
82
330
1F
100
AcDbEntity
  8
#LAYER_1
 62
   179
100
AcDbLine
 10
5.3461102362
 20
3.846015748
 30
0.0
 11
5.3210472441
 21
3.8227952756
 31
0.0
  0
LINE
  5
83
330
1F
100
AcDbEntity
  8
#LAYER_1
 62
   179
100
AcDbLine
 10
5.3210472441
 20
3.8227952756
 30
0.0
 11
5.2959409448
 21
3.846015748
 31
0.0
  0
LINE
  5
84
330
1F
100
AcDbEntity
  8
#LAYER_1
 62
   179
100
AcDbLine
 10
5.2959409448
 20
3.846015748
 30
0.0
 11
5.2708622047
 21
3.8227952756
 31
0.0
  0
LINE
  5
85
330
1F
100
AcDbEntity
  8
#LAYER_1
 62
   179
100
AcDbLine
 10
5.2708622047
 20
3.8227952756
 30
0.0
 11
5.2608110236
 21
3.8321181102
 31
0.0
  0
LINE
  5
86
330
1F
100
AcDbEntity
  8
#LAYER_1
 62
   179
100
AcDbLine
 10
5.2608110236
 20
3.8321181102
 30
0.0
 11
5.2608110236
 21
3.6786023622
 31
0.0
  0
LINE
  5
87
330
1F
100
AcDbEntity
  8
#LAYER_1
 62
   179
100
AcDbLine
 10
5.2608110236
 20
3.5984409449
 30
0.0
 11
5.3031574803
 21
3.5984409449
 31
0.0
  0
LINE
  5
88
330
1F
100
AcDbEntity
  8
#LAYER_1
 62
   179
100
AcDbLine
 10
5.5317874015
 20
3.6698937008
 30
0.0
 11
5.5317874015
 21
3.8321181102
 31
0.0
  0
LINE
  5
89
330
1F
100
AcDbEntity
  8
#LAYER_1
 62
   179
100
AcDbLine
 10
5.5317874015
 20
3.8321181102
 30
0.0
 11
5.5217244094
 21
3.8227952756
 31
0.0
  0
LINE
  5
8A
330
1F
100
AcDbEntity
  8
#LAYER_1
 62
   179
100
AcDbLine
 10
5.2739409449
 20
4.0484330709
 30
0.0
 11
5.299019685
 21
4.0716968504
 31
0.0
  0
LINE
  5
8B
330
1F
100
AcDbEntity
  8
#LAYER_1
 62
   179
100
AcDbLine
 10
5.299019685
 20
4.0716968504
 30
0.0
 11
5.3240984252
 21
4.0484330709
 31
0.0
  0
LINE
  5
8C
330
1F
100
AcDbEntity
  8
#LAYER_1
 62
   179
100
AcDbLine
 10
5.3240984252
 20
4.0484330709
 30
0.0
 11
5.3491968504
 21
4.0716968504
 31
0.0
  0
LINE
  5
8D
330
1F
100
AcDbEntity
  8
#LAYER_1
 62
   179
100
AcDbLine
 10
5.3491968504
 20
4.0716968504
 30
0.0
 11
5.3742755906
 21
4.0484330709
 31
0.0
  0
LINE
  5
8E
330
1F
100
AcDbEntity
  8
#LAYER_1
 62
   179
100
AcDbLine
 10
5.3742755906
 20
4.0484330709
 30
0.0
 11
5.3993661417
 21
4.0716968504
 31
0.0
  0
LINE
  5
8F
330
1F
100
AcDbEntity
  8
#LAYER_1
 62
   179
100
AcDbLine
 10
5.3993661417
 20
4.0716968504
 30
0.0
 11
5.4244606299
 21
4.0484330709
 31
0.0
  0
LINE
  5
90
330
1F
100
AcDbEntity
  8
#LAYER_1
 62
   179
100
AcDbLine
 10
5.4244606299
 20
4.0484330709
 30
0.0
 11
5.449523622
 21
4.0716968504
 31
0.0
  0
LINE
  5
91
330
1F
100
AcDbEntity
  8
#LAYER_1
 62
   179
100
AcDbLine
 10
5.449523622
 20
4.0716968504
 30
0.0
 11
5.4746377953
 21
4.0484330709
 31
0.0
  0
LINE
  5
92
330
1F
100
AcDbEntity
  8
#LAYER_1
 62
   179
100
AcDbLine
 10
5.4746377953
 20
4.0484330709
 30
0.0
 11
5.4997165354
 21
4.0716968504
 31
0.0
  0
LINE
  5
93
330
1F
100
AcDbEntity
  8
#LAYER_1
 62
   179
100
AcDbLine
 10
5.4997165354
 20
4.0716968504
 30
0.0
 11
5.5248110236
 21
4.0484330709
 31
0.0
  0
LINE
  5
94
330
1F
100
AcDbEntity
  8
#LAYER_1
 62
   179
100
AcDbLine
 10
5.5248110236
 20
4.0484330709
 30
0.0
 11
5.5382244094
 21
4.0608464567
 31
0.0
  0
LINE
  5
95
330
1F
100
AcDbEntity
  8
#LAYER_1
 62
   179
100
AcDbLine
 10
5.5382244094
 20
4.0608464567
 30
0.0
 11
5.5382244094
 21
4.2257204724
 31
0.0
  0
LINE
  5
96
330
1F
100
AcDbEntity
  8
#LAYER_1
100
AcDbLine
 10
5.2672204724
 20
4.2208976378
 30
0.0
 11
5.2672204724
 21
4.0546614173
 31
0.0
  0
LINE
  5
97
330
1F
100
AcDbEntity
  8
#LAYER_1
 62
   179
100
AcDbLine
 10
5.2672204724
 20
4.0546614173
 30
0.0
 11
5.2739409449
 21
4.0484330709
 31
0.0
  0
LINE
  5
98
330
1F
100
AcDbEntity
  8
#LAYER_1
 62
   179
100
AcDbLine
 10
5.1261259843
 20
4.848484252
 30
0.0
 11
5.1116220472
 21
4.7388228346
 31
0.0
  0
LINE
  5
99
330
1F
100
AcDbEntity
  8
#LAYER_1
 62
   179
100
AcDbLine
 10
5.1472913386
 20
4.7031732283
 30
0.0
 11
5.4858251852
 21
4.7031732283
 31
0.0
  0
LINE
  5
9A
330
1F
100
AcDbEntity
  8
#LAYER_1
 62
   179
100
AcDbLine
 10
6.3438661417
 20
4.848484252
 30
0.0
 11
5.7732283465
 21
4.848484252
 31
0.0
  0
LINE
  5
9B
330
1F
100
AcDbEntity
  8
#LAYER_1
100
AcDbLine
 10
5.5242519685
 20
4.848484252
 30
0.0
 11
5.1261259843
 21
4.848484252
 31
0.0
  0
LINE
  5
9C
330
1F
100
AcDbEntity
  8
#LAYER_1
100
AcDbLine
 10
5.7579395397
 20
4.7031732283
 30
0.0
 11
6.2385826772
 21
4.7031732283
 31
0.0
  0
LINE
  5
9D
330
1F
100
AcDbEntity
  8
#LAYER_1
 62
   179
100
AcDbLine
 10
5.5242519685
 20
4.9197874016
 30
0.0
 11
5.7732283465
 21
4.9197874016
 31
0.0
  0
LINE
  5
9E
330
1F
100
AcDbEntity
  8
#LAYER_1
 62
   179
100
AcDbLine
 10
5.7732283465
 20
4.9197874016
 30
0.0
 11
5.7732283465
 21
4.848484252
 31
0.0
  0
LINE
  5
9F
330
1F
100
AcDbEntity
  8
#LAYER_1
100
AcDbLine
 10
5.2938092151
 20
4.3011338583
 30
0.0
 11
5.4858251852
 21
4.7031732283
 31
0.0
  0
LINE
  5
A0
330
1F
100
AcDbEntity
  8
#LAYER_1
 62
   179
100
AcDbLine
 10
5.7579395397
 20
4.7031732283
 30
0.0
 11
5.5382244094
 21
4.2443657491
 31
0.0
  0
LINE
  5
A1
330
1F
100
AcDbEntity
  8
#LAYER_1
 62
   179
100
AcDbLine
 10
4.853456693
 20
3.9254094488
 30
0.0
 11
4.813052518
 21
3.9254094488
 31
0.0
  0
LINE
  5
A2
330
1F
100
AcDbEntity
  8
#LAYER_1
 62
   179
100
AcDbLine
 10
4.8142121379
 20
3.9842519685
 30
0.0
 11
4.853456693
 21
3.9842519685
 31
0.0
  0
LINE
  5
A3
330
1F
100
AcDbEntity
  8
#LAYER_1
 62
   179
100
AcDbLine
 10
4.853456693
 20
3.9842519685
 30
0.0
 11
4.853456693
 21
3.9254094488
 31
0.0
  0
LINE
  5
A4
330
1F
100
AcDbEntity
  8
#LAYER_1
100
AcDbLine
 10
5.5242519685
 20
4.848484252
 30
0.0
 11
5.5242519685
 21
4.9197874016
 31
0.0
  0
SPLINE
  5
A5
330
1F
100
AcDbEntity
  8
#LAYER_1
 62
   165
100
AcDbSpline
210
0.0
220
0.0
230
1.0
 70
     8
 71
     3
 72
     8
 73
     4
 74
     0
 42
0.000000001
 43
0.00000001
 40
0.0
 40
0.0
 40
0.0
 40
0.0
 40
0.2
 40
0.2
 40
0.2
 40
0.2
 10
6.775326771653543
 20
4.25
 30
0.0
 10
6.775326771653543
 20
3.763771653543307
 30
0.0
 10
6.204354330708662
 20
3.369629921259842
 30
0.0
 10
5.5
 20
3.369629921259842
 30
0.0
  0
SPLINE
  5
A6
330
1F
100
AcDbEntity
  8
#LAYER_1
 62
   165
100
AcDbSpline
210
0.0
220
0.0
230
1.0
 70
     8
 71
     3
 72
     8
 73
     4
 74
     0
 42
0.000000001
 43
0.00000001
 40
0.2
 40
0.2
 40
0.2
 40
0.2
 40
0.4
 40
0.4
 40
0.4
 40
0.4
 10
5.5
 20
3.369629921259842
 30
0.0
 10
4.795669291338583
 20
3.369629921259842
 30
0.0
 10
4.224677165354331
 20
3.763771653543307
 30
0.0
 10
4.224677165354331
 20
4.25
 30
0.0
  0
SPLINE
  5
A7
330
1F
100
AcDbEntity
  8
#LAYER_1
 62
   165
100
AcDbSpline
210
0.0
220
0.0
230
1.0
 70
     8
 71
     3
 72
     8
 73
     4
 74
     0
 42
0.000000001
 43
0.00000001
 40
0.4
 40
0.4
 40
0.4
 40
0.4
 40
0.6
 40
0.6
 40
0.6
 40
0.6
 10
4.224677165354331
 20
4.25
 30
0.0
 10
4.224677165354331
 20
4.736232283464567
 30
0.0
 10
4.795669291338583
 20
5.130370078740158
 30
0.0
 10
5.5
 20
5.130370078740158
 30
0.0
  0
SPLINE
  5
A8
330
1F
100
AcDbEntity
  8
#LAYER_1
 62
   165
100
AcDbSpline
210
0.0
220
0.0
230
1.0
 70
     8
 71
     3
 72
     8
 73
     4
 74
     0
 42
0.000000001
 43
0.00000001
 40
0.6
 40
0.6
 40
0.6
 40
0.6
 40
1.0
 40
1.0
 40
1.0
 40
1.0
 10
5.5
 20
5.130370078740158
 30
0.0
 10
6.204354330708662
 20
5.130370078740158
 30
0.0
 10
6.775326771653543
 20
4.736232283464567
 30
0.0
 10
6.775326771653543
 20
4.25
 30
0.0
  0
SPLINE
  5
A9
330
1F
100
AcDbEntity
  8
#LAYER_1
 62
   179
100
AcDbSpline
210
0.0
220
0.0
230
1.0
 70
     8
 71
     3
 72
     8
 73
     4
 74
     0
 42
0.000000001
 43
0.00000001
 40
0.3684210526315789
 40
0.3684210526315789
 40
0.3684210526315789
 40
0.3684210526315789
 40
0.4210526315789473
 40
0.4210526315789473
 40
0.4210526315789473
 40
0.4210526315789473
 10
4.9501968503937
 20
4.301133858267716
 30
0.0
 10
4.845759842519687
 20
4.301133858267717
 30
0.0
 10
4.750736220472442
 20
4.261937007874016
 30
0.0
 10
4.681921259842521
 20
4.198267716535433
 30
0.0
  0
SPLINE
  5
AA
330
1F
100
AcDbEntity
  8
#LAYER_1
 62
   179
100
AcDbSpline
210
0.0
220
0.0
230
1.0
 70
     8
 71
     3
 72
     8
 73
     4
 74
     0
 42
0.000000001
 43
0.00000001
 40
0.4210526315789473
 40
0.4210526315789473
 40
0.4210526315789473
 40
0.4210526315789473
 40
0.4736842105263158
 40
0.4736842105263158
 40
0.4736842105263158
 40
0.4736842105263158
 10
4.681921259842521
 20
4.198267716535433
 30
0.0
 10
4.613283464566929
 20
4.134629921259842
 30
0.0
 10
4.571047244094488
 20
4.046582677165354
 30
0.0
 10
4.571047244094488
 20
3.949779527559055
 30
0.0
  0
SPLINE
  5
AB
330
1F
100
AcDbEntity
  8
#LAYER_1
 62
   179
100
AcDbSpline
210
0.0
220
0.0
230
1.0
 70
     8
 71
     3
 72
     8
 73
     4
 74
     0
 42
0.000000001
 43
0.00000001
 40
0.4736842105263158
 40
0.4736842105263158
 40
0.4736842105263158
 40
0.4736842105263158
 40
0.5263157894736842
 40
0.5263157894736842
 40
0.5263157894736842
 40
0.5263157894736842
 10
4.571047244094489
 20
3.949779527559056
 30
0.0
 10
4.571047244094489
 20
3.756173228346458
 30
0.0
 10
4.741295275590551
 20
3.598393700787402
 30
0.0
 10
4.9501968503937
 20
3.598393700787402
 30
0.0
  0
SPLINE
  5
AC
330
1F
100
AcDbEntity
  8
#LAYER_1
 62
   179
100
AcDbSpline
210
0.0
220
0.0
230
1.0
 70
     8
 71
     3
 72
     8
 73
     4
 74
     0
 42
0.000000001
 43
0.00000001
 40
0.5789473684210527
 40
0.5789473684210527
 40
0.5789473684210527
 40
0.5789473684210527
 40
0.631578947368421
 40
0.631578947368421
 40
0.631578947368421
 40
0.631578947368421
 10
5.303188976377953
 20
3.598393700787402
 30
0.0
 10
5.388783464566929
 20
3.598393700787402
 30
0.0
 10
5.467767716535433
 20
3.624590551181103
 30
0.0
 10
5.531755905511811
 20
3.66986220472441
 30
0.0
  0
SPLINE
  5
AD
330
1F
100
AcDbEntity
  8
#LAYER_1
 62
   179
100
AcDbSpline
210
0.0
220
0.0
230
1.0
 70
     8
 71
     3
 72
     8
 73
     4
 74
     0
 42
0.000000001
 43
0.00000001
 40
0.7894736842105263
 40
0.7894736842105263
 40
0.7894736842105263
 40
0.7894736842105263
 40
0.8392057463642367
 40
0.8392057463642367
 40
0.8392057463642367
 40
0.8392057463642367
 10
5.104397637758503
 20
3.678602362200605
 30
0.0
 10
4.951623679755109
 20
3.678602362200605
 30
0.0
 10
4.826387569089163
 20
3.78766053345977
 30
0.0
 10
4.813052517969307
 20
3.92540944881166
 30
0.0
  0
SPLINE
  5
AE
330
1F
100
AcDbEntity
  8
#LAYER_1
 62
   179
100
AcDbSpline
210
0.0
220
0.0
230
1.0
 70
     8
 71
     3
 72
     8
 73
     4
 74
     0
 42
0.000000001
 43
0.00000001
 40
0.8502954602985113
 40
0.8502954602985113
 40
0.8502954602985113
 40
0.8502954602985113
 40
0.8947368421052632
 40
0.8947368421052632
 40
0.8947368421052632
 40
0.8947368421052632
 10
4.81421213786767
 20
3.9842519684967
 30
0.0
 10
4.822568580176925
 20
4.045503826438239
 30
0.0
 10
4.852885835672163
 20
4.100349211584839
 30
0.0
 10
4.897448818897638
 20
4.141594488188977
 30
0.0
  0
SPLINE
  5
AF
330
1F
100
AcDbEntity
  8
#LAYER_1
 62
   179
100
AcDbSpline
210
0.0
220
0.0
230
1.0
 70
     8
 71
     3
 72
     8
 73
     4
 74
     0
 42
0.000000001
 43
0.00000001
 40
0.8947368421052632
 40
0.8947368421052632
 40
0.8947368421052632
 40
0.8947368421052632
 40
1.0
 40
1.0
 40
1.0
 40
1.0
 10
4.897448818897638
 20
4.141594488188977
 30
0.0
 10
4.9501968503937
 20
4.190444881889764
 30
0.0
 10
5.02348031496063
 20
4.220897637795275
 30
0.0
 10
5.104397637795276
 20
4.220897637795275
 30
0.0
  0
SPLINE
  5
B0
330
1F
100
AcDbEntity
  8
#LAYER_1
 62
   179
100
AcDbSpline
210
0.0
220
0.0
230
1.0
 70
     8
 71
     3
 72
     8
 73
     4
 74
     0
 42
0.000000001
 43
0.00000001
 40
0.1666666666666667
 40
0.1666666666666667
 40
0.1666666666666667
 40
0.1666666666666667
 40
0.3333333333333333
 40
0.3333333333333333
 40
0.3333333333333333
 40
0.3333333333333333
 10
4.905661417322834
 20
3.712110236220473
 30
0.0
 10
4.922244094488189
 20
3.712110236220473
 30
0.0
 10
4.935787401574802
 20
3.698582677165354
 30
0.0
 10
4.935787401574802
 20
3.682007874015748
 30
0.0
  0
SPLINE
  5
B1
330
1F
100
AcDbEntity
  8
#LAYER_1
 62
   179
100
AcDbSpline
210
0.0
220
0.0
230
1.0
 70
     8
 71
     3
 72
     8
 73
     4
 74
     0
 42
0.000000001
 43
0.00000001
 40
0.3333333333333333
 40
0.3333333333333333
 40
0.3333333333333333
 40
0.3333333333333333
 40
0.5
 40
0.5
 40
0.5
 40
0.5
 10
4.935787401574802
 20
3.682007874015748
 30
0.0
 10
4.935787401574802
 20
3.665417322834646
 30
0.0
 10
4.922244094488189
 20
3.65203937007874
 30
0.0
 10
4.905661417322834
 20
3.65203937007874
 30
0.0
  0
SPLINE
  5
B2
330
1F
100
AcDbEntity
  8
#LAYER_1
 62
   179
100
AcDbSpline
210
0.0
220
0.0
230
1.0
 70
     8
 71
     3
 72
     8
 73
     4
 74
     0
 42
0.000000001
 43
0.00000001
 40
0.5
 40
0.5
 40
0.5
 40
0.5
 40
0.6666666666666666
 40
0.6666666666666666
 40
0.6666666666666666
 40
0.6666666666666666
 10
4.905661417322834
 20
3.65203937007874
 30
0.0
 10
4.889078740157481
 20
3.65203937007874
 30
0.0
 10
4.875708661417323
 20
3.665417322834646
 30
0.0
 10
4.875708661417323
 20
3.682007874015748
 30
0.0
  0
SPLINE
  5
B3
330
1F
100
AcDbEntity
  8
#LAYER_1
 62
   179
100
AcDbSpline
210
0.0
220
0.0
230
1.0
 70
     8
 71
     3
 72
     8
 73
     4
 74
     0
 42
0.000000001
 43
0.00000001
 40
0.6666666666666666
 40
0.6666666666666666
 40
0.6666666666666666
 40
0.6666666666666666
 40
1.0
 40
1.0
 40
1.0
 40
1.0
 10
4.875708661417323
 20
3.682007874015748
 30
0.0
 10
4.875708661417323
 20
3.698582677165354
 30
0.0
 10
4.889078740157481
 20
3.712110236220473
 30
0.0
 10
4.905661417322834
 20
3.712110236220473
 30
0.0
  0
SPLINE
  5
B4
330
1F
100
AcDbEntity
  8
#LAYER_1
 62
   179
100
AcDbSpline
210
0.0
220
0.0
230
1.0
 70
     8
 71
     3
 72
     8
 73
     4
 74
     0
 42
0.000000001
 43
0.00000001
 40
0.1666666666666667
 40
0.1666666666666667
 40
0.1666666666666667
 40
0.1666666666666667
 40
0.3333333333333333
 40
0.3333333333333333
 40
0.3333333333333333
 40
0.3333333333333333
 10
4.678712598425196
 20
3.881318897637795
 30
0.0
 10
4.643055118110237
 20
3.881318897637795
 30
0.0
 10
4.614015748031496
 20
3.910169291338583
 30
0.0
 10
4.614015748031496
 20
3.946043307086614
 30
0.0
  0
SPLINE
  5
B5
330
1F
100
AcDbEntity
  8
#LAYER_1
 62
   179
100
AcDbSpline
210
0.0
220
0.0
230
1.0
 70
     8
 71
     3
 72
     8
 73
     4
 74
     0
 42
0.000000001
 43
0.00000001
 40
0.3333333333333333
 40
0.3333333333333333
 40
0.3333333333333333
 40
0.3333333333333333
 40
0.5
 40
0.5
 40
0.5
 40
0.5
 10
4.614015748031496
 20
3.946043307086614
 30
0.0
 10
4.614015748031496
 20
3.981858267716536
 30
0.0
 10
4.643055118110237
 20
4.010700787401575
 30
0.0
 10
4.678712598425196
 20
4.010700787401575
 30
0.0
  0
SPLINE
  5
B6
330
1F
100
AcDbEntity
  8
#LAYER_1
 62
   179
100
AcDbSpline
210
0.0
220
0.0
230
1.0
 70
     8
 71
     3
 72
     8
 73
     4
 74
     0
 42
0.000000001
 43
0.00000001
 40
0.5
 40
0.5
 40
0.5
 40
0.5
 40
0.6666666666666666
 40
0.6666666666666666
 40
0.6666666666666666
 40
0.6666666666666666
 10
4.678712598425196
 20
4.010700787401575
 30
0.0
 10
4.714555118110236
 20
4.010700787401575
 30
0.0
 10
4.743606299212598
 20
3.981858267716536
 30
0.0
 10
4.743606299212598
 20
3.946043307086614
 30
0.0
  0
SPLINE
  5
B7
330
1F
100
AcDbEntity
  8
#LAYER_1
 62
   179
100
AcDbSpline
210
0.0
220
0.0
230
1.0
 70
     8
 71
     3
 72
     8
 73
     4
 74
     0
 42
0.000000001
 43
0.00000001
 40
0.6666666666666666
 40
0.6666666666666666
 40
0.6666666666666666
 40
0.6666666666666666
 40
1.0
 40
1.0
 40
1.0
 40
1.0
 10
4.743606299212598
 20
3.946043307086614
 30
0.0
 10
4.743606299212598
 20
3.910169291338583
 30
0.0
 10
4.714555118110236
 20
3.881318897637795
 30
0.0
 10
4.678712598425196
 20
3.881318897637795
 30
0.0
  0
SPLINE
  5
B8
330
1F
100
AcDbEntity
  8
#LAYER_1
 62
   179
100
AcDbSpline
210
0.0
220
0.0
230
1.0
 70
     8
 71
     3
 72
     8
 73
     4
 74
     0
 42
0.000000001
 43
0.00000001
 40
0.1666666666666667
 40
0.1666666666666667
 40
0.1666666666666667
 40
0.1666666666666667
 40
0.3333333333333333
 40
0.3333333333333333
 40
0.3333333333333333
 40
0.3333333333333333
 10
4.752523622047244
 20
3.72336220472441
 30
0.0
 10
4.72594094488189
 20
3.72336220472441
 30
0.0
 10
4.704374015748032
 20
3.74494094488189
 30
0.0
 10
4.704374015748032
 20
3.771326771653543
 30
0.0
  0
SPLINE
  5
B9
330
1F
100
AcDbEntity
  8
#LAYER_1
 62
   179
100
AcDbSpline
210
0.0
220
0.0
230
1.0
 70
     8
 71
     3
 72
     8
 73
     4
 74
     0
 42
0.000000001
 43
0.00000001
 40
0.3333333333333333
 40
0.3333333333333333
 40
0.3333333333333333
 40
0.3333333333333333
 40
0.5
 40
0.5
 40
0.5
 40
0.5
 10
4.704374015748032
 20
3.771326771653544
 30
0.0
 10
4.704374015748032
 20
3.797877952755906
 30
0.0
 10
4.72594094488189
 20
3.819437007874016
 30
0.0
 10
4.752523622047244
 20
3.819437007874016
 30
0.0
  0
SPLINE
  5
BA
330
1F
100
AcDbEntity
  8
#LAYER_1
 62
   179
100
AcDbSpline
210
0.0
220
0.0
230
1.0
 70
     8
 71
     3
 72
     8
 73
     4
 74
     0
 42
0.000000001
 43
0.00000001
 40
0.5
 40
0.5
 40
0.5
 40
0.5
 40
0.6666666666666666
 40
0.6666666666666666
 40
0.6666666666666666
 40
0.6666666666666666
 10
4.752523622047244
 20
3.819437007874016
 30
0.0
 10
4.778889763779528
 20
3.819437007874016
 30
0.0
 10
4.800472440944882
 20
3.797877952755905
 30
0.0
 10
4.800472440944882
 20
3.771326771653543
 30
0.0
  0
SPLINE
  5
BB
330
1F
100
AcDbEntity
  8
#LAYER_1
 62
   179
100
AcDbSpline
210
0.0
220
0.0
230
1.0
 70
     8
 71
     3
 72
     8
 73
     4
 74
     0
 42
0.000000001
 43
0.00000001
 40
0.6666666666666666
 40
0.6666666666666666
 40
0.6666666666666666
 40
0.6666666666666666
 40
1.0
 40
1.0
 40
1.0
 40
1.0
 10
4.800472440944882
 20
3.771326771653543
 30
0.0
 10
4.800472440944882
 20
3.74494094488189
 30
0.0
 10
4.778889763779528
 20
3.72336220472441
 30
0.0
 10
4.752523622047244
 20
3.72336220472441
 30
0.0
  0
SPLINE
  5
BC
330
1F
100
AcDbEntity
  8
#LAYER_1
 62
   179
100
AcDbSpline
210
0.0
220
0.0
230
1.0
 70
     8
 71
     3
 72
     8
 73
     4
 74
     0
 42
0.000000001
 43
0.00000001
 40
0.1666666666666667
 40
0.1666666666666667
 40
0.1666666666666667
 40
0.1666666666666667
 40
0.3333333333333333
 40
0.3333333333333333
 40
0.3333333333333333
 40
0.3333333333333333
 10
4.755732283464567
 20
4.066535433070866
 30
0.0
 10
4.729169291338583
 20
4.066535433070867
 30
0.0
 10
4.707779527559056
 20
4.088114173228346
 30
0.0
 10
4.707779527559055
 20
4.114503937007874
 30
0.0
  0
SPLINE
  5
BD
330
1F
100
AcDbEntity
  8
#LAYER_1
 62
   179
100
AcDbSpline
210
0.0
220
0.0
230
1.0
 70
     8
 71
     3
 72
     8
 73
     4
 74
     0
 42
0.000000001
 43
0.00000001
 40
0.3333333333333333
 40
0.3333333333333333
 40
0.3333333333333333
 40
0.3333333333333333
 40
0.5
 40
0.5
 40
0.5
 40
0.5
 10
4.707779527559055
 20
4.114503937007874
 30
0.0
 10
4.707779527559055
 20
4.141031496062992
 30
0.0
 10
4.729169291338582
 20
4.162645669291338
 30
0.0
 10
4.755732283464567
 20
4.162645669291338
 30
0.0
  0
SPLINE
  5
BE
330
1F
100
AcDbEntity
  8
#LAYER_1
 62
   179
100
AcDbSpline
210
0.0
220
0.0
230
1.0
 70
     8
 71
     3
 72
     8
 73
     4
 74
     0
 42
0.000000001
 43
0.00000001
 40
0.5
 40
0.5
 40
0.5
 40
0.5
 40
0.6666666666666666
 40
0.6666666666666666
 40
0.6666666666666666
 40
0.6666666666666666
 10
4.755732283464567
 20
4.162645669291338
 30
0.0
 10
4.782295275590551
 20
4.162645669291338
 30
0.0
 10
4.80386220472441
 20
4.141031496062992
 30
0.0
 10
4.80386220472441
 20
4.114503937007874
 30
0.0
  0
SPLINE
  5
BF
330
1F
100
AcDbEntity
  8
#LAYER_1
 62
   179
100
AcDbSpline
210
0.0
220
0.0
230
1.0
 70
     8
 71
     3
 72
     8
 73
     4
 74
     0
 42
0.000000001
 43
0.00000001
 40
0.6666666666666666
 40
0.6666666666666666
 40
0.6666666666666666
 40
0.6666666666666666
 40
1.0
 40
1.0
 40
1.0
 40
1.0
 10
4.80386220472441
 20
4.114503937007874
 30
0.0
 10
4.80386220472441
 20
4.088114173228346
 30
0.0
 10
4.782295275590552
 20
4.066535433070866
 30
0.0
 10
4.755732283464567
 20
4.066535433070866
 30
0.0
  0
SPLINE
  5
C0
330
1F
100
AcDbEntity
  8
#LAYER_1
 62
   179
100
AcDbSpline
210
0.0
220
0.0
230
1.0
 70
     8
 71
     3
 72
     8
 73
     4
 74
     0
 42
0.000000001
 43
0.00000001
 40
0.1666666666666667
 40
0.1666666666666667
 40
0.1666666666666667
 40
0.1666666666666667
 40
0.3333333333333333
 40
0.3333333333333333
 40
0.3333333333333333
 40
0.3333333333333333
 10
4.875708661417323
 20
4.2095
 30
0.0
 10
4.875708661417323
 20
4.226086614173228
 30
0.0
 10
4.889078740157481
 20
4.239448818897638
 30
0.0
 10
4.905661417322834
 20
4.239448818897638
 30
0.0
  0
SPLINE
  5
C1
330
1F
100
AcDbEntity
  8
#LAYER_1
 62
   179
100
AcDbSpline
210
0.0
220
0.0
230
1.0
 70
     8
 71
     3
 72
     8
 73
     4
 74
     0
 42
0.000000001
 43
0.00000001
 40
0.3333333333333333
 40
0.3333333333333333
 40
0.3333333333333333
 40
0.3333333333333333
 40
0.5
 40
0.5
 40
0.5
 40
0.5
 10
4.905661417322834
 20
4.239448818897638
 30
0.0
 10
4.922244094488189
 20
4.239448818897638
 30
0.0
 10
4.935787401574802
 20
4.226086614173228
 30
0.0
 10
4.935787401574802
 20
4.2095
 30
0.0
  0
SPLINE
  5
C2
330
1F
100
AcDbEntity
  8
#LAYER_1
 62
   179
100
AcDbSpline
210
0.0
220
0.0
230
1.0
 70
     8
 71
     3
 72
     8
 73
     4
 74
     0
 42
0.000000001
 43
0.00000001
 40
0.5
 40
0.5
 40
0.5
 40
0.5
 40
0.6666666666666666
 40
0.6666666666666666
 40
0.6666666666666666
 40
0.6666666666666666
 10
4.935787401574802
 20
4.2095
 30
0.0
 10
4.935787401574802
 20
4.192944881889765
 30
0.0
 10
4.922244094488188
 20
4.179389763779528
 30
0.0
 10
4.905661417322834
 20
4.179389763779528
 30
0.0
  0
SPLINE
  5
C3
330
1F
100
AcDbEntity
  8
#LAYER_1
 62
   179
100
AcDbSpline
210
0.0
220
0.0
230
1.0
 70
     8
 71
     3
 72
     8
 73
     4
 74
     0
 42
0.000000001
 43
0.00000001
 40
0.6666666666666666
 40
0.6666666666666666
 40
0.6666666666666666
 40
0.6666666666666666
 40
1.0
 40
1.0
 40
1.0
 40
1.0
 10
4.905661417322834
 20
4.179389763779528
 30
0.0
 10
4.889078740157481
 20
4.179389763779527
 30
0.0
 10
4.875708661417323
 20
4.192944881889764
 30
0.0
 10
4.875708661417323
 20
4.2095
 30
0.0
  0
SPLINE
  5
C4
330
1F
100
AcDbEntity
  8
#LAYER_1
 62
   179
100
AcDbSpline
210
0.0
220
0.0
230
1.0
 70
     8
 71
     3
 72
     8
 73
     4
 74
     0
 42
0.000000001
 43
0.00000001
 40
0.7647058823529411
 40
0.7647058823529411
 40
0.7647058823529411
 40
0.7647058823529411
 40
0.8235294117647058
 40
0.8235294117647058
 40
0.8235294117647058
 40
0.8235294117647058
 10
5.303157480278188
 20
3.59844094487777
 30
0.0
 10
5.388783464530157
 20
3.59844094487777
 30
0.0
 10
5.467814960593148
 20
3.624566929129739
 30
0.0
 10
5.531787401538031
 20
3.669893700783282
 30
0.0
  0
SPLINE
  5
C5
330
1F
100
AcDbEntity
  8
#LAYER_1
 62
   179
100
AcDbSpline
210
0.0
220
0.0
230
1.0
 70
     8
 71
     3
 72
     8
 73
     4
 74
     0
 42
0.000000001
 43
0.00000001
 40
0.1428571428571428
 40
0.1428571428571428
 40
0.1428571428571428
 40
0.1428571428571428
 40
0.2857142857142857
 40
0.2857142857142857
 40
0.2857142857142857
 40
0.2857142857142857
 10
5.111622047244094
 20
4.738822834645669
 30
0.0
 10
5.1116220472441
 20
4.719129921259842
 30
0.0
 10
5.127590551181111
 20
4.703173228346461
 30
0.0
 10
5.147291338582686
 20
4.703173228346466
 30
0.0
  0
SPLINE
  5
C6
330
1F
100
AcDbEntity
  8
#LAYER_1
 62
   179
100
AcDbSpline
210
0.0
220
0.0
230
1.0
 70
     8
 71
     3
 72
     8
 73
     4
 74
     0
 42
0.000000001
 43
0.00000001
 40
0.4285714285714285
 40
0.4285714285714285
 40
0.4285714285714285
 40
0.4285714285714285
 40
0.5714285714285714
 40
0.5714285714285714
 40
0.5714285714285714
 40
0.5714285714285714
 10
6.238582677165384
 20
4.703173228346466
 30
0.0
 10
6.267795275590582
 20
4.702472440944895
 30
0.0
 10
6.307027559055148
 20
4.737397637795293
 30
0.0
 10
6.31843700787404
 20
4.762417322834663
 30
0.0
  0
SPLINE
  5
C7
330
1F
100
AcDbEntity
  8
#LAYER_1
 62
   179
100
AcDbSpline
210
0.0
220
0.0
230
1.0
 70
     8
 71
     2
 72
     6
 73
     3
 74
     0
 42
0.000000001
 43
0.00000001
 40
0.5714285714285714
 40
0.5714285714285714
 40
0.5714285714285714
 40
0.7142857142857143
 40
0.7142857142857143
 40
0.7142857142857143
 10
6.31843700787404
 20
4.762417322834663
 30
0.0
 10
6.330527559055137
 20
4.788874015748052
 30
0.0
 10
6.343866141732289
 20
4.848484251968528
 30
0.0
  0
ENDSEC
  0
SECTION
  2
OBJECTS
  0
DICTIONARY
  5
C
330
0
100
AcDbDictionary
281
     1
  3
ACAD_GROUP
350
D
  3
ACAD_LAYOUT
350
1A
  3
ACAD_MLINESTYLE
350
17
  3
ACAD_PLOTSETTINGS
350
19
  3
ACAD_PLOTSTYLENAME
350
E
  3
ACAD_SCALELIST
350
47
  0
DICTIONARY
  5
D
102
{ACAD_REACTORS
330
C
102
}
330
C
100
AcDbDictionary
281
     1
  0
DICTIONARY
  5
1A
102
{ACAD_REACTORS
330
C
102
}
330
C
100
AcDbDictionary
281
     1
  3
Layout1
350
1E
  3
Layout2
350
26
  3
Model
350
22
  0
DICTIONARY
  5
17
102
{ACAD_REACTORS
330
C
102
}
330
C
100
AcDbDictionary
281
     1
  3
Standard
350
18
  0
DICTIONARY
  5
19
102
{ACAD_REACTORS
330
C
102
}
330
C
100
AcDbDictionary
281
     1
  0
ACDBDICTIONARYWDFLT
  5
E
102
{ACAD_REACTORS
330
C
102
}
330
C
100
AcDbDictionary
281
     1
  3
Normal
350
F
100
AcDbDictionaryWithDefault
340
F
  0
DICTIONARY
  5
47
102
{ACAD_REACTORS
330
C
102
}
330
C
100
AcDbDictionary
281
     1
  3
A0
350
48
  3
A1
350
49
  3
A2
350
4A
  3
A3
350
4B
  3
A4
350
4C
  3
A5
350
4D
  3
A6
350
4E
  3
A7
350
4F
  3
A8
350
50
  3
A9
350
51
  3
B0
350
52
  3
B1
350
53
  3
B2
350
54
  3
B3
350
55
  3
B4
350
56
  3
B5
350
57
  3
B6
350
58
  3
B7
350
59
  3
B8
350
5A
  3
B9
350
5B
  3
C0
350
5C
  3
C1
350
5D
  3
C2
350
5E
  3
C3
350
5F
  3
C4
350
60
  3
C5
350
61
  3
C6
350
62
  3
C7
350
63
  3
C8
350
64
  3
C9
350
65
  3
D0
350
66
  3
D1
350
67
  3
D2
350
68
  0
LAYOUT
  5
1E
102
{ACAD_REACTORS
330
1A
102
}
330
1A
100
AcDbPlotSettings
  1

  2
none_device
  4

  6

 40
0.0
 41
0.0
 42
0.0
 43
0.0
 44
0.0
 45
0.0
 46
0.0
 47
0.0
 48
0.0
 49
0.0
140
0.0
141
0.0
142
1.0
143
1.0
 70
   688
 72
     0
 73
     0
 74
     5
  7

 75
    16
147
1.0
148
0.0
149
0.0
100
AcDbLayout
  1
Layout1
 70
     1
 71
     1
 10
0.0
 20
0.0
 11
12.0
 21
9.0
 12
0.0
 22
0.0
 32
0.0
 14
1.0000000000E+20
 24
1.0000000000E+20
 34
1.0000000000E+20
 15
-1.0000000000E+20
 25
-1.0000000000E+20
 35
-1.0000000000E+20
146
0.0
 13
0.0
 23
0.0
 33
0.0
 16
1.0
 26
0.0
 36
0.0
 17
0.0
 27
1.0
 37
0.0
 76
     0
330
1B
  0
LAYOUT
  5
26
102
{ACAD_REACTORS
330
1A
102
}
330
1A
100
AcDbPlotSettings
  1

  2
none_device
  4

  6

 40
0.0
 41
0.0
 42
0.0
 43
0.0
 44
0.0
 45
0.0
 46
0.0
 47
0.0
 48
0.0
 49
0.0
140
0.0
141
0.0
142
1.0
143
1.0
 70
   688
 72
     0
 73
     0
 74
     5
  7

 75
    16
147
1.0
148
0.0
149
0.0
100
AcDbLayout
  1
Layout2
 70
     1
 71
     2
 10
0.0
 20
0.0
 11
0.0
 21
0.0
 12
0.0
 22
0.0
 32
0.0
 14
0.0
 24
0.0
 34
0.0
 15
0.0
 25
0.0
 35
0.0
146
0.0
 13
0.0
 23
0.0
 33
0.0
 16
1.0
 26
0.0
 36
0.0
 17
0.0
 27
1.0
 37
0.0
 76
     0
330
23
  0
LAYOUT
  5
22
102
{ACAD_REACTORS
330
1A
102
}
330
1A
100
AcDbPlotSettings
  1

  2
none_device
  4
Letter_(8.50_x_11.00_Inches)
  6

 40
6.35
 41
6.35
 42
6.35000508
 43
6.35000508
 44
215.9
 45
279.4
 46
0.0
 47
0.0
 48
0.0
 49
0.0
140
0.0
141
0.0
142
1.0
143
1.0
 70
  1712
 72
     0
 73
     0
 74
     0
  7

 75
     0
147
1.0
148
0.0
149
0.0
100
AcDbLayout
  1
Model
 70
     1
 71
     0
 10
0.0
 20
0.0
 11
11.0
 21
8.5
 12
0.0
 22
0.0
 32
0.0
 14
0.0
 24
0.0
 34
0.0
 15
11.0
 25
8.5
 35
0.0
146
0.0
 13
0.0
 23
0.0
 33
0.0
 16
1.0
 26
0.0
 36
0.0
 17
0.0
 27
1.0
 37
0.0
 76
     0
330
1F
331
29
  0
MLINESTYLE
  5
18
102
{ACAD_REACTORS
330
17
102
}
330
17
100
AcDbMlineStyle
  2
Standard
 70
     0
  3

 62
   256
 51
90.0
 52
90.0
 71
     2
 49
0.5
 62
   256
  6
BYLAYER
 49
-0.5
 62
   256
  6
BYLAYER
  0
ACDBPLACEHOLDER
  5
F
102
{ACAD_REACTORS
330
E
102
}
330
E
  0
SCALE
  5
48
102
{ACAD_REACTORS
330
47
102
}
330
47
100
AcDbScale
 70
     0
300
1:1
140
1.0
141
1.0
290
     1
  0
SCALE
  5
49
102
{ACAD_REACTORS
330
47
102
}
330
47
100
AcDbScale
 70
     0
300
1:2
140
1.0
141
2.0
290
     0
  0
SCALE
  5
4A
102
{ACAD_REACTORS
330
47
102
}
330
47
100
AcDbScale
 70
     0
300
1:4
140
1.0
141
4.0
290
     0
  0
SCALE
  5
4B
102
{ACAD_REACTORS
330
47
102
}
330
47
100
AcDbScale
 70
     0
300
1:5
140
1.0
141
5.0
290
     0
  0
SCALE
  5
4C
102
{ACAD_REACTORS
330
47
102
}
330
47
100
AcDbScale
 70
     0
300
1:8
140
1.0
141
8.0
290
     0
  0
SCALE
  5
4D
102
{ACAD_REACTORS
330
47
102
}
330
47
100
AcDbScale
 70
     0
300
1:10
140
1.0
141
10.0
290
     0
  0
SCALE
  5
4E
102
{ACAD_REACTORS
330
47
102
}
330
47
100
AcDbScale
 70
     0
300
1:16
140
1.0
141
16.0
290
     0
  0
SCALE
  5
4F
102
{ACAD_REACTORS
330
47
102
}
330
47
100
AcDbScale
 70
     0
300
1:20
140
1.0
141
20.0
290
     0
  0
SCALE
  5
50
102
{ACAD_REACTORS
330
47
102
}
330
47
100
AcDbScale
 70
     0
300
1:30
140
1.0
141
30.0
290
     0
  0
SCALE
  5
51
102
{ACAD_REACTORS
330
47
102
}
330
47
100
AcDbScale
 70
     0
300
1:40
140
1.0
141
40.0
290
     0
  0
SCALE
  5
52
102
{ACAD_REACTORS
330
47
102
}
330
47
100
AcDbScale
 70
     0
300
1:50
140
1.0
141
50.0
290
     0
  0
SCALE
  5
53
102
{ACAD_REACTORS
330
47
102
}
330
47
100
AcDbScale
 70
     0
300
1:100
140
1.0
141
100.0
290
     0
  0
SCALE
  5
54
102
{ACAD_REACTORS
330
47
102
}
330
47
100
AcDbScale
 70
     0
300
2:1
140
2.0
141
1.0
290
     0
  0
SCALE
  5
55
102
{ACAD_REACTORS
330
47
102
}
330
47
100
AcDbScale
 70
     0
300
4:1
140
4.0
141
1.0
290
     0
  0
SCALE
  5
56
102
{ACAD_REACTORS
330
47
102
}
330
47
100
AcDbScale
 70
     0
300
8:1
140
8.0
141
1.0
290
     0
  0
SCALE
  5
57
102
{ACAD_REACTORS
330
47
102
}
330
47
100
AcDbScale
 70
     0
300
10:1
140
10.0
141
1.0
290
     0
  0
SCALE
  5
58
102
{ACAD_REACTORS
330
47
102
}
330
47
100
AcDbScale
 70
     0
300
100:1
140
100.0
141
1.0
290
     0
  0
SCALE
  5
59
102
{ACAD_REACTORS
330
47
102
}
330
47
100
AcDbScale
 70
     0
300
1/128" = 1'-0"
140
0.0078125
141
12.0
290
     0
  0
SCALE
  5
5A
102
{ACAD_REACTORS
330
47
102
}
330
47
100
AcDbScale
 70
     0
300
1/64" = 1'-0"
140
0.015625
141
12.0
290
     0
  0
SCALE
  5
5B
102
{ACAD_REACTORS
330
47
102
}
330
47
100
AcDbScale
 70
     0
300
1/32" = 1'-0"
140
0.03125
141
12.0
290
     0
  0
SCALE
  5
5C
102
{ACAD_REACTORS
330
47
102
}
330
47
100
AcDbScale
 70
     0
300
1/16" = 1'-0"
140
0.0625
141
12.0
290
     0
  0
SCALE
  5
5D
102
{ACAD_REACTORS
330
47
102
}
330
47
100
AcDbScale
 70
     0
300
3/32" = 1'-0"
140
0.09375
141
12.0
290
     0
  0
SCALE
  5
5E
102
{ACAD_REACTORS
330
47
102
}
330
47
100
AcDbScale
 70
     0
300
1/8" = 1'-0"
140
0.125
141
12.0
290
     0
  0
SCALE
  5
5F
102
{ACAD_REACTORS
330
47
102
}
330
47
100
AcDbScale
 70
     0
300
3/16" = 1'-0"
140
0.1875
141
12.0
290
     0
  0
SCALE
  5
60
102
{ACAD_REACTORS
330
47
102
}
330
47
100
AcDbScale
 70
     0
300
1/4" = 1'-0"
140
0.25
141
12.0
290
     0
  0
SCALE
  5
61
102
{ACAD_REACTORS
330
47
102
}
330
47
100
AcDbScale
 70
     0
300
3/8" = 1'-0"
140
0.375
141
12.0
290
     0
  0
SCALE
  5
62
102
{ACAD_REACTORS
330
47
102
}
330
47
100
AcDbScale
 70
     0
300
1/2" = 1'-0"
140
0.5
141
12.0
290
     0
  0
SCALE
  5
63
102
{ACAD_REACTORS
330
47
102
}
330
47
100
AcDbScale
 70
     0
300
3/4" = 1'-0"
140
0.75
141
12.0
290
     0
  0
SCALE
  5
64
102
{ACAD_REACTORS
330
47
102
}
330
47
100
AcDbScale
 70
     0
300
1" = 1'-0"
140
1.0
141
12.0
290
     0
  0
SCALE
  5
65
102
{ACAD_REACTORS
330
47
102
}
330
47
100
AcDbScale
 70
     0
300
1-1/2" = 1'-0"
140
1.5
141
12.0
290
     0
  0
SCALE
  5
66
102
{ACAD_REACTORS
330
47
102
}
330
47
100
AcDbScale
 70
     0
300
3" = 1'-0"
140
3.0
141
12.0
290
     0
  0
SCALE
  5
67
102
{ACAD_REACTORS
330
47
102
}
330
47
100
AcDbScale
 70
     0
300
6" = 1'-0"
140
6.0
141
12.0
290
     0
  0
SCALE
  5
68
102
{ACAD_REACTORS
330
47
102
}
330
47
100
AcDbScale
 70
     0
300
1'-0" = 1'-0"
140
12.0
141
12.0
290
     0
  0
ENDSEC
  0
EOF
